  0
SECTION
  2
HEADER
  9
$ACADVER
  1
AC1032
  9
$ACADMAINTVER
 90
      251
  9
$DWGCODEPAGE
  3
ANSI_1252
  9
$REQUIREDVERSIONS
160
                 0
  9
$INSBASE
 10
0.0
 20
0.0
 30
0.0
  9
$EXTMIN
 10
1.000000000000000E+20
 20
1.000000000000000E+20
 30
1.000000000000000E+20
  9
$EXTMAX
 10
-1.000000000000000E+20
 20
-1.000000000000000E+20
 30
-1.000000000000000E+20
  9
$LIMMIN
 10
0.0
 20
0.0
  9
$LIMMAX
 10
12.0
 20
9.0
  9
$ORTHOMODE
 70
     0
  9
$REGENMODE
 70
     1
  9
$FILLMODE
 70
     1
  9
$QTEXTMODE
 70
     0
  9
$MIRRTEXT
 70
     0
  9
$LTSCALE
 40
1.0
  9
$ATTMODE
 70
     1
  9
$TEXTSIZE
 40
0.2
  9
$TRACEWID
 40
0.05
  9
$TEXTSTYLE
  7
Standard
  9
$CLAYER
  8
0
  9
$CELTYPE
  6
ByLayer
  9
$CECOLOR
 62
   256
  9
$CELTSCALE
 40
1.0
  9
$DISPSILH
 70
     0
  9
$DIMSCALE
 40
1.0
  9
$DIMASZ
 40
0.18
  9
$DIMEXO
 40
0.0625
  9
$DIMDLI
 40
0.38
  9
$DIMRND
 40
0.0
  9
$DIMDLE
 40
0.0
  9
$DIMEXE
 40
0.18
  9
$DIMTP
 40
0.0
  9
$DIMTM
 40
0.0
  9
$DIMTXT
 40
0.18
  9
$DIMCEN
 40
0.09
  9
$DIMTSZ
 40
0.0
  9
$DIMTOL
 70
     0
  9
$DIMLIM
 70
     0
  9
$DIMTIH
 70
     1
  9
$DIMTOH
 70
     1
  9
$DIMSE1
 70
     0
  9
$DIMSE2
 70
     0
  9
$DIMTAD
 70
     0
  9
$DIMZIN
 70
     0
  9
$DIMBLK
  1

  9
$DIMASO
 70
     1
  9
$DIMSHO
 70
     1
  9
$DIMPOST
  1

  9
$DIMAPOST
  1

  9
$DIMALT
 70
     0
  9
$DIMALTD
 70
     2
  9
$DIMALTF
 40
25.4
  9
$DIMLFAC
 40
1.0
  9
$DIMTOFL
 70
     0
  9
$DIMTVP
 40
0.0
  9
$DIMTIX
 70
     0
  9
$DIMSOXD
 70
     0
  9
$DIMSAH
 70
     0
  9
$DIMBLK1
  1

  9
$DIMBLK2
  1

  9
$DIMSTYLE
  2
Standard
  9
$DIMCLRD
 70
     0
  9
$DIMCLRE
 70
     0
  9
$DIMCLRT
 70
     0
  9
$DIMTFAC
 40
1.0
  9
$DIMGAP
 40
0.09
  9
$DIMJUST
 70
     0
  9
$DIMSD1
 70
     0
  9
$DIMSD2
 70
     0
  9
$DIMTOLJ
 70
     1
  9
$DIMTZIN
 70
     0
  9
$DIMALTZ
 70
     0
  9
$DIMALTTZ
 70
     0
  9
$DIMUPT
 70
     0
  9
$DIMDEC
 70
     4
  9
$DIMTDEC
 70
     4
  9
$DIMALTU
 70
     2
  9
$DIMALTTD
 70
     2
  9
$DIMTXSTY
  7
Standard
  9
$DIMAUNIT
 70
     0
  9
$DIMADEC
 70
     0
  9
$DIMALTRND
 40
0.0
  9
$DIMAZIN
 70
     0
  9
$DIMDSEP
 70
    46
  9
$DIMATFIT
 70
     3
  9
$DIMFRAC
 70
     0
  9
$DIMLDRBLK
  1

  9
$DIMLUNIT
 70
     2
  9
$DIMLWD
 70
    -2
  9
$DIMLWE
 70
    -2
  9
$DIMTMOVE
 70
     0
  9
$DIMFXL
 40
1.0
  9
$DIMFXLON
 70
     0
  9
$DIMJOGANG
 40
0.7853981633974483
  9
$DIMTFILL
 70
     0
  9
$DIMTFILLCLR
 70
     0
  9
$DIMARCSYM
 70
     0
  9
$DIMLTYPE
  6

  9
$DIMLTEX1
  6

  9
$DIMLTEX2
  6

  9
$DIMTXTDIRECTION
 70
     0
  9
$LUNITS
 70
     2
  9
$LUPREC
 70
     4
  9
$SKETCHINC
 40
0.1
  9
$FILLETRAD
 40
0.0
  9
$AUNITS
 70
     0
  9
$AUPREC
 70
     0
  9
$MENU
  1
.
  9
$ELEVATION
 40
0.0
  9
$PELEVATION
 40
0.0
  9
$THICKNESS
 40
0.0
  9
$LIMCHECK
 70
     0
  9
$CHAMFERA
 40
0.0
  9
$CHAMFERB
 40
0.0
  9
$CHAMFERC
 40
0.0
  9
$CHAMFERD
 40
0.0
  9
$SKPOLY
 70
     0
  9
$TDCREATE
 40
2460416.711967593
  9
$TDUCREATE
 40
2460416.628634259
  9
$TDUPDATE
 40
2460416.711967593
  9
$TDUUPDATE
 40
2460416.628634259
  9
$TDINDWG
 40
0.0000000000
  9
$TDUSRTIMER
 40
0.0000000000
  9
$USRTIMER
 70
     1
  9
$ANGBASE
 50
0.0
  9
$ANGDIR
 70
     0
  9
$PDMODE
 70
     0
  9
$PDSIZE
 40
0.0
  9
$PLINEWID
 40
0.0
  9
$SPLFRAME
 70
     0
  9
$SPLINETYPE
 70
     6
  9
$SPLINESEGS
 70
     8
  9
$HANDSEED
  5
2CD
  9
$SURFTAB1
 70
     6
  9
$SURFTAB2
 70
     6
  9
$SURFTYPE
 70
     6
  9
$SURFU
 70
     6
  9
$SURFV
 70
     6
  9
$UCSBASE
  2

  9
$UCSNAME
  2

  9
$UCSORG
 10
0.0
 20
0.0
 30
0.0
  9
$UCSXDIR
 10
1.0
 20
0.0
 30
0.0
  9
$UCSYDIR
 10
0.0
 20
1.0
 30
0.0
  9
$UCSORTHOREF
  2

  9
$UCSORTHOVIEW
 70
     0
  9
$UCSORGTOP
 10
0.0
 20
0.0
 30
0.0
  9
$UCSORGBOTTOM
 10
0.0
 20
0.0
 30
0.0
  9
$UCSORGLEFT
 10
0.0
 20
0.0
 30
0.0
  9
$UCSORGRIGHT
 10
0.0
 20
0.0
 30
0.0
  9
$UCSORGFRONT
 10
0.0
 20
0.0
 30
0.0
  9
$UCSORGBACK
 10
0.0
 20
0.0
 30
0.0
  9
$PUCSBASE
  2

  9
$PUCSNAME
  2

  9
$PUCSORG
 10
0.0
 20
0.0
 30
0.0
  9
$PUCSXDIR
 10
1.0
 20
0.0
 30
0.0
  9
$PUCSYDIR
 10
0.0
 20
1.0
 30
0.0
  9
$PUCSORTHOREF
  2

  9
$PUCSORTHOVIEW
 70
     0
  9
$PUCSORGTOP
 10
0.0
 20
0.0
 30
0.0
  9
$PUCSORGBOTTOM
 10
0.0
 20
0.0
 30
0.0
  9
$PUCSORGLEFT
 10
0.0
 20
0.0
 30
0.0
  9
$PUCSORGRIGHT
 10
0.0
 20
0.0
 30
0.0
  9
$PUCSORGFRONT
 10
0.0
 20
0.0
 30
0.0
  9
$PUCSORGBACK
 10
0.0
 20
0.0
 30
0.0
  9
$USERI1
 70
     0
  9
$USERI2
 70
     0
  9
$USERI3
 70
     0
  9
$USERI4
 70
     0
  9
$USERI5
 70
     0
  9
$USERR1
 40
0.0
  9
$USERR2
 40
0.0
  9
$USERR3
 40
0.0
  9
$USERR4
 40
0.0
  9
$USERR5
 40
0.0
  9
$WORLDVIEW
 70
     1
  9
$SHADEDGE
 70
     3
  9
$SHADEDIF
 70
    70
  9
$TILEMODE
 70
     1
  9
$MAXACTVP
 70
    64
  9
$PINSBASE
 10
0.0
 20
0.0
 30
0.0
  9
$PLIMCHECK
 70
     0
  9
$PEXTMIN
 10
1.000000000000000E+20
 20
1.000000000000000E+20
 30
1.000000000000000E+20
  9
$PEXTMAX
 10
-1.000000000000000E+20
 20
-1.000000000000000E+20
 30
-1.000000000000000E+20
  9
$PLIMMIN
 10
0.0
 20
0.0
  9
$PLIMMAX
 10
12.0
 20
9.0
  9
$UNITMODE
 70
     0
  9
$VISRETAIN
 70
     1
  9
$PLINEGEN
 70
     0
  9
$PSLTSCALE
 70
     1
  9
$TREEDEPTH
 70
  3020
  9
$CMLSTYLE
  2
Standard
  9
$CMLJUST
 70
     0
  9
$CMLSCALE
 40
1.0
  9
$PROXYGRAPHICS
 70
     1
  9
$MEASUREMENT
 70
     0
  9
$CELWEIGHT
370
    -1
  9
$ENDCAPS
280
     0
  9
$JOINSTYLE
280
     0
  9
$LWDISPLAY
290
     1
  9
$INSUNITS
 70
     4
  9
$HYPERLINKBASE
  1

  9
$STYLESHEET
  1

  9
$XEDIT
290
     1
  9
$CEPSNTYPE
380
     0
  9
$PSTYLEMODE
290
     1
  9
$FINGERPRINTGUID
  2
{8C855830-DBCE-264F-A268-A8B455BE6559}
  9
$VERSIONGUID
  2
{1B1E31B3-4656-2742-849A-F59CA7FBD6D1}
  9
$EXTNAMES
290
     1
  9
$PSVPSCALE
 40
0.0
  9
$OLESTARTUP
290
     0
  9
$SORTENTS
280
   127
  9
$INDEXCTL
280
     0
  9
$HIDETEXT
280
     1
  9
$XCLIPFRAME
280
     2
  9
$HALOGAP
280
     0
  9
$OBSCOLOR
 70
   257
  9
$OBSLTYPE
280
     0
  9
$INTERSECTIONDISPLAY
280
     0
  9
$INTERSECTIONCOLOR
 70
   257
  9
$DIMASSOC
280
     2
  9
$PROJECTNAME
  1

  9
$CAMERADISPLAY
290
     0
  9
$LENSLENGTH
 40
50.0
  9
$CAMERAHEIGHT
 40
0.0
  9
$STEPSPERSEC
 40
2.0
  9
$STEPSIZE
 40
6.0
  9
$3DDWFPREC
 40
2.0
  9
$PSOLWIDTH
 40
0.25
  9
$PSOLHEIGHT
 40
4.0
  9
$LOFTANG1
 40
1.570796326794896
  9
$LOFTANG2
 40
1.570796326794896
  9
$LOFTMAG1
 40
0.0
  9
$LOFTMAG2
 40
0.0
  9
$LOFTPARAM
 70
     7
  9
$LOFTNORMALS
280
     1
  9
$LATITUDE
 40
37.795
  9
$LONGITUDE
 40
-122.394
  9
$NORTHDIRECTION
 40
0.0
  9
$TIMEZONE
 70
 -8000
  9
$LIGHTGLYPHDISPLAY
280
     1
  9
$TILEMODELIGHTSYNCH
280
     1
  9
$CMATERIAL
347
11
  9
$SOLIDHIST
280
     0
  9
$SHOWHIST
280
     1
  9
$DWFFRAME
280
     2
  9
$DGNFRAME
280
     0
  9
$REALWORLDSCALE
290
     1
  9
$INTERFERECOLOR
 62
     1
  9
$INTERFEREOBJVS
345
33
  9
$INTERFEREVPVS
346
30
  9
$CSHADOW
280
     0
  9
$SHADOWPLANELOCATION
 40
0.0
  0
ENDSEC
  0
SECTION
  2
CLASSES
  0
CLASS
  1
ACDBDICTIONARYWDFLT
  2
AcDbDictionaryWithDefault
  3
ObjectDBX Classes
 90
        0
 91
        1
280
     0
281
     0
  0
CLASS
  1
MATERIAL
  2
AcDbMaterial
  3
ObjectDBX Classes
 90
     1153
 91
        3
280
     0
281
     0
  0
CLASS
  1
VISUALSTYLE
  2
AcDbVisualStyle
  3
ObjectDBX Classes
 90
     4095
 91
       24
280
     0
281
     0
  0
CLASS
  1
SCALE
  2
AcDbScale
  3
ObjectDBX Classes
 90
     1153
 91
       17
280
     0
281
     0
  0
CLASS
  1
TABLESTYLE
  2
AcDbTableStyle
  3
ObjectDBX Classes
 90
     4095
 91
        1
280
     0
281
     0
  0
CLASS
  1
MLEADERSTYLE
  2
AcDbMLeaderStyle
  3
ACDB_MLEADERSTYLE_CLASS
 90
     4095
 91
        1
280
     0
281
     0
  0
CLASS
  1
ACDBSECTIONVIEWSTYLE
  2
AcDbSectionViewStyle
  3
ObjectDBX Classes
 90
     1025
 91
        1
280
     0
281
     0
  0
CLASS
  1
ACDBDETAILVIEWSTYLE
  2
AcDbDetailViewStyle
  3
ObjectDBX Classes
 90
     1025
 91
        1
280
     0
281
     0
  0
CLASS
  1
DICTIONARYVAR
  2
AcDbDictionaryVar
  3
ObjectDBX Classes
 90
        0
 91
        5
280
     0
281
     0
  0
CLASS
  1
CELLSTYLEMAP
  2
AcDbCellStyleMap
  3
ObjectDBX Classes
 90
     1152
 91
        1
280
     0
281
     0
  0
ENDSEC
  0
SECTION
  2
TABLES
  0
TABLE
  2
VPORT
  5
8
330
0
100
AcDbSymbolTable
 70
     1
  0
VPORT
  5
57
330
8
100
AcDbSymbolTableRecord
100
AcDbViewportTableRecord
  2
*Active
 70
     0
 10
0.0
 20
0.0
 11
1.0
 21
1.0
 12
0.0
 22
0.0
 13
0.0
 23
0.0
 14
1.0
 24
1.0
 15
0.0
 25
0.0
 16
0.0
 26
0.0
 36
1.0
 17
74.99999998124995
 27
74.96524549086129
 37
0.0
 40
153.1842324555119
 41
0.9987973142482825
 42
50.0
 43
0.0
 44
0.0
 50
0.0
 51
0.0
 71
     0
 72
   100
 73
     1
 74
     1
 75
     0
 76
     0
 77
     0
 78
     0
281
     0
 65
     1
110
0.0
120
0.0
130
0.0
111
1.0
121
0.0
131
0.0
112
0.0
122
1.0
132
0.0
 79
     0
146
0.0
 60
     3
 61
     5
292
     1
282
     1
141
0.0
142
0.0
 63
   250
421
  3355443
  0
ENDTAB
  0
TABLE
  2
LTYPE
  5
5
330
0
100
AcDbSymbolTable
 70
    33
  0
LTYPE
  5
5B
330
5
100
AcDbSymbolTableRecord
100
AcDbLinetypeTableRecord
  2
ByBlock
 70
     0
  3

 72
    65
 73
     0
 40
0.0
  0
LTYPE
  5
5C
330
5
100
AcDbSymbolTableRecord
100
AcDbLinetypeTableRecord
  2
ByLayer
 70
     0
  3

 72
    65
 73
     0
 40
0.0
  0
LTYPE
  5
5D
330
5
100
AcDbSymbolTableRecord
100
AcDbLinetypeTableRecord
  2
Continuous
 70
     0
  3
Solid line
 72
    65
 73
     0
 40
0.0
  0
LTYPE
  5
79
330
5
100
AcDbSymbolTableRecord
100
AcDbLinetypeTableRecord
  2
AI-Linetype-0
 70
     0
  3
Adobe Illustrator Linetype No. 0
 72
    65
 73
     4
 40
10.75460302295968
 49
6.721626889349798
 74
     0
 49
-1.344325377869959
 74
     0
 49
1.344325377869959
 74
     0
 49
-1.344325377869959
 74
     0
  0
LTYPE
  5
7B
330
5
100
AcDbSymbolTableRecord
100
AcDbLinetypeTableRecord
  2
AI-Linetype-1
 70
     0
  3
Adobe Illustrator Linetype No. 1
 72
    65
 73
     4
 40
10.75460302295968
 49
6.721626889349798
 74
     0
 49
-1.344325377869959
 74
     0
 49
1.344325377869959
 74
     0
 49
-1.344325377869959
 74
     0
  0
LTYPE
  5
7D
330
5
100
AcDbSymbolTableRecord
100
AcDbLinetypeTableRecord
  2
AI-Linetype-2
 70
     0
  3
Adobe Illustrator Linetype No. 2
 72
    65
 73
     4
 40
10.75460302295968
 49
6.721626889349798
 74
     0
 49
-1.344325377869959
 74
     0
 49
1.344325377869959
 74
     0
 49
-1.344325377869959
 74
     0
  0
LTYPE
  5
7F
330
5
100
AcDbSymbolTableRecord
100
AcDbLinetypeTableRecord
  2
AI-Linetype-3
 70
     0
  3
Adobe Illustrator Linetype No. 3
 72
    65
 73
     4
 40
10.75460302295968
 49
6.721626889349798
 74
     0
 49
-1.344325377869959
 74
     0
 49
1.344325377869959
 74
     0
 49
-1.344325377869959
 74
     0
  0
LTYPE
  5
81
330
5
100
AcDbSymbolTableRecord
100
AcDbLinetypeTableRecord
  2
AI-Linetype-4
 70
     0
  3
Adobe Illustrator Linetype No. 4
 72
    65
 73
     4
 40
10.75460302295968
 49
6.721626889349798
 74
     0
 49
-1.344325377869959
 74
     0
 49
1.344325377869959
 74
     0
 49
-1.344325377869959
 74
     0
  0
LTYPE
  5
83
330
5
100
AcDbSymbolTableRecord
100
AcDbLinetypeTableRecord
  2
AI-Linetype-5
 70
     0
  3
Adobe Illustrator Linetype No. 5
 72
    65
 73
     4
 40
10.75460302295968
 49
6.721626889349798
 74
     0
 49
-1.344325377869959
 74
     0
 49
1.344325377869959
 74
     0
 49
-1.344325377869959
 74
     0
  0
LTYPE
  5
85
330
5
100
AcDbSymbolTableRecord
100
AcDbLinetypeTableRecord
  2
AI-Linetype-6
 70
     0
  3
Adobe Illustrator Linetype No. 6
 72
    65
 73
     4
 40
10.75460302295968
 49
6.721626889349798
 74
     0
 49
-1.344325377869959
 74
     0
 49
1.344325377869959
 74
     0
 49
-1.344325377869959
 74
     0
  0
LTYPE
  5
87
330
5
100
AcDbSymbolTableRecord
100
AcDbLinetypeTableRecord
  2
AI-Linetype-7
 70
     0
  3
Adobe Illustrator Linetype No. 7
 72
    65
 73
     4
 40
10.75460302295968
 49
6.721626889349798
 74
     0
 49
-1.344325377869959
 74
     0
 49
1.344325377869959
 74
     0
 49
-1.344325377869959
 74
     0
  0
LTYPE
  5
89
330
5
100
AcDbSymbolTableRecord
100
AcDbLinetypeTableRecord
  2
AI-Linetype-8
 70
     0
  3
Adobe Illustrator Linetype No. 8
 72
    65
 73
     4
 40
10.75460302295968
 49
6.721626889349798
 74
     0
 49
-1.344325377869959
 74
     0
 49
1.344325377869959
 74
     0
 49
-1.344325377869959
 74
     0
  0
LTYPE
  5
8B
330
5
100
AcDbSymbolTableRecord
100
AcDbLinetypeTableRecord
  2
AI-Linetype-9
 70
     0
  3
Adobe Illustrator Linetype No. 9
 72
    65
 73
     4
 40
10.75460302295968
 49
6.721626889349798
 74
     0
 49
-1.344325377869959
 74
     0
 49
1.344325377869959
 74
     0
 49
-1.344325377869959
 74
     0
  0
LTYPE
  5
8D
330
5
100
AcDbSymbolTableRecord
100
AcDbLinetypeTableRecord
  2
AI-Linetype-10
 70
     0
  3
Adobe Illustrator Linetype No. 10
 72
    65
 73
     4
 40
10.75460302295968
 49
6.721626889349798
 74
     0
 49
-1.344325377869959
 74
     0
 49
1.344325377869959
 74
     0
 49
-1.344325377869959
 74
     0
  0
LTYPE
  5
8F
330
5
100
AcDbSymbolTableRecord
100
AcDbLinetypeTableRecord
  2
AI-Linetype-11
 70
     0
  3
Adobe Illustrator Linetype No. 11
 72
    65
 73
     4
 40
10.75460302295968
 49
6.721626889349798
 74
     0
 49
-1.344325377869959
 74
     0
 49
1.344325377869959
 74
     0
 49
-1.344325377869959
 74
     0
  0
LTYPE
  5
91
330
5
100
AcDbSymbolTableRecord
100
AcDbLinetypeTableRecord
  2
AI-Linetype-12
 70
     0
  3
Adobe Illustrator Linetype No. 12
 72
    65
 73
     4
 40
10.75460302295968
 49
6.721626889349798
 74
     0
 49
-1.344325377869959
 74
     0
 49
1.344325377869959
 74
     0
 49
-1.344325377869959
 74
     0
  0
LTYPE
  5
93
330
5
100
AcDbSymbolTableRecord
100
AcDbLinetypeTableRecord
  2
AI-Linetype-13
 70
     0
  3
Adobe Illustrator Linetype No. 13
 72
    65
 73
     4
 40
10.75460302295968
 49
6.721626889349798
 74
     0
 49
-1.344325377869959
 74
     0
 49
1.344325377869959
 74
     0
 49
-1.344325377869959
 74
     0
  0
LTYPE
  5
95
330
5
100
AcDbSymbolTableRecord
100
AcDbLinetypeTableRecord
  2
AI-Linetype-14
 70
     0
  3
Adobe Illustrator Linetype No. 14
 72
    65
 73
     4
 40
10.75460302295968
 49
6.721626889349798
 74
     0
 49
-1.344325377869959
 74
     0
 49
1.344325377869959
 74
     0
 49
-1.344325377869959
 74
     0
  0
LTYPE
  5
97
330
5
100
AcDbSymbolTableRecord
100
AcDbLinetypeTableRecord
  2
AI-Linetype-15
 70
     0
  3
Adobe Illustrator Linetype No. 15
 72
    65
 73
     4
 40
10.75460302295968
 49
6.721626889349798
 74
     0
 49
-1.344325377869959
 74
     0
 49
1.344325377869959
 74
     0
 49
-1.344325377869959
 74
     0
  0
LTYPE
  5
99
330
5
100
AcDbSymbolTableRecord
100
AcDbLinetypeTableRecord
  2
AI-Linetype-16
 70
     0
  3
Adobe Illustrator Linetype No. 16
 72
    65
 73
     4
 40
10.75460302295968
 49
6.721626889349798
 74
     0
 49
-1.344325377869959
 74
     0
 49
1.344325377869959
 74
     0
 49
-1.344325377869959
 74
     0
  0
LTYPE
  5
9B
330
5
100
AcDbSymbolTableRecord
100
AcDbLinetypeTableRecord
  2
AI-Linetype-17
 70
     0
  3
Adobe Illustrator Linetype No. 17
 72
    65
 73
     4
 40
10.75460302295968
 49
6.721626889349798
 74
     0
 49
-1.344325377869959
 74
     0
 49
1.344325377869959
 74
     0
 49
-1.344325377869959
 74
     0
  0
LTYPE
  5
9D
330
5
100
AcDbSymbolTableRecord
100
AcDbLinetypeTableRecord
  2
AI-Linetype-18
 70
     0
  3
Adobe Illustrator Linetype No. 18
 72
    65
 73
     4
 40
10.75460302295968
 49
6.721626889349798
 74
     0
 49
-1.344325377869959
 74
     0
 49
1.344325377869959
 74
     0
 49
-1.344325377869959
 74
     0
  0
LTYPE
  5
9F
330
5
100
AcDbSymbolTableRecord
100
AcDbLinetypeTableRecord
  2
AI-Linetype-19
 70
     0
  3
Adobe Illustrator Linetype No. 19
 72
    65
 73
     4
 40
10.75460302295968
 49
6.721626889349798
 74
     0
 49
-1.344325377869959
 74
     0
 49
1.344325377869959
 74
     0
 49
-1.344325377869959
 74
     0
  0
LTYPE
  5
A1
330
5
100
AcDbSymbolTableRecord
100
AcDbLinetypeTableRecord
  2
AI-Linetype-20
 70
     0
  3
Adobe Illustrator Linetype No. 20
 72
    65
 73
     4
 40
10.75460302295968
 49
6.721626889349798
 74
     0
 49
-1.344325377869959
 74
     0
 49
1.344325377869959
 74
     0
 49
-1.344325377869959
 74
     0
  0
LTYPE
  5
A3
330
5
100
AcDbSymbolTableRecord
100
AcDbLinetypeTableRecord
  2
AI-Linetype-21
 70
     0
  3
Adobe Illustrator Linetype No. 21
 72
    65
 73
     4
 40
10.75460302295968
 49
6.721626889349798
 74
     0
 49
-1.344325377869959
 74
     0
 49
1.344325377869959
 74
     0
 49
-1.344325377869959
 74
     0
  0
LTYPE
  5
A5
330
5
100
AcDbSymbolTableRecord
100
AcDbLinetypeTableRecord
  2
AI-Linetype-22
 70
     0
  3
Adobe Illustrator Linetype No. 22
 72
    65
 73
     4
 40
10.75460302295968
 49
6.721626889349798
 74
     0
 49
-1.344325377869959
 74
     0
 49
1.344325377869959
 74
     0
 49
-1.344325377869959
 74
     0
  0
LTYPE
  5
A7
330
5
100
AcDbSymbolTableRecord
100
AcDbLinetypeTableRecord
  2
AI-Linetype-23
 70
     0
  3
Adobe Illustrator Linetype No. 23
 72
    65
 73
     4
 40
10.75460302295968
 49
6.721626889349798
 74
     0
 49
-1.344325377869959
 74
     0
 49
1.344325377869959
 74
     0
 49
-1.344325377869959
 74
     0
  0
LTYPE
  5
22B
330
5
100
AcDbSymbolTableRecord
100
AcDbLinetypeTableRecord
  2
AI-Linetype-24
 70
     0
  3
Adobe Illustrator Linetype No. 24
 72
    65
 73
     4
 40
10.75460302295968
 49
6.721626889349798
 74
     0
 49
-1.344325377869959
 74
     0
 49
1.344325377869959
 74
     0
 49
-1.344325377869959
 74
     0
  0
LTYPE
  5
22D
330
5
100
AcDbSymbolTableRecord
100
AcDbLinetypeTableRecord
  2
AI-Linetype-25
 70
     0
  3
Adobe Illustrator Linetype No. 25
 72
    65
 73
     4
 40
10.75460302295968
 49
6.721626889349798
 74
     0
 49
-1.344325377869959
 74
     0
 49
1.344325377869959
 74
     0
 49
-1.344325377869959
 74
     0
  0
LTYPE
  5
22F
330
5
100
AcDbSymbolTableRecord
100
AcDbLinetypeTableRecord
  2
AI-Linetype-26
 70
     0
  3
Adobe Illustrator Linetype No. 26
 72
    65
 73
     4
 40
10.75460302295968
 49
6.721626889349798
 74
     0
 49
-1.344325377869959
 74
     0
 49
1.344325377869959
 74
     0
 49
-1.344325377869959
 74
     0
  0
LTYPE
  5
231
330
5
100
AcDbSymbolTableRecord
100
AcDbLinetypeTableRecord
  2
AI-Linetype-27
 70
     0
  3
Adobe Illustrator Linetype No. 27
 72
    65
 73
     4
 40
10.75460302295968
 49
6.721626889349798
 74
     0
 49
-1.344325377869959
 74
     0
 49
1.344325377869959
 74
     0
 49
-1.344325377869959
 74
     0
  0
LTYPE
  5
233
330
5
100
AcDbSymbolTableRecord
100
AcDbLinetypeTableRecord
  2
AI-Linetype-28
 70
     0
  3
Adobe Illustrator Linetype No. 28
 72
    65
 73
     4
 40
10.75460302295968
 49
6.721626889349798
 74
     0
 49
-1.344325377869959
 74
     0
 49
1.344325377869959
 74
     0
 49
-1.344325377869959
 74
     0
  0
LTYPE
  5
235
330
5
100
AcDbSymbolTableRecord
100
AcDbLinetypeTableRecord
  2
AI-Linetype-29
 70
     0
  3
Adobe Illustrator Linetype No. 29
 72
    65
 73
     4
 40
10.75460302295968
 49
6.721626889349798
 74
     0
 49
-1.344325377869959
 74
     0
 49
1.344325377869959
 74
     0
 49
-1.344325377869959
 74
     0
  0
LTYPE
  5
237
330
5
100
AcDbSymbolTableRecord
100
AcDbLinetypeTableRecord
  2
AI-Linetype-30
 70
     0
  3
Adobe Illustrator Linetype No. 30
 72
    65
 73
     4
 40
10.75460302295968
 49
6.721626889349798
 74
     0
 49
-1.344325377869959
 74
     0
 49
1.344325377869959
 74
     0
 49
-1.344325377869959
 74
     0
  0
LTYPE
  5
239
330
5
100
AcDbSymbolTableRecord
100
AcDbLinetypeTableRecord
  2
AI-Linetype-31
 70
     0
  3
Adobe Illustrator Linetype No. 31
 72
    65
 73
     4
 40
10.75460302295968
 49
6.721626889349798
 74
     0
 49
-1.344325377869959
 74
     0
 49
1.344325377869959
 74
     0
 49
-1.344325377869959
 74
     0
  0
ENDTAB
  0
TABLE
  2
LAYER
  5
2
330
0
100
AcDbSymbolTable
 70
     1
  0
LAYER
  5
54
330
2
100
AcDbSymbolTableRecord
100
AcDbLayerTableRecord
  2
0
 70
     0
 62
     7
  6
Continuous
370
     0
390
F
347
21
348
0
  0
ENDTAB
  0
TABLE
  2
STYLE
  5
3
330
0
100
AcDbSymbolTable
 70
     2
  0
STYLE
  5
55
330
3
100
AcDbSymbolTableRecord
100
AcDbTextStyleTableRecord
  2
Standard
 70
     0
 40
0.0
 41
1.0
 50
0.0
 71
     0
 42
0.2
  3
txt
  4

  0
STYLE
  5
5A
330
3
100
AcDbSymbolTableRecord
100
AcDbTextStyleTableRecord
  2
Annotative
 70
     0
 40
0.0
 41
1.0
 50
0.0
 71
     0
 42
0.2
  3
txt
  4

1001
AcadAnnotative
1000
AnnotativeData
1002
{
1070
     1
1070
     1
1002
}
  0
ENDTAB
  0
TABLE
  2
VIEW
  5
6
330
0
100
AcDbSymbolTable
 70
     0
  0
ENDTAB
  0
TABLE
  2
UCS
  5
7
330
0
100
AcDbSymbolTable
 70
     0
  0
ENDTAB
  0
TABLE
  2
APPID
  5
9
330
0
100
AcDbSymbolTable
 70
     2
  0
APPID
  5
56
330
9
100
AcDbSymbolTableRecord
100
AcDbRegAppTableRecord
  2
ACAD
 70
     0
  0
APPID
  5
5E
330
9
100
AcDbSymbolTableRecord
100
AcDbRegAppTableRecord
  2
AcadAnnotative
 70
     0
  0
ENDTAB
  0
TABLE
  2
DIMSTYLE
  5
A
330
0
100
AcDbSymbolTable
 70
     2
100
AcDbDimStyleTable
 71
     0
  0
DIMSTYLE
105
58
330
A
100
AcDbSymbolTableRecord
100
AcDbDimStyleTableRecord
  2
Standard
 70
     0
340
55
  0
DIMSTYLE
105
59
330
A
100
AcDbSymbolTableRecord
100
AcDbDimStyleTableRecord
  2
Annotative
 70
     0
340
55
1001
AcadAnnotative
1000
AnnotativeData
1002
{
1070
     1
1070
     1
1002
}
  0
ENDTAB
  0
TABLE
  2
BLOCK_RECORD
  5
1
330
0
100
AcDbSymbolTable
 70
     1
  0
BLOCK_RECORD
  5
70
330
1
100
AcDbSymbolTableRecord
100
AcDbBlockTableRecord
  2
*Model_Space
340
73
 70
     0
280
     1
281
     0
  0
BLOCK_RECORD
  5
6C
330
1
100
AcDbSymbolTableRecord
100
AcDbBlockTableRecord
  2
*Paper_Space
340
6F
 70
     0
280
     1
281
     0
  0
BLOCK_RECORD
  5
74
330
1
100
AcDbSymbolTableRecord
100
AcDbBlockTableRecord
  2
*Paper_Space0
340
77
 70
     0
280
     1
281
     0
  0
ENDTAB
  0
ENDSEC
  0
SECTION
  2
BLOCKS
  0
BLOCK
  5
71
330
70
100
AcDbEntity
  8
0
100
AcDbBlockBegin
  2
*Model_Space
 70
     0
 10
0.0
 20
0.0
 30
0.0
  3
*Model_Space
  1

  0
ENDBLK
  5
72
330
70
100
AcDbEntity
  8
0
100
AcDbBlockEnd
  0
BLOCK
  5
6D
330
6C
100
AcDbEntity
 67
     1
  8
0
100
AcDbBlockBegin
  2
*Paper_Space
 70
     0
 10
0.0
 20
0.0
 30
0.0
  3
*Paper_Space
  1

  0
ENDBLK
  5
6E
330
6C
100
AcDbEntity
 67
     1
  8
0
100
AcDbBlockEnd
  0
BLOCK
  5
75
330
74
100
AcDbEntity
 67
     1
  8
0
100
AcDbBlockBegin
  2
*Paper_Space0
 70
     0
 10
0.0
 20
0.0
 30
0.0
  3
*Paper_Space0
  1

  0
ENDBLK
  5
76
330
74
100
AcDbEntity
 67
     1
  8
0
100
AcDbBlockEnd
  0
ENDSEC
  0
SECTION
  2
ENTITIES
  0
LINE
  5
78
330
70
100
AcDbEntity
  8
0
  6
AI-Linetype-0
 62
     1
420
 16711680
370
    25
100
AcDbLine
 10
62.33475697797296
 20
136.2184363271851
 30
0.0
 11
62.33475697797296
 21
141.8646030499853
 31
0.0
  0
LINE
  5
7A
330
70
100
AcDbEntity
  8
0
  6
AI-Linetype-1
 62
     1
420
 16711680
370
    25
100
AcDbLine
 10
76.04689458464621
 20
145.6287142054631
 30
0.0
 11
84.65057720986576
 21
145.6287142054631
 31
0.0
  0
LINE
  5
7C
330
70
100
AcDbEntity
  8
0
  6
AI-Linetype-2
 62
     1
420
 16711680
370
    25
100
AcDbLine
 10
80.34873589725631
 20
141.3268728928533
 30
0.0
 11
80.34873589725631
 21
149.9305555180729
 31
0.0
  0
LINE
  5
7E
330
70
100
AcDbEntity
  8
0
  6
AI-Linetype-3
 62
     1
420
 16711680
370
    25
100
AcDbLine
 10
62.33477540070256
 20
142.6711982960996
 30
0.0
 11
62.33477540070256
 21
135.4656140974784
 31
0.0
  0
LINE
  5
80
330
70
100
AcDbEntity
  8
0
  6
AI-Linetype-4
 62
     1
420
 16711680
370
    25
100
AcDbLine
 10
22.97292739032298
 20
66.98567770218815
 30
0.0
 11
28.56532109671559
 21
66.98567770218815
 31
0.0
  0
LINE
  5
82
330
70
100
AcDbEntity
  8
0
  6
AI-Linetype-5
 62
     1
420
 16711680
370
    25
100
AcDbLine
 10
25.76912424351928
 20
64.18948084899216
 30
0.0
 11
25.76912424351928
 21
69.78187455538479
 31
0.0
  0
LINE
  5
84
330
70
100
AcDbEntity
  8
0
  6
AI-Linetype-6
 62
     1
420
 16711680
370
    25
100
AcDbLine
 10
22.97292739032298
 20
87.41942393708484
 30
0.0
 11
28.56532109671559
 21
87.41942393708484
 31
0.0
  0
LINE
  5
86
330
70
100
AcDbEntity
  8
0
  6
AI-Linetype-7
 62
     1
420
 16711680
370
    25
100
AcDbLine
 10
25.76912424351928
 20
84.62322708388853
 30
0.0
 11
25.76912424351928
 21
90.21562079028146
 31
0.0
  0
LINE
  5
88
330
70
100
AcDbEntity
  8
0
  6
AI-Linetype-8
 62
     1
420
 16711680
370
    25
100
AcDbLine
 10
22.97292739032298
 20
107.8531701719815
 30
0.0
 11
28.56532109671559
 21
107.8531701719815
 31
0.0
  0
LINE
  5
8A
330
70
100
AcDbEntity
  8
0
  6
AI-Linetype-9
 62
     1
420
 16711680
370
    25
100
AcDbLine
 10
25.76912424351928
 20
105.0569733187852
 30
0.0
 11
25.76912424351928
 21
110.6493670251778
 31
0.0
  0
LINE
  5
8C
330
70
100
AcDbEntity
  8
0
  6
AI-Linetype-10
 62
     1
420
 16711680
370
    25
100
AcDbLine
 10
17.16544161135526
 20
58.75840619182261
 30
0.0
 11
17.16544161135109
 21
108.4446733524655
 31
0.0
  0
LINE
  5
8E
330
70
100
AcDbEntity
  8
0
  6
AI-Linetype-11
 62
     1
420
 16711680
370
    25
100
AcDbLine
 10
17.16544161819641
 20
113.2304718127438
 30
0.0
 11
17.1654416185609
 21
116.0804416823477
 31
0.0
  0
LINE
  5
90
330
70
100
AcDbEntity
  8
0
  6
AI-Linetype-12
 62
     1
420
 16711680
370
    25
100
AcDbLine
 10
80.34873589725631
 20
58.75840619182261
 30
0.0
 11
80.34873589725631
 21
108.4446733524655
 31
0.0
  0
LINE
  5
92
330
70
100
AcDbEntity
  8
0
  6
AI-Linetype-13
 62
     1
420
 16711680
370
    25
100
AcDbLine
 10
80.34873589725631
 20
113.2304718127438
 30
0.0
 11
80.34873589725631
 21
116.0804416823477
 31
0.0
  0
LINE
  5
94
330
70
100
AcDbEntity
  8
0
  6
AI-Linetype-14
 62
     1
420
 16711680
370
    25
100
AcDbLine
 10
62.33476018299977
 20
39.96473695754042
 30
0.0
 11
62.33476018299977
 21
34.31857023474054
 31
0.0
  0
LINE
  5
96
330
70
100
AcDbEntity
  8
0
  6
AI-Linetype-15
 62
     1
420
 16711680
370
    25
100
AcDbLine
 10
76.04689458464621
 20
30.55445908628259
 30
0.0
 11
84.65057720986576
 21
30.55445908628259
 31
0.0
  0
LINE
  5
98
330
70
100
AcDbEntity
  8
0
  6
AI-Linetype-16
 62
     1
420
 16711680
370
    25
100
AcDbLine
 10
80.34873589725631
 20
26.25261777367249
 30
0.0
 11
80.34873589725631
 21
34.85630039889205
 31
0.0
  0
LINE
  5
9A
330
70
100
AcDbEntity
  8
0
  6
AI-Linetype-17
 62
     1
420
 16711680
370
    25
100
AcDbLine
 10
62.33477540070256
 20
33.51197498862591
 30
0.0
 11
62.33477540070256
 21
40.71755918724715
 31
0.0
  0
LINE
  5
9C
330
70
100
AcDbEntity
  8
0
  6
AI-Linetype-18
 62
     1
420
 16711680
370
    25
100
AcDbLine
 10
106.4286488549532
 20
66.98567770218815
 30
0.0
 11
113.9568711520205
 21
66.98567770218815
 31
0.0
  0
LINE
  5
9E
330
70
100
AcDbEntity
  8
0
  6
AI-Linetype-19
 62
     1
420
 16711680
370
    25
100
AcDbLine
 10
110.1927600034869
 20
63.22156655365511
 30
0.0
 11
110.1927600034869
 21
70.74978885072183
 31
0.0
  0
LINE
  5
A0
330
70
100
AcDbEntity
  8
0
  6
AI-Linetype-20
 62
     1
420
 16711680
370
    25
100
AcDbLine
 10
106.4286488549532
 20
87.41942393708484
 30
0.0
 11
113.9568711520205
 21
87.41942393708484
 31
0.0
  0
LINE
  5
A2
330
70
100
AcDbEntity
  8
0
  6
AI-Linetype-21
 62
     1
420
 16711680
370
    25
100
AcDbLine
 10
110.1927600034869
 20
83.65531278855149
 30
0.0
 11
110.1927600034869
 21
91.18353508561851
 31
0.0
  0
LINE
  5
A4
330
70
100
AcDbEntity
  8
0
  6
AI-Linetype-22
 62
     1
420
 16711680
370
    25
100
AcDbLine
 10
106.4286488549532
 20
107.8531701719815
 30
0.0
 11
113.9568711520205
 21
107.8531701719815
 31
0.0
  0
LINE
  5
A6
330
70
100
AcDbEntity
  8
0
  6
AI-Linetype-23
 62
     1
420
 16711680
370
    25
100
AcDbLine
 10
110.1927600034869
 20
104.0890590234478
 30
0.0
 11
110.1927600034869
 21
111.6172813205152
 31
0.0
  0
SPLINE
  5
A8
330
70
100
AcDbEntity
  8
0
 62
     9
420
 12632256
370
     0
100
AcDbSpline
210
0.0
220
0.0
230
1.0
 70
     8
 71
     3
 72
    11
 73
     7
 74
     0
 42
0.0000000001
 43
0.0000000001
 40
0.0
 40
0.0
 40
0.0
 40
0.0
 40
1.0
 40
1.0
 40
1.0
 40
2.0
 40
2.0
 40
2.0
 40
2.0
 10
119.6030378748204
 20
107.8531701719815
 30
0.0
 10
119.6029922381646
 20
108.2986405234819
 30
0.0
 10
119.2418301706754
 20
108.6597285993326
 30
0.0
 10
118.7963598191748
 20
108.6596829626768
 30
0.0
 10
118.3523032233635
 20
108.6596374708547
 30
0.0
 10
117.9918032240058
 20
108.3006790488053
 30
0.0
 10
117.9898547889184
 20
107.8566267253638
 30
0.0
  0
SPLINE
  5
A9
330
70
100
AcDbEntity
  8
0
 62
     9
420
 12632256
370
     0
100
AcDbSpline
210
0.0
220
0.0
230
1.0
 70
     8
 71
     3
 72
    11
 73
     7
 74
     0
 42
0.0000000001
 43
0.0000000001
 40
0.0
 40
0.0
 40
0.0
 40
0.0
 40
1.0
 40
1.0
 40
1.0
 40
2.0
 40
2.0
 40
2.0
 40
2.0
 10
117.9898547889191
 20
107.8566267253638
 30
0.0
 10
117.9880394938295
 20
107.4110664529886
 30
0.0
 10
118.3477658733423
 20
107.0483968986175
 30
0.0
 10
118.7933261457174
 20
107.0465816035282
 30
0.0
 10
118.7943649681125
 20
107.0465773711734
 30
0.0
 10
118.7954037977132
 20
107.0465751452821
 30
0.0
 10
118.7964426287064
 20
107.0465749258672
 30
0.0
  0
LINE
  5
AA
330
70
100
AcDbEntity
  8
0
 62
    18
420
        0
370
     0
100
AcDbLine
 10
117.9898473825918
 20
101.8305923343276
 30
0.0
 11
118.7964426291357
 21
101.8305923343276
 31
0.0
  0
LINE
  5
AB
330
70
100
AcDbEntity
  8
0
 62
    18
420
        0
370
     0
100
AcDbLine
 10
117.9898473825918
 20
101.5617272522897
 30
0.0
 11
118.7964426291357
 21
101.5617272522897
 31
0.0
  0
LINE
  5
AC
330
70
100
AcDbEntity
  8
0
 62
    18
420
        0
370
     0
100
AcDbLine
 10
118.7964426291357
 20
101.8305923343276
 30
0.0
 11
122.5605537776694
 21
101.8305923343276
 31
0.0
  0
LINE
  5
AD
330
70
100
AcDbEntity
  8
0
 62
    18
420
        0
370
     0
100
AcDbLine
 10
118.7964426291357
 20
101.5617272522897
 30
0.0
 11
122.5605537776694
 21
101.5617272522897
 31
0.0
  0
LINE
  5
AE
330
70
100
AcDbEntity
  8
0
 62
    18
420
        0
370
     0
100
AcDbLine
 10
122.5605537776694
 20
73.00825553987476
 30
0.0
 11
118.8305326211775
 21
73.00825553984267
 31
0.0
  0
LINE
  5
AF
330
70
100
AcDbEntity
  8
0
 62
    18
420
        0
370
     0
100
AcDbLine
 10
122.5605537776674
 20
73.27712062191297
 30
0.0
 11
118.8305326211749
 21
73.27712062188088
 31
0.0
  0
LINE
  5
B0
330
70
100
AcDbEntity
  8
0
 62
    18
420
        0
370
     0
100
AcDbLine
 10
118.8305326211749
 20
73.27712062188088
 30
0.0
 11
117.9898473825918
 21
73.2771206218732
 31
0.0
  0
LINE
  5
B1
330
70
100
AcDbEntity
  8
0
 62
    18
420
        0
370
     0
100
AcDbLine
 10
118.8305326211775
 20
73.00825553984267
 30
0.0
 11
117.9898473825918
 21
73.00825553983497
 31
0.0
  0
LINE
  5
B2
330
70
100
AcDbEntity
  8
0
 62
     9
420
 12632256
370
     0
100
AcDbLine
 10
114.5483743325042
 20
62.14610622550227
 30
0.0
 11
114.7634663981345
 21
62.14610622550227
 31
0.0
  0
LINE
  5
B3
330
70
100
AcDbEntity
  8
0
 62
     9
420
 12632256
370
     0
100
AcDbLine
 10
114.7634663981345
 20
112.6927416486677
 30
0.0
 11
114.5483743325042
 21
112.6927416486677
 31
0.0
  0
LINE
  5
B4
330
70
100
AcDbEntity
  8
0
 62
    18
420
        0
370
     0
100
AcDbLine
 10
114.5483743325042
 20
62.14610622550227
 30
0.0
 11
114.5483743325042
 21
112.6927416486677
 31
0.0
  0
LINE
  5
B5
330
70
100
AcDbEntity
  8
0
 62
    18
420
        0
370
     0
100
AcDbLine
 10
114.5483743325042
 20
113.7682019768199
 30
0.0
 11
114.7634663981345
 21
113.7682019768199
 31
0.0
  0
LINE
  5
B6
330
70
100
AcDbEntity
  8
0
 62
    18
420
        0
370
     0
100
AcDbLine
 10
114.5483743325042
 20
112.6927416486677
 30
0.0
 11
114.5483743325042
 21
113.7682019768199
 31
0.0
  0
LINE
  5
B7
330
70
100
AcDbEntity
  8
0
 62
    18
420
        0
370
     0
100
AcDbLine
 10
114.7634663981345
 20
61.07064589735006
 30
0.0
 11
114.5483743325042
 21
61.07064589735006
 31
0.0
  0
LINE
  5
B8
330
70
100
AcDbEntity
  8
0
 62
    18
420
        0
370
     0
100
AcDbLine
 10
114.5483743325042
 20
61.07064589735006
 30
0.0
 11
114.5483743325042
 21
62.14610622550227
 31
0.0
  0
LINE
  5
B9
330
70
100
AcDbEntity
  8
0
 62
     9
420
 12632256
370
     0
100
AcDbLine
 10
110.2465330198941
 20
111.2139836974579
 30
0.0
 11
110.1389869855722
 21
111.2139836974579
 31
0.0
  0
LINE
  5
BA
330
70
100
AcDbEntity
  8
0
 62
    18
420
        0
370
     0
100
AcDbLine
 10
110.2465330198941
 20
111.2139836974579
 30
0.0
 11
110.2465330198941
 21
63.62486417671179
 31
0.0
  0
LINE
  5
BB
330
70
100
AcDbEntity
  8
0
 62
     9
420
 12632256
370
     0
100
AcDbLine
 10
110.138986988585
 20
63.62486417671179
 30
0.0
 11
110.2465330198941
 21
63.62486417671179
 31
0.0
  0
LINE
  5
BC
330
70
100
AcDbEntity
  8
0
 62
    18
420
        0
370
     0
100
AcDbLine
 10
110.1389869855042
 20
112.2894440256104
 30
0.0
 11
110.2465330198941
 21
112.2894440256104
 31
0.0
  0
LINE
  5
BD
330
70
100
AcDbEntity
  8
0
 62
    18
420
        0
370
     0
100
AcDbLine
 10
110.2465330198941
 20
112.2894440256104
 30
0.0
 11
110.2465330198941
 21
111.2139836974579
 31
0.0
  0
LINE
  5
BE
330
70
100
AcDbEntity
  8
0
 62
    18
420
        0
370
     0
100
AcDbLine
 10
110.2465330198941
 20
62.54940384855959
 30
0.0
 11
110.1389869886537
 21
62.54940384855959
 31
0.0
  0
LINE
  5
BF
330
70
100
AcDbEntity
  8
0
 62
    18
420
        0
370
     0
100
AcDbLine
 10
110.2465330198941
 20
63.62486417671179
 30
0.0
 11
110.2465330198941
 21
62.54940384855959
 31
0.0
  0
LINE
  5
C0
330
70
100
AcDbEntity
  8
0
 62
    18
420
        0
370
     0
100
AcDbLine
 10
119.1997402517631
 20
107.620326180746
 30
0.0
 11
118.7964426287064
 21
107.3874821895105
 31
0.0
  0
LINE
  5
C1
330
70
100
AcDbEntity
  8
0
 62
    18
420
        0
370
     0
100
AcDbLine
 10
119.1997402517631
 20
108.0860141632173
 30
0.0
 11
119.1997402517631
 21
107.620326180746
 31
0.0
  0
LINE
  5
C2
330
70
100
AcDbEntity
  8
0
 62
    18
420
        0
370
     0
100
AcDbLine
 10
118.7964426287064
 20
108.3188581544528
 30
0.0
 11
119.1997402517631
 21
108.0860141632173
 31
0.0
  0
LINE
  5
C3
330
70
100
AcDbEntity
  8
0
 62
    18
420
        0
370
     0
100
AcDbLine
 10
118.3931450056491
 20
108.0860141632173
 30
0.0
 11
118.7964426287064
 21
108.3188581544528
 31
0.0
  0
LINE
  5
C4
330
70
100
AcDbEntity
  8
0
 62
    18
420
        0
370
     0
100
AcDbLine
 10
118.3931450056491
 20
107.620326180746
 30
0.0
 11
118.3931450056491
 21
108.0860141632173
 31
0.0
  0
LINE
  5
C5
330
70
100
AcDbEntity
  8
0
 62
    18
420
        0
370
     0
100
AcDbLine
 10
118.7964426287064
 20
107.3874821895105
 30
0.0
 11
118.3931450056491
 21
107.620326180746
 31
0.0
  0
CIRCLE
  5
C6
330
70
100
AcDbEntity
  8
0
 62
    18
420
        0
370
     0
100
AcDbCircle
 10
118.7964426287062
 20
107.8531701719816
 30
0.0
 40
0.5377301640763025
  0
LINE
  5
C7
330
70
100
AcDbEntity
  8
0
 62
    18
420
        0
370
     0
100
AcDbLine
 10
115.570061651193
 20
60.21027763482882
 30
0.0
 11
122.0228236201075
 21
60.21027763482818
 31
0.0
  0
LINE
  5
C8
330
70
100
AcDbEntity
  8
0
 62
    18
420
        0
370
     0
100
AcDbLine
 10
121.6464125052541
 20
59.83386651997481
 30
0.0
 11
115.9464727660463
 21
59.83386651997545
 31
0.0
  0
LINE
  5
C9
330
70
100
AcDbEntity
  8
0
 62
    18
420
        0
370
     0
100
AcDbLine
 10
122.0228236130879
 20
114.6285702397554
 30
0.0
 11
115.5700616441728
 21
114.6285702389289
 31
0.0
  0
LINE
  5
CA
330
70
100
AcDbEntity
  8
0
 62
    18
420
        0
370
     0
100
AcDbLine
 10
115.946472758978
 20
115.0049813538304
 30
0.0
 11
121.6464124981858
 21
115.0049813545603
 31
0.0
  0
LINE
  5
CB
330
70
100
AcDbEntity
  8
0
 62
    18
420
        0
370
     0
100
AcDbLine
 10
113.9568711520205
 20
104.8149947450944
 30
0.0
 11
113.9568711520205
 21
100.0561725774666
 31
0.0
  0
LINE
  5
CC
330
70
100
AcDbEntity
  8
0
 62
    18
420
        0
370
     0
100
AcDbLine
 10
110.4616250855251
 20
104.8149947450944
 30
0.0
 11
110.4616250855251
 21
100.0561725774666
 31
0.0
  0
LINE
  5
CD
330
70
100
AcDbEntity
  8
0
 62
    18
420
        0
370
     0
100
AcDbLine
 10
113.9568711520205
 20
100.0561725774666
 30
0.0
 11
113.9568711520205
 21
95.29717084094503
 31
0.0
  0
LINE
  5
CE
330
70
100
AcDbEntity
  8
0
 62
    18
420
        0
370
     0
100
AcDbLine
 10
110.4616250855251
 20
100.0561725774666
 30
0.0
 11
110.4616250855251
 21
95.29717084094503
 31
0.0
  0
LINE
  5
CF
330
70
100
AcDbEntity
  8
0
 62
    18
420
        0
370
     0
100
AcDbLine
 10
113.9568711520205
 20
77.92848654134992
 30
0.0
 11
113.9568711520205
 21
73.1696832833801
 31
0.0
  0
LINE
  5
D0
330
70
100
AcDbEntity
  8
0
 62
    18
420
        0
370
     0
100
AcDbLine
 10
110.4616250855251
 20
77.92848654134992
 30
0.0
 11
110.4616250855251
 21
73.1696832833801
 31
0.0
  0
LINE
  5
D1
330
70
100
AcDbEntity
  8
0
 62
    18
420
        0
370
     0
100
AcDbLine
 10
113.9568711520205
 20
73.1696832833801
 30
0.0
 11
113.9568711520205
 21
68.4106626372009
 31
0.0
  0
LINE
  5
D2
330
70
100
AcDbEntity
  8
0
 62
    18
420
        0
370
     0
100
AcDbLine
 10
110.4616250855251
 20
73.1696832833801
 30
0.0
 11
110.4616250855251
 21
68.4106626372009
 31
0.0
  0
LINE
  5
D3
330
70
100
AcDbEntity
  8
0
 62
    18
420
        0
370
     0
100
AcDbLine
 10
122.8294188592776
 20
101.9381383671431
 30
0.0
 11
117.9898473825918
 21
101.9381383671431
 31
0.0
  0
LINE
  5
D4
330
70
100
AcDbEntity
  8
0
 62
    18
420
        0
370
     0
100
AcDbLine
 10
117.9898473825918
 20
114.3059321408963
 30
0.0
 11
122.8294188592776
 21
114.3059321408963
 31
0.0
  0
CIRCLE
  5
D5
330
70
100
AcDbEntity
  8
0
 62
    18
420
        0
370
     0
100
AcDbCircle
 10
118.7964438461976
 20
107.8531726268756
 30
0.0
 40
0.6721614876078821
  0
LINE
  5
D6
330
70
100
AcDbEntity
  8
0
 62
    18
420
        0
370
     0
100
AcDbLine
 10
117.9898473825918
 20
60.53291573327364
 30
0.0
 11
122.8294188592776
 21
60.53291573327364
 31
0.0
  0
LINE
  5
D7
330
70
100
AcDbEntity
  8
0
 62
    18
420
        0
370
     0
100
AcDbLine
 10
117.9898473825918
 20
72.90070950702688
 30
0.0
 11
122.8294188592776
 21
72.90070950702688
 31
0.0
  0
LINE
  5
D8
330
70
100
AcDbEntity
  8
0
 62
     9
420
 12632256
370
     0
100
AcDbLine
 10
114.2257362340581
 20
103.4975558429642
 30
0.0
 11
114.2257362340581
 21
114.3059321408963
 31
0.0
  0
LINE
  5
D9
330
70
100
AcDbEntity
  8
0
 62
    18
420
        0
370
     0
100
AcDbLine
 10
114.7634663981345
 20
114.3059321408963
 30
0.0
 11
114.2257362340581
 21
114.3059321408963
 31
0.0
  0
LINE
  5
DA
330
70
100
AcDbEntity
  8
0
 62
     9
420
 12632256
370
     0
100
AcDbLine
 10
114.2257362340581
 20
60.53291573327364
 30
0.0
 11
114.2257362340581
 21
71.34129203120551
 31
0.0
  0
LINE
  5
DB
330
70
100
AcDbEntity
  8
0
 62
    18
420
        0
370
     0
100
AcDbLine
 10
114.7634663981345
 20
60.53291573327364
 30
0.0
 11
114.2257362340581
 21
60.53291573327364
 31
0.0
  0
SPLINE
  5
DC
330
70
100
AcDbEntity
  8
0
 62
    18
420
        0
370
     0
100
AcDbSpline
210
0.0
220
0.0
230
1.0
 70
     8
 71
     3
 72
     8
 73
     4
 74
     0
 42
0.0000000001
 43
0.0000000001
 40
0.0
 40
0.0
 40
0.0
 40
0.0
 40
1.0
 40
1.0
 40
1.0
 40
1.0
 10
110.4616250855251
 20
69.66085149123371
 30
0.0
 10
110.3901294407979
 20
69.66803707389182
 30
0.0
 10
110.318374473869
 20
69.67235362209031
 30
0.0
 10
110.2465330198941
 20
69.67379073862154
 30
0.0
  0
SPLINE
  5
DD
330
70
100
AcDbEntity
  8
0
 62
    18
420
        0
370
     0
100
AcDbSpline
210
0.0
220
0.0
230
1.0
 70
     8
 71
     3
 72
    11
 73
     7
 74
     0
 42
0.0000000001
 43
0.0000000001
 40
0.0
 40
0.0
 40
0.0
 40
0.0
 40
1.0
 40
1.0
 40
1.0
 40
2.0
 40
2.0
 40
2.0
 40
2.0
 10
110.2465330198941
 20
64.29756466575539
 30
0.0
 10
111.7311368557377
 20
64.32726268266946
 30
0.0
 10
112.9105710568343
 20
65.55484688275247
 30
0.0
 10
112.8808730399202
 20
67.03945071859606
 30
0.0
 10
112.8711602341651
 20
67.52499386855435
 30
0.0
 10
112.7301189104074
 20
67.99884081860849
 30
0.0
 10
112.4727295578715
 20
68.4106626372009
 30
0.0
  0
SPLINE
  5
DE
330
70
100
AcDbEntity
  8
0
 62
    18
420
        0
370
     0
100
AcDbSpline
210
0.0
220
0.0
230
1.0
 70
     8
 71
     3
 72
    11
 73
     7
 74
     0
 42
0.0000000001
 43
0.0000000001
 40
0.0
 40
0.0
 40
0.0
 40
0.0
 40
1.0
 40
1.0
 40
1.0
 40
2.0
 40
2.0
 40
2.0
 40
2.0
 10
110.2465330198941
 20
105.1650571355481
 30
0.0
 10
111.7311368557377
 20
105.1947551524625
 30
0.0
 10
112.9105710568343
 20
106.4223393525458
 30
0.0
 10
112.8808730399196
 20
107.9069431883891
 30
0.0
 10
112.8520116281087
 20
109.3497251359706
 30
0.0
 10
111.6893149674759
 20
110.5124217966034
 30
0.0
 10
110.2465330198941
 20
110.5412832084149
 30
0.0
  0
SPLINE
  5
DF
330
70
100
AcDbEntity
  8
0
 62
    18
420
        0
370
     0
100
AcDbSpline
210
0.0
220
0.0
230
1.0
 70
     8
 71
     3
 72
    11
 73
     7
 74
     0
 42
0.0000000001
 43
0.0000000001
 40
0.0
 40
0.0
 40
0.0
 40
0.0
 40
1.0
 40
1.0
 40
1.0
 40
2.0
 40
2.0
 40
2.0
 40
2.0
 10
110.2465330198941
 20
84.73131090065177
 30
0.0
 10
111.7311368557377
 20
84.76100891756614
 30
0.0
 10
112.9105710568343
 20
85.98859311764917
 30
0.0
 10
112.8808730399196
 20
87.47319695349242
 30
0.0
 10
112.8520116281087
 20
88.91597890107425
 30
0.0
 10
111.6893149674759
 20
90.07867556170701
 30
0.0
 10
110.2465330198941
 20
90.10753697351823
 30
0.0
  0
LINE
  5
E0
330
70
100
AcDbEntity
  8
0
 62
    18
420
        0
370
     0
100
AcDbLine
 10
105.8909186908767
 20
60.53291573327364
 30
0.0
 11
105.8909186908767
 21
114.3059321408963
 31
0.0
  0
LINE
  5
E1
330
70
100
AcDbEntity
  8
0
 62
    18
420
        0
370
     0
100
AcDbLine
 10
114.0644171848357
 20
98.22780023501703
 30
0.0
 11
114.0644171848357
 21
76.61104763915297
 31
0.0
  0
LINE
  5
E2
330
70
100
AcDbEntity
  8
0
 62
    18
420
        0
370
     0
100
AcDbLine
 10
105.8909186908767
 20
60.53291573327364
 30
0.0
 11
106.9126060043235
 21
60.53291573327364
 31
0.0
  0
LINE
  5
E3
330
70
100
AcDbEntity
  8
0
 62
    18
420
        0
370
     0
100
AcDbLine
 10
110.1389869887807
 20
60.53291573327364
 30
0.0
 11
114.2257362340581
 21
60.53291573327364
 31
0.0
  0
LINE
  5
E4
330
70
100
AcDbEntity
  8
0
 62
    18
420
        0
370
     0
100
AcDbLine
 10
105.8909186908767
 20
114.3059321408963
 30
0.0
 11
106.9126060009192
 21
114.3059321408963
 31
0.0
  0
LINE
  5
E5
330
70
100
AcDbEntity
  8
0
 62
    18
420
        0
370
     0
100
AcDbLine
 10
110.1389869853765
 20
114.3059321408963
 30
0.0
 11
114.2257362340581
 21
114.3059321408963
 31
0.0
  0
SPLINE
  5
E6
330
70
100
AcDbEntity
  8
0
 62
    18
420
        0
370
     0
100
AcDbSpline
210
0.0
220
0.0
230
1.0
 70
     8
 71
     3
 72
     8
 73
     4
 74
     0
 42
0.0000000001
 43
0.0000000001
 40
0.0
 40
0.0
 40
0.0
 40
0.0
 40
1.0
 40
1.0
 40
1.0
 40
1.0
 10
110.2465330198941
 20
106.133274055547
 30
0.0
 10
111.175479886726
 20
106.1623178301299
 30
0.0
 10
111.9134965285306
 20
106.9237693853248
 30
0.0
 10
111.9134965285306
 20
107.8531701719815
 30
0.0
  0
SPLINE
  5
E7
330
70
100
AcDbEntity
  8
0
 62
    18
420
        0
370
     0
100
AcDbSpline
210
0.0
220
0.0
230
1.0
 70
     8
 71
     3
 72
     8
 73
     4
 74
     0
 42
0.0000000001
 43
0.0000000001
 40
0.0
 40
0.0
 40
0.0
 40
0.0
 40
1.0
 40
1.0
 40
1.0
 40
1.0
 10
111.9134965285306
 20
107.8531701719815
 30
0.0
 10
111.9134965285306
 20
108.7825709586382
 30
0.0
 10
111.175479886726
 20
109.5440225138331
 30
0.0
 10
110.2465330198941
 20
109.573066288416
 30
0.0
  0
SPLINE
  5
E8
330
70
100
AcDbEntity
  8
0
 62
    18
420
        0
370
     0
100
AcDbSpline
210
0.0
220
0.0
230
1.0
 70
     8
 71
     3
 72
     8
 73
     4
 74
     0
 42
0.0000000001
 43
0.0000000001
 40
0.0
 40
0.0
 40
0.0
 40
0.0
 40
1.0
 40
1.0
 40
1.0
 40
1.0
 10
110.2465330198941
 20
85.69952782065035
 30
0.0
 10
111.175479886726
 20
85.72857159523355
 30
0.0
 10
111.9134965285306
 20
86.49002315042814
 30
0.0
 10
111.9134965285306
 20
87.41942393708484
 30
0.0
  0
SPLINE
  5
E9
330
70
100
AcDbEntity
  8
0
 62
    18
420
        0
370
     0
100
AcDbSpline
210
0.0
220
0.0
230
1.0
 70
     8
 71
     3
 72
     8
 73
     4
 74
     0
 42
0.0000000001
 43
0.0000000001
 40
0.0
 40
0.0
 40
0.0
 40
0.0
 40
1.0
 40
1.0
 40
1.0
 40
1.0
 10
111.9134965285306
 20
87.41942393708484
 30
0.0
 10
111.9134965285306
 20
88.34882472374186
 30
0.0
 10
111.175479886726
 20
89.11027627893645
 30
0.0
 10
110.2465330198941
 20
89.13932005351965
 30
0.0
  0
SPLINE
  5
EA
330
70
100
AcDbEntity
  8
0
 62
    18
420
        0
370
     0
100
AcDbSpline
210
0.0
220
0.0
230
1.0
 70
     8
 71
     3
 72
     8
 73
     4
 74
     0
 42
0.0000000001
 43
0.0000000001
 40
0.0
 40
0.0
 40
0.0
 40
0.0
 40
1.0
 40
1.0
 40
1.0
 40
1.0
 10
110.2465330198941
 20
65.26578158575367
 30
0.0
 10
111.175479886726
 20
65.29482536033718
 30
0.0
 10
111.9134965285306
 20
66.05627691553178
 30
0.0
 10
111.9134965285306
 20
66.98567770218815
 30
0.0
  0
SPLINE
  5
EB
330
70
100
AcDbEntity
  8
0
 62
    18
420
        0
370
     0
100
AcDbSpline
210
0.0
220
0.0
230
1.0
 70
     8
 71
     3
 72
     8
 73
     4
 74
     0
 42
0.0000000001
 43
0.0000000001
 40
0.0
 40
0.0
 40
0.0
 40
0.0
 40
1.0
 40
1.0
 40
1.0
 40
1.0
 10
110.4616250855251
 20
68.6852793485399
 30
0.0
 10
110.3904236086287
 20
68.69654292372435
 30
0.0
 10
110.3185846938031
 20
68.70332110358638
 30
0.0
 10
110.2465330198941
 20
68.70557381862328
 30
0.0
  0
SPLINE
  5
EC
330
70
100
AcDbEntity
  8
0
 62
    18
420
        0
370
     0
100
AcDbSpline
210
0.0
220
0.0
230
1.0
 70
     8
 71
     3
 72
     8
 73
     4
 74
     0
 42
0.0000000001
 43
0.0000000001
 40
0.0
 40
0.0
 40
0.0
 40
0.0
 40
1.0
 40
1.0
 40
1.0
 40
1.0
 10
111.9134965285306
 20
66.98567770218815
 30
0.0
 10
111.9134965285306
 20
67.55672183220551
 30
0.0
 10
111.6302035501343
 20
68.09056757780871
 30
0.0
 10
111.1573076298939
 20
68.4106626372009
 30
0.0
  0
LINE
  5
ED
330
70
100
AcDbEntity
  8
0
 62
    18
420
        0
370
     0
100
AcDbLine
 10
122.6949863186269
 20
100.8626780387413
 30
0.0
 11
118.7964426287064
 21
100.8626780389906
 31
0.0
  0
LINE
  5
EE
330
70
100
AcDbEntity
  8
0
 62
    18
420
        0
370
     0
100
AcDbLine
 10
118.5275775466682
 20
100.8626780390079
 30
0.0
 11
117.9898473825918
 21
100.8626780390419
 31
0.0
  0
LINE
  5
EF
330
70
100
AcDbEntity
  8
0
 62
    18
420
        0
370
     0
100
AcDbLine
 10
122.6949863186711
 20
101.5617272520404
 30
0.0
 11
117.9898473825918
 21
101.5617272523414
 31
0.0
  0
LINE
  5
F0
330
70
100
AcDbEntity
  8
0
 62
    18
420
        0
370
     0
100
AcDbLine
 10
117.9898473825918
 20
73.97616983512775
 30
0.0
 11
118.5275775466682
 21
73.97616983516176
 31
0.0
  0
LINE
  5
F1
330
70
100
AcDbEntity
  8
0
 62
    18
420
        0
370
     0
100
AcDbLine
 10
118.7964426287064
 20
73.97616983517908
 30
0.0
 11
122.6949863186269
 21
73.97616983542871
 31
0.0
  0
LINE
  5
F2
330
70
100
AcDbEntity
  8
0
 62
    18
420
        0
370
     0
100
AcDbLine
 10
117.9898473825918
 20
73.27712062182827
 30
0.0
 11
122.6949863186711
 21
73.27712062212923
 31
0.0
  0
LINE
  5
F3
330
70
100
AcDbEntity
  8
0
 62
    18
420
        0
370
     0
100
AcDbLine
 10
106.9126060043235
 20
60.53291573306958
 30
0.0
 11
110.1389869887807
 21
60.53291573327364
 31
0.0
  0
LINE
  5
F4
330
70
100
AcDbEntity
  8
0
 62
    18
420
        0
370
     0
100
AcDbLine
 10
110.1389869887807
 20
60.53291573327364
 30
0.0
 11
110.1389869853765
 21
114.3059321408963
 31
0.0
  0
LINE
  5
F5
330
70
100
AcDbEntity
  8
0
 62
    18
420
        0
370
     0
100
AcDbLine
 10
106.9126060009192
 20
114.305932140692
 30
0.0
 11
110.1389869853765
 21
114.3059321408963
 31
0.0
  0
LINE
  5
F6
330
70
100
AcDbEntity
  8
0
 62
    18
420
        0
370
     0
100
AcDbLine
 10
106.9126060043235
 20
60.53291573306958
 30
0.0
 11
106.9126060009192
 21
114.305932140692
 31
0.0
  0
LINE
  5
F7
330
70
100
AcDbEntity
  8
0
 62
    18
420
        0
370
     0
100
AcDbLine
 10
114.7634663981345
 20
60.53291573327364
 30
0.0
 11
117.9898473825918
 21
60.53291573327364
 31
0.0
  0
LINE
  5
F8
330
70
100
AcDbEntity
  8
0
 62
    18
420
        0
370
     0
100
AcDbLine
 10
114.7634663981345
 20
60.53291573327364
 30
0.0
 11
114.7634663981345
 21
114.3059321408963
 31
0.0
  0
LINE
  5
F9
330
70
100
AcDbEntity
  8
0
 62
    18
420
        0
370
     0
100
AcDbLine
 10
114.7634663981345
 20
114.3059321408963
 30
0.0
 11
117.9898473825918
 21
114.3059321408963
 31
0.0
  0
LINE
  5
FA
330
70
100
AcDbEntity
  8
0
 62
    18
420
        0
370
     0
100
AcDbLine
 10
117.9898473825918
 20
60.53291573327364
 30
0.0
 11
117.9898473825918
 21
114.3059321408963
 31
0.0
  0
LINE
  5
FB
330
70
100
AcDbEntity
  8
0
 62
     9
420
 12632256
370
     0
100
AcDbLine
 10
118.5275775466682
 20
73.97616983517908
 30
0.0
 11
118.5275775466682
 21
100.8626780389906
 31
0.0
  0
LINE
  5
FC
330
70
100
AcDbEntity
  8
0
 62
    18
420
        0
370
     0
100
AcDbLine
 10
118.5275775466682
 20
73.97616983517908
 30
0.0
 11
117.9898473825918
 21
73.97616983517908
 31
0.0
  0
LINE
  5
FD
330
70
100
AcDbEntity
  8
0
 62
    18
420
        0
370
     0
100
AcDbLine
 10
117.9898473825918
 20
100.8626780389906
 30
0.0
 11
118.5275775466682
 21
100.8626780389906
 31
0.0
  0
LINE
  5
FE
330
70
100
AcDbEntity
  8
0
 62
    18
420
        0
370
     0
100
AcDbLine
 10
118.5275775466682
 20
73.97616983517908
 30
0.0
 11
118.7964426287064
 21
73.97616983517908
 31
0.0
  0
LINE
  5
FF
330
70
100
AcDbEntity
  8
0
 62
    18
420
        0
370
     0
100
AcDbLine
 10
118.7964426287064
 20
100.8626780389906
 30
0.0
 11
118.5275775466682
 21
100.8626780389906
 31
0.0
  0
LINE
  5
100
330
70
100
AcDbEntity
  8
0
 62
    18
420
        0
370
     0
100
AcDbLine
 10
122.8294188592776
 20
100.8626780389906
 30
0.0
 11
118.7964426287064
 21
100.8626780389906
 31
0.0
  0
LINE
  5
101
330
70
100
AcDbEntity
  8
0
 62
    18
420
        0
370
     0
100
AcDbLine
 10
118.7964426287064
 20
73.97616983517908
 30
0.0
 11
122.8294188592776
 21
73.97616983517908
 31
0.0
  0
LINE
  5
102
330
70
100
AcDbEntity
  8
0
 62
    18
420
        0
370
     0
100
AcDbLine
 10
122.5605537776694
 20
101.5617272522897
 30
0.0
 11
122.5605537776694
 21
101.8305923343276
 31
0.0
  0
LINE
  5
103
330
70
100
AcDbEntity
  8
0
 62
    18
420
        0
370
     0
100
AcDbLine
 10
122.5605537776694
 20
73.00825553987476
 30
0.0
 11
122.5605537776674
 21
73.27712062191297
 31
0.0
  0
LINE
  5
104
330
70
100
AcDbEntity
  8
0
 62
    18
420
        0
370
     0
100
AcDbLine
 10
110.4616250855238
 20
102.4758685312199
 30
0.0
 11
110.2465330198941
 21
102.4758685312199
 31
0.0
  0
LINE
  5
105
330
70
100
AcDbEntity
  8
0
 62
    18
420
        0
370
     0
100
AcDbLine
 10
110.2465330198941
 20
99.24948754676261
 30
0.0
 11
110.4616250855238
 21
99.24948754676261
 31
0.0
  0
LINE
  5
106
330
70
100
AcDbEntity
  8
0
 62
    18
420
        0
370
     0
100
AcDbLine
 10
110.4616250855251
 20
75.58936032740803
 30
0.0
 11
110.2465330198941
 21
75.58936032740803
 31
0.0
  0
LINE
  5
107
330
70
100
AcDbEntity
  8
0
 62
    18
420
        0
370
     0
100
AcDbLine
 10
110.2465330198941
 20
72.36297934295045
 30
0.0
 11
110.4616250855251
 21
72.36297934295045
 31
0.0
  0
LINE
  5
108
330
70
100
AcDbEntity
  8
0
 62
    18
420
        0
370
     0
100
AcDbLine
 10
115.570061651193
 20
60.21027763482882
 30
0.0
 11
115.9464727660463
 21
59.83386651997545
 31
0.0
  0
LINE
  5
109
330
70
100
AcDbEntity
  8
0
 62
    18
420
        0
370
     0
100
AcDbLine
 10
121.6464125052541
 20
59.83386651997481
 30
0.0
 11
122.0228236201075
 21
60.21027763482818
 31
0.0
  0
LINE
  5
10A
330
70
100
AcDbEntity
  8
0
 62
    18
420
        0
370
     0
100
AcDbLine
 10
122.0228236201075
 20
60.21027763482818
 30
0.0
 11
122.0228236201075
 21
60.53291573327364
 31
0.0
  0
LINE
  5
10B
330
70
100
AcDbEntity
  8
0
 62
    18
420
        0
370
     0
100
AcDbLine
 10
115.570061651193
 20
60.53291573327428
 30
0.0
 11
115.570061651193
 21
60.21027763482882
 31
0.0
  0
LINE
  5
10C
330
70
100
AcDbEntity
  8
0
 62
    18
420
        0
370
     0
100
AcDbLine
 10
122.0228236130879
 20
114.6285702397554
 30
0.0
 11
121.6464124981858
 21
115.0049813545603
 31
0.0
  0
LINE
  5
10D
330
70
100
AcDbEntity
  8
0
 62
    18
420
        0
370
     0
100
AcDbLine
 10
115.946472758978
 20
115.0049813538304
 30
0.0
 11
115.5700616441728
 21
114.6285702389289
 31
0.0
  0
LINE
  5
10E
330
70
100
AcDbEntity
  8
0
 62
    18
420
        0
370
     0
100
AcDbLine
 10
115.5700616441728
 20
114.6285702389289
 30
0.0
 11
115.5700616442145
 21
114.3059321404831
 31
0.0
  0
LINE
  5
10F
330
70
100
AcDbEntity
  8
0
 62
    18
420
        0
370
     0
100
AcDbLine
 10
122.022823613129
 20
114.3059321413093
 30
0.0
 11
122.0228236130879
 21
114.6285702397554
 31
0.0
  0
LINE
  5
110
330
70
100
AcDbEntity
  8
0
 62
    18
420
        0
370
     0
100
AcDbLine
 10
120.9473632902811
 20
72.90070950702688
 30
0.0
 11
120.9473632902676
 21
73.00825553986193
 31
0.0
  0
LINE
  5
111
330
70
100
AcDbEntity
  8
0
 62
    18
420
        0
370
     0
100
AcDbLine
 10
120.9473632865746
 20
101.8305923343276
 30
0.0
 11
120.9473632865618
 21
101.9381383671431
 31
0.0
  0
LINE
  5
112
330
70
100
AcDbEntity
  8
0
 62
    18
420
        0
370
     0
100
AcDbLine
 10
113.9568711520205
 20
104.8149947450944
 30
0.0
 11
110.4616250855251
 21
104.8149947450944
 31
0.0
  0
LINE
  5
113
330
70
100
AcDbEntity
  8
0
 62
    18
420
        0
370
     0
100
AcDbLine
 10
110.4616250855251
 20
95.29717084094503
 30
0.0
 11
113.9568711520205
 21
95.29717084094503
 31
0.0
  0
LINE
  5
114
330
70
100
AcDbEntity
  8
0
 62
    18
420
        0
370
     0
100
AcDbLine
 10
113.9568711520205
 20
77.92848654134992
 30
0.0
 11
110.4616250855251
 21
77.92848654134992
 31
0.0
  0
LINE
  5
115
330
70
100
AcDbEntity
  8
0
 62
    18
420
        0
370
     0
100
AcDbLine
 10
110.4616250855251
 20
68.4106626372009
 30
0.0
 11
113.9568711520205
 21
68.4106626372009
 31
0.0
  0
LINE
  5
116
330
70
100
AcDbEntity
  8
0
 62
    18
420
        0
370
     0
100
AcDbLine
 10
122.8294188592776
 20
101.9381383671431
 30
0.0
 11
122.8294188592776
 21
114.3059321408963
 31
0.0
  0
LINE
  5
117
330
70
100
AcDbEntity
  8
0
 62
    18
420
        0
370
     0
100
AcDbLine
 10
122.8294188592776
 20
60.53291573327364
 30
0.0
 11
122.8294188592776
 21
72.90070950702688
 31
0.0
  0
LINE
  5
118
330
70
100
AcDbEntity
  8
0
 62
    18
420
        0
370
     0
100
AcDbLine
 10
122.6949863186269
 20
100.8626780387413
 30
0.0
 11
122.6949863186711
 21
101.5617272520404
 31
0.0
  0
LINE
  5
119
330
70
100
AcDbEntity
  8
0
 62
    18
420
        0
370
     0
100
AcDbLine
 10
122.6949863186711
 20
73.27712062212923
 30
0.0
 11
122.6949863186269
 21
73.97616983542871
 31
0.0
  0
LINE
  5
11A
330
70
100
AcDbEntity
  8
0
 62
    18
420
        0
370
     0
100
AcDbLine
 10
113.9568711520205
 20
98.22780023501703
 30
0.0
 11
114.5483743325042
 21
98.22780023501703
 31
0.0
  0
LINE
  5
11B
330
70
100
AcDbEntity
  8
0
 62
    18
420
        0
370
     0
100
AcDbLine
 10
114.5483743325042
 20
103.4975558429642
 30
0.0
 11
113.9568711520205
 21
103.4975558429642
 31
0.0
  0
LINE
  5
11C
330
70
100
AcDbEntity
  8
0
 62
    18
420
        0
370
     0
100
AcDbLine
 10
113.9568711520205
 20
71.34129203120551
 30
0.0
 11
114.5483743325042
 21
71.34129203120551
 31
0.0
  0
LINE
  5
11D
330
70
100
AcDbEntity
  8
0
 62
    18
420
        0
370
     0
100
AcDbLine
 10
114.5483743325042
 20
76.61104763915297
 30
0.0
 11
113.9568711520205
 21
76.61104763915297
 31
0.0
  0
LINE
  5
11E
330
70
100
AcDbEntity
  8
0
 62
    18
420
        0
370
     0
100
AcDbLine
 10
122.8294188592776
 20
73.97616983517908
 30
0.0
 11
122.8294188592776
 21
100.8626780389906
 31
0.0
  0
LINE
  5
11F
330
70
100
AcDbEntity
  8
0
 62
     9
420
 12632256
370
     0
100
AcDbLine
 10
76.3972417834712
 20
31.36105163829183
 30
0.0
 11
76.36554180799977
 21
31.18617272676717
 31
0.0
  0
LINE
  5
120
330
70
100
AcDbEntity
  8
0
 62
     9
420
 12632256
370
     0
100
AcDbLine
 10
76.36556547894966
 20
29.92259620940293
 30
0.0
 11
76.3972417834712
 21
29.74786653412063
 31
0.0
  0
LINE
  5
121
330
70
100
AcDbEntity
  8
0
 62
     9
420
 12632256
370
     0
100
AcDbLine
 10
50.50471179102575
 20
34.80252738240907
 30
0.0
 11
50.50471179102575
 21
34.58743531677875
 31
0.0
  0
LINE
  5
122
330
70
100
AcDbEntity
  8
0
 62
     9
420
 12632256
370
     0
100
AcDbLine
 10
73.62710884630327
 20
34.58743531677875
 30
0.0
 11
73.62710884630327
 21
34.80252738240907
 31
0.0
  0
LINE
  5
123
330
70
100
AcDbEntity
  8
0
 62
    18
420
        0
370
     0
100
AcDbLine
 10
50.50471179102575
 20
34.80252738240907
 30
0.0
 11
73.62710884630327
 21
34.80252738240907
 31
0.0
  0
LINE
  5
124
330
70
100
AcDbEntity
  8
0
 62
    18
420
        0
370
     0
100
AcDbLine
 10
74.70256917445579
 20
34.80252738240907
 30
0.0
 11
74.70256917445579
 21
34.58743531677875
 31
0.0
  0
LINE
  5
125
330
70
100
AcDbEntity
  8
0
 62
    18
420
        0
370
     0
100
AcDbLine
 10
73.62710884630327
 20
34.80252738240907
 30
0.0
 11
74.70256917445579
 21
34.80252738240907
 31
0.0
  0
LINE
  5
126
330
70
100
AcDbEntity
  8
0
 62
    18
420
        0
370
     0
100
AcDbLine
 10
49.42925146287322
 20
34.58743531677875
 30
0.0
 11
49.42925146287322
 21
34.80252738240907
 31
0.0
  0
LINE
  5
127
330
70
100
AcDbEntity
  8
0
 62
    18
420
        0
370
     0
100
AcDbLine
 10
49.42925146287322
 20
34.80252738240907
 30
0.0
 11
50.50471179102575
 21
34.80252738240907
 31
0.0
  0
LINE
  5
128
330
70
100
AcDbEntity
  8
0
 62
     9
420
 12632256
370
     0
100
AcDbLine
 10
72.28278343611285
 20
39.10436869501852
 30
0.0
 11
72.28278343611285
 21
39.21191472953611
 31
0.0
  0
LINE
  5
129
330
70
100
AcDbEntity
  8
0
 62
    18
420
        0
370
     0
100
AcDbLine
 10
73.35824376426505
 20
39.21191472953611
 30
0.0
 11
73.35824376426505
 21
39.10436869501852
 31
0.0
  0
LINE
  5
12A
330
70
100
AcDbEntity
  8
0
 62
    18
420
        0
370
     0
100
AcDbLine
 10
73.35824376426505
 20
39.10436869501852
 30
0.0
 11
72.28278343611285
 21
39.10436869501852
 31
0.0
  0
LINE
  5
12B
330
70
100
AcDbEntity
  8
0
 62
    18
420
        0
370
     0
100
AcDbLine
 10
52.0775032239834
 20
39.10436869501852
 30
0.0
 11
52.0775032239834
 21
39.21191472953611
 31
0.0
  0
LINE
  5
12C
330
70
100
AcDbEntity
  8
0
 62
     9
420
 12632256
370
     0
100
AcDbLine
 10
53.15296355213593
 20
39.21191472953611
 30
0.0
 11
53.15296355213593
 21
39.10436869501852
 31
0.0
  0
LINE
  5
12D
330
70
100
AcDbEntity
  8
0
 62
    18
420
        0
370
     0
100
AcDbLine
 10
53.15296355213593
 20
39.10436869501852
 30
0.0
 11
52.0775032239834
 21
39.10436869501852
 31
0.0
  0
LINE
  5
12E
330
70
100
AcDbEntity
  8
0
 62
    18
420
        0
370
     0
100
AcDbLine
 10
72.28278343611285
 20
39.10436869501852
 30
0.0
 11
53.15296355213593
 21
39.10436869501852
 31
0.0
  0
CIRCLE
  5
12F
330
70
100
AcDbEntity
  8
0
 62
    18
420
        0
370
     0
100
AcDbCircle
 10
80.34873589725631
 20
30.55445908633072
 30
0.0
 40
2.849969869603885
  0
CIRCLE
  5
130
330
70
100
AcDbEntity
  8
0
 62
    18
420
        0
370
     0
100
AcDbCircle
 10
80.34873589725631
 20
30.55445908628259
 30
0.0
 40
3.226380984457253
  0
LINE
  5
131
330
70
100
AcDbEntity
  8
0
 62
    18
420
        0
370
     0
100
AcDbLine
 10
67.09367213507412
 20
35.39403056289275
 30
0.0
 11
57.57584823177214
 21
35.39403056289275
 31
0.0
  0
LINE
  5
132
330
70
100
AcDbEntity
  8
0
 62
    18
420
        0
370
     0
100
AcDbLine
 10
67.09367213507412
 20
38.88927662938821
 30
0.0
 11
57.57584823177214
 21
38.88927662938821
 31
0.0
  0
LINE
  5
133
330
70
100
AcDbEntity
  8
0
 62
    18
420
        0
370
     0
100
AcDbLine
 10
83.03738671763714
 20
34.58743531677875
 30
0.0
 11
80.34873589725631
 21
34.58743531677875
 31
0.0
  0
SPLINE
  5
134
330
70
100
AcDbEntity
  8
0
 62
    18
420
        0
370
     0
100
AcDbSpline
210
0.0
220
0.0
230
1.0
 70
     8
 71
     3
 72
     8
 73
     4
 74
     0
 42
0.0000000001
 43
0.0000000001
 40
0.0
 40
0.0
 40
0.0
 40
0.0
 40
1.0
 40
1.0
 40
1.0
 40
1.0
 10
83.03738671763714
 20
34.58743531677875
 30
0.0
 10
83.33436688678032
 20
34.58743531677875
 30
0.0
 10
83.57511688171355
 20
34.82818531171137
 30
0.0
 10
83.57511688171355
 20
35.12516548085454
 30
0.0
  0
LINE
  5
135
330
70
100
AcDbEntity
  8
0
 62
    18
420
        0
370
     0
100
AcDbLine
 10
83.57511688171355
 20
43.45998302403588
 30
0.0
 11
83.57511688171355
 21
35.12516548085454
 31
0.0
  0
LINE
  5
136
330
70
100
AcDbEntity
  8
0
 62
    18
420
        0
370
     0
100
AcDbLine
 10
85.72603753801862
 20
43.45998302403588
 30
0.0
 11
83.57511688171355
 21
43.45998302403588
 31
0.0
  0
LINE
  5
137
330
70
100
AcDbEntity
  8
0
 62
    18
420
        0
370
     0
100
AcDbLine
 10
83.57511688171355
 20
28.13467334786361
 30
0.0
 11
85.72603753801862
 21
31.80226627448716
 31
0.0
  0
SPLINE
  5
138
330
70
100
AcDbEntity
  8
0
 62
    18
420
        0
370
     0
100
AcDbSpline
210
0.0
220
0.0
230
1.0
 70
     8
 71
     3
 72
    14
 73
    10
 74
     0
 42
0.0000000001
 43
0.0000000001
 40
0.0
 40
0.0
 40
0.0
 40
0.0
 40
1.0
 40
1.0
 40
1.0
 40
2.0
 40
2.0
 40
2.0
 40
3.0
 40
3.0
 40
3.0
 40
3.0
 10
80.34873589725631
 20
34.58743531677875
 30
0.0
 10
78.12138462868124
 20
34.58743531677875
 30
0.0
 10
76.31575966668441
 20
32.78181035478129
 30
0.0
 10
76.31575966668441
 20
30.55445908620687
 30
0.0
 10
76.31575966668441
 20
28.3271078176318
 30
0.0
 10
78.12138462868124
 20
26.52148285563498
 30
0.0
 10
80.34873589725631
 20
26.52148285563498
 30
0.0
 10
81.61814461999702
 20
26.52148285563498
 30
0.0
 10
82.81347164806849
 20
27.11914636967103
 30
0.0
 10
83.57511688171355
 20
28.13467334786361
 30
0.0
  0
LINE
  5
139
330
70
100
AcDbEntity
  8
0
 62
    18
420
        0
370
     0
100
AcDbLine
 10
85.72603753801862
 20
31.80226627448716
 30
0.0
 11
85.72603753801862
 21
43.45998302403588
 31
0.0
  0
LINE
  5
13A
330
70
100
AcDbEntity
  8
0
 62
    18
420
        0
370
     0
100
AcDbLine
 10
48.8915212987968
 20
42.43829571399336
 30
0.0
 11
48.8915212987968
 21
39.21191472953611
 31
0.0
  0
LINE
  5
13B
330
70
100
AcDbEntity
  8
0
 62
    18
420
        0
370
     0
100
AcDbLine
 10
48.8915212987968
 20
42.43829571399336
 30
0.0
 11
75.77802950260799
 21
42.43829571399336
 31
0.0
  0
LINE
  5
13C
330
70
100
AcDbEntity
  8
0
 62
    18
420
        0
370
     0
100
AcDbLine
 10
75.77802950260799
 20
42.43829571399336
 30
0.0
 11
75.77802950260799
 21
39.21191472953611
 31
0.0
  0
LINE
  5
13D
330
70
100
AcDbEntity
  8
0
 62
    18
420
        0
370
     0
100
AcDbLine
 10
48.8915212987968
 20
39.21191472953611
 30
0.0
 11
75.77802950260799
 21
39.21191472953611
 31
0.0
  0
LINE
  5
13E
330
70
100
AcDbEntity
  8
0
 62
    18
420
        0
370
     0
100
AcDbLine
 10
75.24029933853221
 20
34.58743531677875
 30
0.0
 11
48.8915212987968
 21
34.58743531677875
 31
0.0
  0
LINE
  5
13F
330
70
100
AcDbEntity
  8
0
 62
    18
420
        0
370
     0
100
AcDbLine
 10
48.8915212987968
 20
34.58743531677875
 30
0.0
 11
48.8915212987968
 21
31.36105433232086
 31
0.0
  0
LINE
  5
140
330
70
100
AcDbEntity
  8
0
 62
    18
420
        0
370
     0
100
AcDbLine
 10
75.24029933853221
 20
34.58743531677875
 30
0.0
 11
75.24029933853221
 21
31.36105433232086
 31
0.0
  0
LINE
  5
141
330
70
100
AcDbEntity
  8
0
 62
    18
420
        0
370
     0
100
AcDbLine
 10
48.8915212987968
 20
31.36105433232086
 30
0.0
 11
75.24029933853221
 21
31.36105433232086
 31
0.0
  0
LINE
  5
142
330
70
100
AcDbEntity
  8
0
 62
    18
420
        0
370
     0
100
AcDbLine
 10
76.31575966668441
 20
30.55445908620687
 30
0.0
 11
76.31575966668441
 21
30.82332416824508
 31
0.0
  0
SPLINE
  5
143
330
70
100
AcDbEntity
  8
0
 62
    18
420
        0
370
     0
100
AcDbSpline
210
0.0
220
0.0
230
1.0
 70
     8
 71
     3
 72
     8
 73
     4
 74
     0
 42
0.0000000001
 43
0.0000000001
 40
0.0
 40
0.0
 40
0.0
 40
0.0
 40
1.0
 40
1.0
 40
1.0
 40
1.0
 10
83.57511688171355
 20
28.13467334786361
 30
0.0
 10
83.7577506684576
 20
28.37818506352233
 30
0.0
 10
83.91222902948909
 20
28.64159029075596
 30
0.0
 10
84.0356009218779
 20
28.91985712653037
 30
0.0
  0
SPLINE
  5
144
330
70
100
AcDbEntity
  8
0
 62
    18
420
        0
370
     0
100
AcDbSpline
210
0.0
220
0.0
230
1.0
 70
     8
 71
     3
 72
     8
 73
     4
 74
     0
 42
0.0000000001
 43
0.0000000001
 40
0.0
 40
0.0
 40
0.0
 40
0.0
 40
1.0
 40
1.0
 40
1.0
 40
1.0
 10
76.31575966668441
 20
30.82332416824508
 30
0.0
 10
76.31575966668441
 20
31.12030433738825
 30
0.0
 10
76.07500967175181
 20
31.36105433232086
 30
0.0
 10
75.77802950260799
 20
31.36105433232086
 30
0.0
  0
LINE
  5
145
330
70
100
AcDbEntity
  8
0
 62
    18
420
        0
370
     0
100
AcDbLine
 10
75.24029933853221
 20
34.58743531677875
 30
0.0
 11
80.34873589725631
 21
34.58743531677875
 31
0.0
  0
LINE
  5
146
330
70
100
AcDbEntity
  8
0
 62
    18
420
        0
370
     0
100
AcDbLine
 10
75.77802950260799
 20
31.36105433232086
 30
0.0
 11
75.24029933853221
 21
31.36105433232086
 31
0.0
  0
LINE
  5
147
330
70
100
AcDbEntity
  8
0
 62
     9
420
 12632256
370
     0
100
AcDbLine
 10
76.3972417834712
 20
31.36105163829311
 30
0.0
 11
76.39716886978705
 21
31.36105163829311
 31
0.0
  0
LINE
  5
148
330
70
100
AcDbEntity
  8
0
 62
    18
420
        0
370
     0
100
AcDbLine
 10
63.94796589293118
 20
38.88927662938885
 30
0.0
 11
63.94796589293118
 21
39.10436869501852
 31
0.0
  0
LINE
  5
149
330
70
100
AcDbEntity
  8
0
 62
    18
420
        0
370
     0
100
AcDbLine
 10
60.72158490847393
 20
39.10436869501852
 30
0.0
 11
60.72158490847393
 21
38.88927662938885
 31
0.0
  0
LINE
  5
14A
330
70
100
AcDbEntity
  8
0
 62
    18
420
        0
370
     0
100
AcDbLine
 10
67.09367213507412
 20
35.39403056289275
 30
0.0
 11
67.09367213507412
 21
38.88927662938821
 31
0.0
  0
LINE
  5
14B
330
70
100
AcDbEntity
  8
0
 62
    18
420
        0
370
     0
100
AcDbLine
 10
57.57584823092511
 20
38.88927662938821
 30
0.0
 11
57.57584823092511
 21
35.39403056289275
 31
0.0
  0
LINE
  5
14C
330
70
100
AcDbEntity
  8
0
 62
    18
420
        0
370
     0
100
AcDbLine
 10
59.69989759672898
 20
35.39403056289275
 30
0.0
 11
59.69989759672898
 21
34.80252738240907
 31
0.0
  0
LINE
  5
14D
330
70
100
AcDbEntity
  8
0
 62
    18
420
        0
370
     0
100
AcDbLine
 10
64.96965320467613
 20
34.80252738240907
 30
0.0
 11
64.96965320467613
 21
35.39403056289275
 31
0.0
  0
SPLINE
  5
14E
330
70
100
AcDbEntity
  8
0
 62
     9
420
 12632256
370
     0
100
AcDbSpline
210
0.0
220
0.0
230
1.0
 70
     8
 71
     3
 72
    14
 73
    10
 74
     0
 42
0.0000000001
 43
0.0000000001
 40
0.0
 40
0.0
 40
0.0
 40
0.0
 40
1.0
 40
1.0
 40
1.0
 40
2.0
 40
2.0
 40
2.0
 40
3.0
 40
3.0
 40
3.0
 40
3.0
 10
27.16722267016861
 20
88.22601918311413
 30
0.0
 10
26.72175241645354
 20
88.22601918314237
 30
0.0
 10
26.3606274240312
 20
87.86489419076591
 30
0.0
 10
26.36062742400297
 20
87.41942393705114
 30
0.0
 10
26.36062742397473
 20
86.97395368333607
 30
0.0
 10
26.72175241635118
 20
86.61282869091374
 30
0.0
 10
27.16722267006626
 20
86.6128286908855
 30
0.0
 10
27.20982059383681
 20
86.61282869088294
 30
0.0
 10
27.25235158247435
 20
86.61620320616389
 30
0.0
 10
27.29441653367922
 20
86.6229205709515
 30
0.0
  0
LINE
  5
14F
330
70
100
AcDbEntity
  8
0
 62
    18
420
        0
370
     0
100
AcDbLine
 10
13.40133046933579
 20
101.8305923343276
 30
0.0
 11
20.92955276640282
 21
101.8305923343276
 31
0.0
  0
LINE
  5
150
330
70
100
AcDbEntity
  8
0
 62
    18
420
        0
370
     0
100
AcDbLine
 10
13.40133046933579
 20
101.5617272522897
 30
0.0
 11
20.92955276640282
 21
101.5617272522897
 31
0.0
  0
LINE
  5
151
330
70
100
AcDbEntity
  8
0
 62
    18
420
        0
370
     0
100
AcDbLine
 10
20.92955276640411
 20
73.00825553980931
 30
0.0
 11
13.40133046933579
 21
73.00825553987476
 31
0.0
  0
LINE
  5
152
330
70
100
AcDbEntity
  8
0
 62
    18
420
        0
370
     0
100
AcDbLine
 10
20.92955276640635
 20
73.27712062184751
 30
0.0
 11
13.40133046933868
 21
73.27712062191297
 31
0.0
  0
SPLINE
  5
153
330
70
100
AcDbEntity
  8
0
 62
    18
420
        0
370
     0
100
AcDbSpline
210
0.0
220
0.0
230
1.0
 70
     8
 71
     3
 72
    14
 73
    10
 74
     0
 42
0.0000000001
 43
0.0000000001
 40
0.0
 40
0.0
 40
0.0
 40
0.0
 40
1.0
 40
1.0
 40
1.0
 40
2.0
 40
2.0
 40
2.0
 40
3.0
 40
3.0
 40
3.0
 40
3.0
 10
27.42367859270844
 20
87.89205919730942
 30
0.0
 10
27.16264934630228
 20
88.03369589236037
 30
0.0
 10
26.83622410503059
 20
87.93690910616913
 30
0.0
 10
26.69458740997965
 20
87.67587985976296
 30
0.0
 10
26.55295071492903
 20
87.41485061335648
 30
0.0
 10
26.64973750111995
 20
87.08842537208511
 30
0.0
 10
26.91076674752643
 20
86.94678867703416
 30
0.0
 10
26.98949620012917
 20
86.90406940467918
 30
0.0
 10
27.07765000164292
 20
86.88169377309568
 30
0.0
 10
27.16722267011728
 20
86.88169377309568
 30
0.0
  0
SPLINE
  5
154
330
70
100
AcDbEntity
  8
0
 62
    18
420
        0
370
     0
100
AcDbSpline
210
0.0
220
0.0
230
1.0
 70
     8
 71
     3
 72
     8
 73
     4
 74
     0
 42
0.0000000001
 43
0.0000000001
 40
0.0
 40
0.0
 40
0.0
 40
0.0
 40
1.0
 40
1.0
 40
1.0
 40
1.0
 10
27.16722267011728
 20
86.88169377309568
 30
0.0
 10
27.25679533859837
 20
86.88169377309568
 30
0.0
 10
27.3449491401179
 20
86.90406940468237
 30
0.0
 10
27.4236785927248
 20
86.94678867704281
 30
0.0
  0
LINE
  5
155
330
70
100
AcDbEntity
  8
0
 62
    18
420
        0
370
     0
100
AcDbLine
 10
26.93437867888146
 20
87.0161263141148
 30
0.0
 11
26.70153468764598
 21
87.41942393717179
 31
0.0
  0
LINE
  5
156
330
70
100
AcDbEntity
  8
0
 62
    18
420
        0
370
     0
100
AcDbLine
 10
27.40006666135277
 20
87.0161263141148
 30
0.0
 11
26.93437867888146
 21
87.0161263141148
 31
0.0
  0
LINE
  5
157
330
70
100
AcDbEntity
  8
0
 62
    18
420
        0
370
     0
100
AcDbLine
 10
27.46514996325839
 20
87.12885389973946
 30
0.0
 11
27.40006666135277
 21
87.0161263141148
 31
0.0
  0
LINE
  5
158
330
70
100
AcDbEntity
  8
0
 62
    18
420
        0
370
     0
100
AcDbLine
 10
27.40006666135277
 20
87.8227215602291
 30
0.0
 11
27.46514996321571
 21
87.70999397467759
 31
0.0
  0
LINE
  5
159
330
70
100
AcDbEntity
  8
0
 62
    18
420
        0
370
     0
100
AcDbLine
 10
26.93437867888146
 20
87.8227215602291
 30
0.0
 11
27.40006666135277
 21
87.8227215602291
 31
0.0
  0
LINE
  5
15A
330
70
100
AcDbEntity
  8
0
 62
    18
420
        0
370
     0
100
AcDbLine
 10
26.70153468764598
 20
87.41942393717179
 30
0.0
 11
26.93437867888146
 21
87.8227215602291
 31
0.0
  0
LINE
  5
15B
330
70
100
AcDbEntity
  8
0
 62
    18
420
        0
370
     0
100
AcDbLine
 10
21.41350991450193
 20
101.8707998751308
 30
0.0
 11
21.41350991450193
 21
72.96804799903916
 31
0.0
  0
LINE
  5
15C
330
70
100
AcDbEntity
  8
0
 62
    18
420
        0
370
     0
100
AcDbLine
 10
25.7153512271117
 20
65.26578158575367
 30
0.0
 11
25.7153512271117
 21
68.70557381862328
 31
0.0
  0
LINE
  5
15D
330
70
100
AcDbEntity
  8
0
 62
    18
420
        0
370
     0
100
AcDbLine
 10
25.7153512271117
 20
85.69952782065035
 30
0.0
 11
25.7153512271117
 21
89.13932005351965
 31
0.0
  0
LINE
  5
15E
330
70
100
AcDbEntity
  8
0
 62
    18
420
        0
370
     0
100
AcDbLine
 10
25.7153512271117
 20
106.133274055547
 30
0.0
 11
25.7153512271117
 21
109.573066288416
 31
0.0
  0
LINE
  5
15F
330
70
100
AcDbEntity
  8
0
 62
    18
420
        0
370
     0
100
AcDbLine
 10
13.93906062689801
 20
60.21027763482818
 30
0.0
 11
20.39182259581283
 21
60.21027763482882
 31
0.0
  0
LINE
  5
160
330
70
100
AcDbEntity
  8
0
 62
    18
420
        0
370
     0
100
AcDbLine
 10
20.01541148095947
 20
59.83386651997545
 30
0.0
 11
14.31547174175137
 21
59.83386651997481
 31
0.0
  0
LINE
  5
161
330
70
100
AcDbEntity
  8
0
 62
    18
420
        0
370
     0
100
AcDbLine
 10
20.3918226028327
 20
114.6285702389289
 30
0.0
 11
13.93906063391819
 21
114.6285702397554
 31
0.0
  0
LINE
  5
162
330
70
100
AcDbEntity
  8
0
 62
    18
420
        0
370
     0
100
AcDbLine
 10
14.31547174881937
 20
115.0049813545603
 30
0.0
 11
20.01541148802746
 21
115.0049813538304
 31
0.0
  0
LINE
  5
163
330
70
100
AcDbEntity
  8
0
 62
    18
420
        0
370
     0
100
AcDbLine
 10
25.50025916148107
 20
68.4106626372009
 30
0.0
 11
25.50025916148107
 21
68.6852793485399
 31
0.0
  0
LINE
  5
164
330
70
100
AcDbEntity
  8
0
 62
    18
420
        0
370
     0
100
AcDbLine
 10
18.41324880657937
 20
60.53291573327364
 30
0.0
 11
18.41324880657937
 21
72.90070950702688
 31
0.0
  0
LINE
  5
165
330
70
100
AcDbEntity
  8
0
 62
    18
420
        0
370
     0
100
AcDbLine
 10
14.74565587995614
 20
60.53291573327364
 30
0.0
 11
18.41324880657937
 21
60.53291573327364
 31
0.0
  0
LINE
  5
166
330
70
100
AcDbEntity
  8
0
 62
    18
420
        0
370
     0
100
AcDbLine
 10
14.74565587995614
 20
60.53291573327364
 30
0.0
 11
14.74565587995614
 21
72.90070950702688
 31
0.0
  0
LINE
  5
167
330
70
100
AcDbEntity
  8
0
 62
    18
420
        0
370
     0
100
AcDbLine
 10
14.74565587995614
 20
72.90070950702688
 30
0.0
 11
18.41324880657937
 21
72.90070950702688
 31
0.0
  0
CIRCLE
  5
168
330
70
100
AcDbEntity
  8
0
 62
    18
420
        0
370
     0
100
AcDbCircle
 10
25.76912424351921
 20
87.41942393708491
 30
0.0
 40
1.720736525044023
  0
CIRCLE
  5
169
330
70
100
AcDbEntity
  8
0
 62
    18
420
        0
370
     0
100
AcDbCircle
 10
25.76912424351921
 20
107.8531701719816
 30
0.0
 40
1.720736525044023
  0
CIRCLE
  5
16A
330
70
100
AcDbEntity
  8
0
 62
    18
420
        0
370
     0
100
AcDbCircle
 10
25.76912424351921
 20
66.98567770218831
 30
0.0
 40
1.720736525044143
  0
LINE
  5
16B
330
70
100
AcDbEntity
  8
0
 62
    18
420
        0
370
     0
100
AcDbLine
 10
18.41324880657937
 20
101.9381383671431
 30
0.0
 11
18.41324880657937
 21
114.3059321408963
 31
0.0
  0
LINE
  5
16C
330
70
100
AcDbEntity
  8
0
 62
    18
420
        0
370
     0
100
AcDbLine
 10
18.41324880657937
 20
114.3059321408963
 30
0.0
 11
30.07096555612906
 21
114.3059321408963
 31
0.0
  0
LINE
  5
16D
330
70
100
AcDbEntity
  8
0
 62
    18
420
        0
370
     0
100
AcDbLine
 10
30.07096555612906
 20
60.53291573327364
 30
0.0
 11
30.07096555612906
 21
114.3059321408963
 31
0.0
  0
LINE
  5
16E
330
70
100
AcDbEntity
  8
0
 62
    18
420
        0
370
     0
100
AcDbLine
 10
18.41324880657937
 20
60.53291573327364
 30
0.0
 11
30.07096555612906
 21
60.53291573327364
 31
0.0
  0
LINE
  5
16F
330
70
100
AcDbEntity
  8
0
 62
    18
420
        0
370
     0
100
AcDbLine
 10
18.41324880657937
 20
72.90070950702688
 30
0.0
 11
21.09087181605614
 21
72.90070950702688
 31
0.0
  0
SPLINE
  5
170
330
70
100
AcDbEntity
  8
0
 62
    18
420
        0
370
     0
100
AcDbSpline
210
0.0
220
0.0
230
1.0
 70
     8
 71
     3
 72
     8
 73
     4
 74
     0
 42
0.0000000001
 43
0.0000000001
 40
0.0
 40
0.0
 40
0.0
 40
0.0
 40
1.0
 40
1.0
 40
1.0
 40
1.0
 10
21.09087181605614
 20
72.90070950702688
 30
0.0
 10
21.53634206977089
 20
72.90070950702688
 30
0.0
 10
21.89746706217045
 20
73.26183449942611
 30
0.0
 10
21.89746706217045
 20
73.70730475314151
 30
0.0
  0
LINE
  5
171
330
70
100
AcDbEntity
  8
0
 62
    18
420
        0
370
     0
100
AcDbLine
 10
21.89746706217045
 20
73.70730475314151
 30
0.0
 11
21.89746706217045
 21
101.1315431210288
 31
0.0
  0
SPLINE
  5
172
330
70
100
AcDbEntity
  8
0
 62
    18
420
        0
370
     0
100
AcDbSpline
210
0.0
220
0.0
230
1.0
 70
     8
 71
     3
 72
     8
 73
     4
 74
     0
 42
0.0000000001
 43
0.0000000001
 40
0.0
 40
0.0
 40
0.0
 40
0.0
 40
1.0
 40
1.0
 40
1.0
 40
1.0
 10
21.89746706217045
 20
101.1315431210288
 30
0.0
 10
21.89746706217045
 20
101.5770133747435
 30
0.0
 10
21.53634206977089
 20
101.9381383671431
 30
0.0
 10
21.09087181605614
 20
101.9381383671431
 30
0.0
  0
LINE
  5
173
330
70
100
AcDbEntity
  8
0
 62
    18
420
        0
370
     0
100
AcDbLine
 10
21.09087181605614
 20
101.9381383671431
 30
0.0
 11
18.41324880657937
 21
101.9381383671431
 31
0.0
  0
LINE
  5
174
330
70
100
AcDbEntity
  8
0
 62
    18
420
        0
370
     0
100
AcDbLine
 10
14.74565587995646
 20
101.9381383671431
 30
0.0
 11
14.74565587995646
 21
114.3059321408963
 31
0.0
  0
LINE
  5
175
330
70
100
AcDbEntity
  8
0
 62
    18
420
        0
370
     0
100
AcDbLine
 10
18.41324880657937
 20
101.9381383671431
 30
0.0
 11
14.74565587995646
 21
101.9381383671431
 31
0.0
  0
LINE
  5
176
330
70
100
AcDbEntity
  8
0
 62
    18
420
        0
370
     0
100
AcDbLine
 10
14.74565587995646
 20
114.3059321408963
 30
0.0
 11
18.41324880657937
 21
114.3059321408963
 31
0.0
  0
LINE
  5
177
330
70
100
AcDbEntity
  8
0
 62
    18
420
        0
370
     0
100
AcDbLine
 10
13.13246538772784
 20
60.53291573327364
 30
0.0
 11
14.74565587995614
 21
60.53291573327364
 31
0.0
  0
LINE
  5
178
330
70
100
AcDbEntity
  8
0
 62
    18
420
        0
370
     0
100
AcDbLine
 10
13.13246538772784
 20
72.90070950702688
 30
0.0
 11
14.74565587995614
 21
72.90070950702688
 31
0.0
  0
LINE
  5
179
330
70
100
AcDbEntity
  8
0
 62
    18
420
        0
370
     0
100
AcDbLine
 10
13.13246538772784
 20
114.3059321408963
 30
0.0
 11
14.74565587995646
 21
114.3059321408963
 31
0.0
  0
LINE
  5
17A
330
70
100
AcDbEntity
  8
0
 62
    18
420
        0
370
     0
100
AcDbLine
 10
14.74565587995646
 20
101.9381383671431
 30
0.0
 11
13.13246538772784
 21
101.9381383671431
 31
0.0
  0
LINE
  5
17B
330
70
100
AcDbEntity
  8
0
 62
    18
420
        0
370
     0
100
AcDbLine
 10
21.0639853074845
 20
100.8626780392399
 30
0.0
 11
13.26689792837861
 21
100.8626780387413
 31
0.0
  0
LINE
  5
17C
330
70
100
AcDbEntity
  8
0
 62
    18
420
        0
370
     0
100
AcDbLine
 10
21.06398530743925
 20
101.561727252539
 30
0.0
 11
13.26689792833401
 21
101.5617272520404
 31
0.0
  0
LINE
  5
17D
330
70
100
AcDbEntity
  8
0
 62
    18
420
        0
370
     0
100
AcDbLine
 10
13.26689792837925
 20
73.97616983542871
 30
0.0
 11
21.0639853074845
 21
73.9761698349301
 31
0.0
  0
LINE
  5
17E
330
70
100
AcDbEntity
  8
0
 62
    18
420
        0
370
     0
100
AcDbLine
 10
13.26689792833433
 20
73.27712062212923
 30
0.0
 11
21.06398530743958
 21
73.27712062163127
 31
0.0
  0
SPLINE
  5
17F
330
70
100
AcDbEntity
  8
0
 62
    18
420
        0
370
     0
100
AcDbSpline
210
0.0
220
0.0
230
1.0
 70
     8
 71
     3
 72
     8
 73
     4
 74
     0
 42
0.0000000001
 43
0.0000000001
 40
0.0
 40
0.0
 40
0.0
 40
0.0
 40
1.0
 40
1.0
 40
1.0
 40
1.0
 10
27.36551066791614
 20
88.06167355517805
 30
0.0
 10
27.30128223406118
 20
88.08150342691392
 30
0.0
 10
27.23444257441866
 20
88.09158664209084
 30
0.0
 10
27.16722267015995
 20
88.09158664209503
 30
0.0
  0
SPLINE
  5
180
330
70
100
AcDbEntity
  8
0
 62
    18
420
        0
370
     0
100
AcDbSpline
210
0.0
220
0.0
230
1.0
 70
     8
 71
     3
 72
    14
 73
    10
 74
     0
 42
0.0000000001
 43
0.0000000001
 40
0.0
 40
0.0
 40
0.0
 40
0.0
 40
1.0
 40
1.0
 40
1.0
 40
2.0
 40
2.0
 40
2.0
 40
3.0
 40
3.0
 40
3.0
 40
3.0
 10
27.16722267015995
 20
88.09158664209503
 30
0.0
 10
26.79599745873099
 20
88.09158664211876
 30
0.0
 10
26.49505996504581
 20
87.79064914847177
 30
0.0
 10
26.49505996502207
 20
87.41942393704249
 30
0.0
 10
26.49505996499865
 20
87.04819872561321
 30
0.0
 10
26.79599745864564
 20
86.74726123192803
 30
0.0
 10
27.1672226700746
 20
86.7472612319046
 30
0.0
 10
27.2344425743317
 20
86.74726123190044
 30
0.0
 10
27.3012822339739
 20
86.75734444706838
 30
0.0
 10
27.36551066783015
 20
86.77717431879527
 30
0.0
  0
LINE
  5
181
330
70
100
AcDbEntity
  8
0
 62
    18
420
        0
370
     0
100
AcDbLine
 10
25.8228972613293
 20
109.5730662883724
 30
0.0
 11
25.82289726111144
 21
106.1332740555839
 31
0.0
  0
LINE
  5
182
330
70
100
AcDbEntity
  8
0
 62
    18
420
        0
370
     0
100
AcDbLine
 10
25.82289726003563
 20
89.13932005351611
 30
0.0
 11
25.82289725981777
 21
85.69952782064715
 31
0.0
  0
LINE
  5
183
330
70
100
AcDbEntity
  8
0
 62
    18
420
        0
370
     0
100
AcDbLine
 10
25.82289725874229
 20
68.70557381865985
 30
0.0
 11
25.82289725852378
 21
65.26578158571003
 31
0.0
  0
LINE
  5
184
330
70
100
AcDbEntity
  8
0
 62
    18
420
        0
370
     0
100
AcDbLine
 10
13.13246538772784
 20
73.97616983517908
 30
0.0
 11
21.19841784887065
 21
73.97616983517908
 31
0.0
  0
LINE
  5
185
330
70
100
AcDbEntity
  8
0
 62
    18
420
        0
370
     0
100
AcDbLine
 10
21.1984178488713
 20
100.8626780389906
 30
0.0
 11
13.13246538772784
 21
100.8626780389906
 31
0.0
  0
LINE
  5
186
330
70
100
AcDbEntity
  8
0
 62
    18
420
        0
370
     0
100
AcDbLine
 10
21.19841784887065
 20
73.97616983517908
 30
0.0
 11
21.1984178488713
 21
100.8626780389906
 31
0.0
  0
LINE
  5
187
330
70
100
AcDbEntity
  8
0
 62
    18
420
        0
370
     0
100
AcDbLine
 10
21.19841784887065
 20
73.97616983517908
 30
0.0
 11
21.19841784887065
 21
72.90791139447472
 31
0.0
  0
LINE
  5
188
330
70
100
AcDbEntity
  8
0
 62
    18
420
        0
370
     0
100
AcDbLine
 10
21.1984178488713
 20
101.9309364796949
 30
0.0
 11
21.1984178488713
 21
100.8626780389906
 31
0.0
  0
LINE
  5
189
330
70
100
AcDbEntity
  8
0
 62
    18
420
        0
370
     0
100
AcDbLine
 10
13.40133046933579
 20
101.8305923343276
 30
0.0
 11
13.40133046933579
 21
101.5617272522897
 31
0.0
  0
LINE
  5
18A
330
70
100
AcDbEntity
  8
0
 62
    18
420
        0
370
     0
100
AcDbLine
 10
20.92955276640282
 20
101.5617272522897
 30
0.0
 11
20.92955276640282
 21
101.8305923343276
 31
0.0
  0
LINE
  5
18B
330
70
100
AcDbEntity
  8
0
 62
    18
420
        0
370
     0
100
AcDbLine
 10
20.92955276640346
 20
73.00825553980931
 30
0.0
 11
20.92955276640635
 21
73.27712062184751
 31
0.0
  0
LINE
  5
18C
330
70
100
AcDbEntity
  8
0
 62
    18
420
        0
370
     0
100
AcDbLine
 10
13.40133046933868
 20
73.27712062191297
 30
0.0
 11
13.40133046933643
 21
73.00825553987476
 31
0.0
  0
LINE
  5
18D
330
70
100
AcDbEntity
  8
0
 62
    18
420
        0
370
     0
100
AcDbLine
 10
20.39182259581283
 20
60.21027763482882
 30
0.0
 11
20.39182259581283
 21
60.53291573327428
 31
0.0
  0
LINE
  5
18E
330
70
100
AcDbEntity
  8
0
 62
    18
420
        0
370
     0
100
AcDbLine
 10
13.93906062689801
 20
60.53291573327364
 30
0.0
 11
13.93906062689801
 21
60.21027763482818
 31
0.0
  0
LINE
  5
18F
330
70
100
AcDbEntity
  8
0
 62
    18
420
        0
370
     0
100
AcDbLine
 10
13.93906062689801
 20
60.21027763482818
 30
0.0
 11
14.31547174175137
 21
59.83386651997481
 31
0.0
  0
LINE
  5
190
330
70
100
AcDbEntity
  8
0
 62
    18
420
        0
370
     0
100
AcDbLine
 10
20.01541148095947
 20
59.83386651997545
 30
0.0
 11
20.39182259581283
 21
60.21027763482882
 31
0.0
  0
LINE
  5
191
330
70
100
AcDbEntity
  8
0
 62
    18
420
        0
370
     0
100
AcDbLine
 10
13.93906063391819
 20
114.6285702397554
 30
0.0
 11
13.93906063387648
 21
114.3059321413093
 31
0.0
  0
LINE
  5
192
330
70
100
AcDbEntity
  8
0
 62
    18
420
        0
370
     0
100
AcDbLine
 10
20.39182260279131
 20
114.3059321404831
 30
0.0
 11
20.3918226028327
 21
114.6285702389289
 31
0.0
  0
LINE
  5
193
330
70
100
AcDbEntity
  8
0
 62
    18
420
        0
370
     0
100
AcDbLine
 10
20.3918226028327
 20
114.6285702389289
 30
0.0
 11
20.01541148802746
 21
115.0049813538304
 31
0.0
  0
LINE
  5
194
330
70
100
AcDbEntity
  8
0
 62
    18
420
        0
370
     0
100
AcDbLine
 10
14.31547174881937
 20
115.0049813545603
 30
0.0
 11
13.93906063391819
 21
114.6285702397554
 31
0.0
  0
LINE
  5
195
330
70
100
AcDbEntity
  8
0
 62
    18
420
        0
370
     0
100
AcDbLine
 10
15.01452096044433
 20
101.9381383671431
 30
0.0
 11
15.01452096043053
 21
101.8305923343276
 31
0.0
  0
LINE
  5
196
330
70
100
AcDbEntity
  8
0
 62
    18
420
        0
370
     0
100
AcDbLine
 10
15.01452095673852
 20
73.00825553986
 30
0.0
 11
15.0145209567244
 21
72.90070950702688
 31
0.0
  0
LINE
  5
197
330
70
100
AcDbEntity
  8
0
 62
    18
420
        0
370
     0
100
AcDbLine
 10
19.31636226933418
 20
72.90070950702688
 30
0.0
 11
19.3163622693483
 21
73.00825553982278
 31
0.0
  0
LINE
  5
198
330
70
100
AcDbEntity
  8
0
 62
    18
420
        0
370
     0
100
AcDbLine
 10
19.31636227304031
 20
101.8305923343276
 30
0.0
 11
19.31636227305411
 21
101.9381383671431
 31
0.0
  0
LINE
  5
199
330
70
100
AcDbEntity
  8
0
 62
    18
420
        0
370
     0
100
AcDbLine
 10
24.8045766171116
 20
68.4106626372009
 30
0.0
 11
25.50025916148107
 21
68.4106626372009
 31
0.0
  0
LINE
  5
19A
330
70
100
AcDbEntity
  8
0
 62
    18
420
        0
370
     0
100
AcDbLine
 10
13.13246538772784
 20
72.90070950702688
 30
0.0
 11
13.13246538772784
 21
60.53291573327364
 31
0.0
  0
LINE
  5
19B
330
70
100
AcDbEntity
  8
0
 62
    18
420
        0
370
     0
100
AcDbLine
 10
13.13246538772784
 20
114.3059321408963
 30
0.0
 11
13.13246538772784
 21
101.9381383671431
 31
0.0
  0
LINE
  5
19C
330
70
100
AcDbEntity
  8
0
 62
    18
420
        0
370
     0
100
AcDbLine
 10
21.0639853074845
 20
100.8626780392399
 30
0.0
 11
21.06398530743925
 21
101.561727252539
 31
0.0
  0
LINE
  5
19D
330
70
100
AcDbEntity
  8
0
 62
    18
420
        0
370
     0
100
AcDbLine
 10
13.26689792833401
 20
101.5617272520404
 30
0.0
 11
13.26689792837861
 21
100.8626780387413
 31
0.0
  0
LINE
  5
19E
330
70
100
AcDbEntity
  8
0
 62
    18
420
        0
370
     0
100
AcDbLine
 10
13.26689792837925
 20
73.97616983542871
 30
0.0
 11
13.26689792833433
 21
73.27712062212923
 31
0.0
  0
LINE
  5
19F
330
70
100
AcDbEntity
  8
0
 62
    18
420
        0
370
     0
100
AcDbLine
 10
21.06398530743958
 20
73.27712062163127
 30
0.0
 11
21.0639853074845
 21
73.9761698349301
 31
0.0
  0
LINE
  5
1A0
330
70
100
AcDbEntity
  8
0
 62
    18
420
        0
370
     0
100
AcDbLine
 10
13.13246538772784
 20
100.8626780389906
 30
0.0
 11
13.13246538772784
 21
73.97616983517908
 31
0.0
  0
LINE
  5
1A1
330
70
100
AcDbEntity
  8
0
 62
    18
420
        0
370
     0
100
AcDbLine
 10
21.89746706217045
 20
76.61104763915297
 30
0.0
 11
21.41350991450193
 21
76.61104763915297
 31
0.0
  0
LINE
  5
1A2
330
70
100
AcDbEntity
  8
0
 62
    18
420
        0
370
     0
100
AcDbLine
 10
21.41350991450193
 20
98.22780023501703
 30
0.0
 11
21.89746706217045
 21
98.22780023501703
 31
0.0
  0
LINE
  5
1A3
330
70
100
AcDbEntity
  8
0
 62
     9
420
 12632256
370
     0
100
AcDbLine
 10
50.50471179102575
 20
141.5957379679474
 30
0.0
 11
50.50471179102575
 21
141.3806459023168
 31
0.0
  0
LINE
  5
1A4
330
70
100
AcDbEntity
  8
0
 62
     9
420
 12632256
370
     0
100
AcDbLine
 10
73.62710884630327
 20
141.3806459023168
 30
0.0
 11
73.62710884630327
 21
141.5957379679474
 31
0.0
  0
LINE
  5
1A5
330
70
100
AcDbEntity
  8
0
 62
    18
420
        0
370
     0
100
AcDbLine
 10
73.62710884630327
 20
141.3806459023168
 30
0.0
 11
50.50471179102575
 21
141.3806459023168
 31
0.0
  0
LINE
  5
1A6
330
70
100
AcDbEntity
  8
0
 62
    18
420
        0
370
     0
100
AcDbLine
 10
50.50471179102575
 20
141.3806459023168
 30
0.0
 11
49.42925146287322
 21
141.3806459023168
 31
0.0
  0
LINE
  5
1A7
330
70
100
AcDbEntity
  8
0
 62
    18
420
        0
370
     0
100
AcDbLine
 10
49.42925146287322
 20
141.3806459023168
 30
0.0
 11
49.42925146287322
 21
141.5957379679474
 31
0.0
  0
LINE
  5
1A8
330
70
100
AcDbEntity
  8
0
 62
    18
420
        0
370
     0
100
AcDbLine
 10
74.70256917445579
 20
141.5957379679474
 30
0.0
 11
74.70256917445579
 21
141.3806459023168
 31
0.0
  0
LINE
  5
1A9
330
70
100
AcDbEntity
  8
0
 62
    18
420
        0
370
     0
100
AcDbLine
 10
74.70256917445579
 20
141.3806459023168
 30
0.0
 11
73.62710884630327
 21
141.3806459023168
 31
0.0
  0
LINE
  5
1AA
330
70
100
AcDbEntity
  8
0
 62
     9
420
 12632256
370
     0
100
AcDbLine
 10
53.15296355213593
 20
137.078804589707
 30
0.0
 11
53.15296355213593
 21
136.971258558594
 31
0.0
  0
LINE
  5
1AB
330
70
100
AcDbEntity
  8
0
 62
    18
420
        0
370
     0
100
AcDbLine
 10
52.0775032239834
 20
136.971258558594
 30
0.0
 11
52.0775032239834
 21
137.078804589707
 31
0.0
  0
LINE
  5
1AC
330
70
100
AcDbEntity
  8
0
 62
    18
420
        0
370
     0
100
AcDbLine
 10
52.0775032239834
 20
137.078804589707
 30
0.0
 11
53.15296355213593
 21
137.078804589707
 31
0.0
  0
LINE
  5
1AD
330
70
100
AcDbEntity
  8
0
 62
    18
420
        0
370
     0
100
AcDbLine
 10
73.35824376426505
 20
137.078804589707
 30
0.0
 11
73.35824376426505
 21
136.971258558594
 31
0.0
  0
LINE
  5
1AE
330
70
100
AcDbEntity
  8
0
 62
     9
420
 12632256
370
     0
100
AcDbLine
 10
72.28278343611285
 20
136.971258558594
 30
0.0
 11
72.28278343611285
 21
137.078804589707
 31
0.0
  0
LINE
  5
1AF
330
70
100
AcDbEntity
  8
0
 62
    18
420
        0
370
     0
100
AcDbLine
 10
72.28278343611285
 20
137.078804589707
 30
0.0
 11
73.35824376426505
 21
137.078804589707
 31
0.0
  0
LINE
  5
1B0
330
70
100
AcDbEntity
  8
0
 62
    18
420
        0
370
     0
100
AcDbLine
 10
53.15296355213593
 20
137.078804589707
 30
0.0
 11
72.28278343611285
 21
137.078804589707
 31
0.0
  0
CIRCLE
  5
1B1
330
70
100
AcDbEntity
  8
0
 62
    18
420
        0
370
     0
100
AcDbCircle
 10
80.34873589725631
 20
145.6287142054632
 30
0.0
 40
2.849969869604006
  0
CIRCLE
  5
1B2
330
70
100
AcDbEntity
  8
0
 62
    18
420
        0
370
     0
100
AcDbCircle
 10
80.34873589725631
 20
145.6287142054632
 30
0.0
 40
3.226380984457373
  0
LINE
  5
1B3
330
70
100
AcDbEntity
  8
0
 62
    18
420
        0
370
     0
100
AcDbLine
 10
57.57584502589829
 20
137.2938966553376
 30
0.0
 11
67.09366893004764
 21
137.2938966553376
 31
0.0
  0
LINE
  5
1B4
330
70
100
AcDbEntity
  8
0
 62
    18
420
        0
370
     0
100
AcDbLine
 10
57.57584502589829
 20
140.7891427218331
 30
0.0
 11
67.09366893004764
 21
140.7891427218331
 31
0.0
  0
LINE
  5
1B5
330
70
100
AcDbEntity
  8
0
 62
    18
420
        0
370
     0
100
AcDbLine
 10
83.57511688171355
 20
132.7231902606897
 30
0.0
 11
83.57511688171355
 21
141.058007803871
 31
0.0
  0
SPLINE
  5
1B6
330
70
100
AcDbEntity
  8
0
 62
    18
420
        0
370
     0
100
AcDbSpline
210
0.0
220
0.0
230
1.0
 70
     8
 71
     3
 72
     8
 73
     4
 74
     0
 42
0.0000000001
 43
0.0000000001
 40
0.0
 40
0.0
 40
0.0
 40
0.0
 40
1.0
 40
1.0
 40
1.0
 40
1.0
 10
83.57511688171355
 20
141.058007803871
 30
0.0
 10
83.57511688171355
 20
141.3549879730145
 30
0.0
 10
83.33436688678032
 20
141.5957379679474
 30
0.0
 10
83.03738671763714
 20
141.5957379679474
 30
0.0
  0
LINE
  5
1B7
330
70
100
AcDbEntity
  8
0
 62
    18
420
        0
370
     0
100
AcDbLine
 10
83.03738671763714
 20
141.5957379679474
 30
0.0
 11
80.34873589725631
 21
141.5957379679474
 31
0.0
  0
LINE
  5
1B8
330
70
100
AcDbEntity
  8
0
 62
    18
420
        0
370
     0
100
AcDbLine
 10
83.57511688171355
 20
148.0484999368619
 30
0.0
 11
85.72603753801862
 21
144.3809070102387
 31
0.0
  0
LINE
  5
1B9
330
70
100
AcDbEntity
  8
0
 62
    18
420
        0
370
     0
100
AcDbLine
 10
85.72603753801862
 20
144.3809070102387
 30
0.0
 11
85.72603753801862
 21
132.7231902606897
 31
0.0
  0
LINE
  5
1BA
330
70
100
AcDbEntity
  8
0
 62
    18
420
        0
370
     0
100
AcDbLine
 10
85.72603753801862
 20
132.7231902606897
 30
0.0
 11
83.57511688171355
 21
132.7231902606897
 31
0.0
  0
SPLINE
  5
1BB
330
70
100
AcDbEntity
  8
0
 62
    18
420
        0
370
     0
100
AcDbSpline
210
0.0
220
0.0
230
1.0
 70
     8
 71
     3
 72
    14
 73
    10
 74
     0
 42
0.0000000001
 43
0.0000000001
 40
0.0
 40
0.0
 40
0.0
 40
0.0
 40
1.0
 40
1.0
 40
1.0
 40
2.0
 40
2.0
 40
2.0
 40
3.0
 40
3.0
 40
3.0
 40
3.0
 10
83.57511688171355
 20
148.0484999368622
 30
0.0
 10
82.23870612056865
 20
149.8303809517219
 30
0.0
 10
79.71083117377272
 20
150.1915059441211
 30
0.0
 10
77.92895015891303
 20
148.8550951829762
 30
0.0
 10
76.14706914405338
 20
147.5186844218313
 30
0.0
 10
75.78594415165413
 20
144.9908094750354
 30
0.0
 10
77.12235491279905
 20
143.2089284601757
 30
0.0
 10
77.88400014644349
 20
142.1934014819831
 30
0.0
 10
79.07932717451494
 20
141.5957379679471
 30
0.0
 10
80.34873589725631
 20
141.5957379679471
 30
0.0
  0
LINE
  5
1BC
330
70
100
AcDbEntity
  8
0
 62
    18
420
        0
370
     0
100
AcDbLine
 10
75.77802950260799
 20
136.971258558594
 30
0.0
 11
48.8915212987968
 21
136.971258558594
 31
0.0
  0
LINE
  5
1BD
330
70
100
AcDbEntity
  8
0
 62
    18
420
        0
370
     0
100
AcDbLine
 10
75.77802950260799
 20
133.7448775741367
 30
0.0
 11
48.8915212987968
 21
133.7448775741367
 31
0.0
  0
LINE
  5
1BE
330
70
100
AcDbEntity
  8
0
 62
    18
420
        0
370
     0
100
AcDbLine
 10
75.77802950260799
 20
133.7448775741367
 30
0.0
 11
75.77802950260799
 21
136.971258558594
 31
0.0
  0
LINE
  5
1BF
330
70
100
AcDbEntity
  8
0
 62
    18
420
        0
370
     0
100
AcDbLine
 10
48.8915212987968
 20
133.7448775741367
 30
0.0
 11
48.8915212987968
 21
136.971258558594
 31
0.0
  0
LINE
  5
1C0
330
70
100
AcDbEntity
  8
0
 62
    18
420
        0
370
     0
100
AcDbLine
 10
75.24029933853221
 20
141.5957379679474
 30
0.0
 11
48.8915212987968
 21
141.5957379679474
 31
0.0
  0
LINE
  5
1C1
330
70
100
AcDbEntity
  8
0
 62
    18
420
        0
370
     0
100
AcDbLine
 10
48.8915212987968
 20
144.8221189524047
 30
0.0
 11
75.24029933853221
 21
144.8221189524047
 31
0.0
  0
LINE
  5
1C2
330
70
100
AcDbEntity
  8
0
 62
    18
420
        0
370
     0
100
AcDbLine
 10
48.8915212987968
 20
141.5957379679474
 30
0.0
 11
48.8915212987968
 21
144.8221189524047
 31
0.0
  0
LINE
  5
1C3
330
70
100
AcDbEntity
  8
0
 62
    18
420
        0
370
     0
100
AcDbLine
 10
75.24029933853221
 20
141.5957379679474
 30
0.0
 11
75.24029933853221
 21
144.8221189524047
 31
0.0
  0
SPLINE
  5
1C4
330
70
100
AcDbEntity
  8
0
 62
    18
420
        0
370
     0
100
AcDbSpline
210
0.0
220
0.0
230
1.0
 70
     8
 71
     3
 72
     8
 73
     4
 74
     0
 42
0.0000000001
 43
0.0000000001
 40
0.0
 40
0.0
 40
0.0
 40
0.0
 40
1.0
 40
1.0
 40
1.0
 40
1.0
 10
75.77802950260799
 20
144.8221189524047
 30
0.0
 10
76.07500967175181
 20
144.8221189524047
 30
0.0
 10
76.31575966668441
 20
145.0628689473376
 30
0.0
 10
76.31575966668441
 20
145.3598491164807
 30
0.0
  0
LINE
  5
1C5
330
70
100
AcDbEntity
  8
0
 62
    18
420
        0
370
     0
100
AcDbLine
 10
76.31575966668441
 20
145.3598491164807
 30
0.0
 11
76.31575966668441
 21
145.628714198519
 31
0.0
  0
SPLINE
  5
1C6
330
70
100
AcDbEntity
  8
0
 62
    18
420
        0
370
     0
100
AcDbSpline
210
0.0
220
0.0
230
1.0
 70
     8
 71
     3
 72
     8
 73
     4
 74
     0
 42
0.0000000001
 43
0.0000000001
 40
0.0
 40
0.0
 40
0.0
 40
0.0
 40
1.0
 40
1.0
 40
1.0
 40
1.0
 10
84.0356009218779
 20
147.2633161581955
 30
0.0
 10
83.91222902948909
 20
147.5415829939699
 30
0.0
 10
83.7577506684576
 20
147.8049882212032
 30
0.0
 10
83.57511688171355
 20
148.0484999368622
 30
0.0
  0
LINE
  5
1C7
330
70
100
AcDbEntity
  8
0
 62
    18
420
        0
370
     0
100
AcDbLine
 10
80.34873589725631
 20
141.5957379679474
 30
0.0
 11
75.24029933853221
 21
141.5957379679474
 31
0.0
  0
LINE
  5
1C8
330
70
100
AcDbEntity
  8
0
 62
    18
420
        0
370
     0
100
AcDbLine
 10
75.24029933853221
 20
144.8221189524047
 30
0.0
 11
75.77802950260799
 21
144.8221189524047
 31
0.0
  0
LINE
  5
1C9
330
70
100
AcDbEntity
  8
0
 62
    18
420
        0
370
     0
100
AcDbLine
 10
60.72158490847393
 20
137.2938966553376
 30
0.0
 11
60.72158490847393
 21
137.078804589707
 31
0.0
  0
LINE
  5
1CA
330
70
100
AcDbEntity
  8
0
 62
    18
420
        0
370
     0
100
AcDbLine
 10
63.94796589293118
 20
137.078804589707
 30
0.0
 11
63.94796589293118
 21
137.2938966553376
 31
0.0
  0
LINE
  5
1CB
330
70
100
AcDbEntity
  8
0
 62
    18
420
        0
370
     0
100
AcDbLine
 10
57.57584502589829
 20
140.7891427218331
 30
0.0
 11
57.57584502589829
 21
137.2938966553376
 31
0.0
  0
LINE
  5
1CC
330
70
100
AcDbEntity
  8
0
 62
    18
420
        0
370
     0
100
AcDbLine
 10
67.09366893004764
 20
137.2938966553376
 30
0.0
 11
67.09366893004764
 21
140.7891427218331
 31
0.0
  0
LINE
  5
1CD
330
70
100
AcDbEntity
  8
0
 62
    18
420
        0
370
     0
100
AcDbLine
 10
64.96965320467613
 20
140.7891427218331
 30
0.0
 11
64.96965320467613
 21
141.3806459023168
 31
0.0
  0
LINE
  5
1CE
330
70
100
AcDbEntity
  8
0
 62
    18
420
        0
370
     0
100
AcDbLine
 10
59.69989759672898
 20
141.3806459023168
 30
0.0
 11
59.69989759672898
 21
140.7891427218331
 31
0.0
  0
LINE
  5
1CF
330
70
100
AcDbEntity
  8
0
 62
     9
420
 12632256
370
     0
100
AcDbLine
 10
76.31575966668441
 20
108.6597627240674
 30
0.0
 11
76.3972417834712
 21
107.8531701719815
 31
0.0
  0
LINE
  5
1D0
330
70
100
AcDbEntity
  8
0
 62
     9
420
 12632256
370
     0
100
AcDbLine
 10
76.3972417834712
 20
107.8531701719815
 30
0.0
 11
76.33925924180664
 21
107.1737606347219
 31
0.0
  0
LINE
  5
1D1
330
70
100
AcDbEntity
  8
0
 62
     9
420
 12632256
370
     0
100
AcDbLine
 10
76.33925924180664
 20
107.1737606347219
 30
0.0
 11
76.31575966668634
 21
107.0465776199014
 31
0.0
  0
LINE
  5
1D2
330
70
100
AcDbEntity
  8
0
 62
    18
420
        0
370
     0
100
AcDbLine
 10
76.58462474872263
 20
101.5617272522897
 30
0.0
 11
84.11284704578998
 21
101.5617272522897
 31
0.0
  0
LINE
  5
1D3
330
70
100
AcDbEntity
  8
0
 62
    18
420
        0
370
     0
100
AcDbLine
 10
76.58462474872263
 20
101.8305923343276
 30
0.0
 11
84.11284704578998
 21
101.8305923343276
 31
0.0
  0
LINE
  5
1D4
330
70
100
AcDbEntity
  8
0
 62
    18
420
        0
370
     0
100
AcDbLine
 10
84.11284704579063
 20
73.0082555398414
 30
0.0
 11
76.58477912134099
 21
73.00825553984331
 31
0.0
  0
LINE
  5
1D5
330
70
100
AcDbEntity
  8
0
 62
    18
420
        0
370
     0
100
AcDbLine
 10
84.11284704579063
 20
73.2771206218796
 30
0.0
 11
80.36794320146173
 21
73.27712062188024
 31
0.0
  0
LINE
  5
1D6
330
70
100
AcDbEntity
  8
0
 62
    18
420
        0
370
     0
100
AcDbLine
 10
80.36794320146173
 20
73.27712062188024
 30
0.0
 11
76.58477912134099
 21
73.27712062188154
 31
0.0
  0
LINE
  5
1D7
330
70
100
AcDbEntity
  8
0
 62
    18
420
        0
370
     0
100
AcDbLine
 10
76.58477912134099
 20
73.00825553984331
 30
0.0
 11
76.58462474872263
 21
73.00825553984331
 31
0.0
  0
LINE
  5
1D8
330
70
100
AcDbEntity
  8
0
 62
    18
420
        0
370
     0
100
AcDbLine
 10
77.12235491279905
 20
60.21027763482818
 30
0.0
 11
80.34873589725631
 21
60.21027763482818
 31
0.0
  0
LINE
  5
1D9
330
70
100
AcDbEntity
  8
0
 62
    18
420
        0
370
     0
100
AcDbLine
 10
80.34873589725631
 20
60.21027763482818
 30
0.0
 11
83.57511688171355
 21
60.21027763482818
 31
0.0
  0
LINE
  5
1DA
330
70
100
AcDbEntity
  8
0
 62
    18
420
        0
370
     0
100
AcDbLine
 10
83.19870576686019
 20
59.83386651997481
 30
0.0
 11
80.34873589725631
 21
59.83386651997481
 31
0.0
  0
LINE
  5
1DB
330
70
100
AcDbEntity
  8
0
 62
    18
420
        0
370
     0
100
AcDbLine
 10
80.34873589725631
 20
59.83386651997481
 30
0.0
 11
77.49876602765242
 21
59.83386651997481
 31
0.0
  0
LINE
  5
1DC
330
70
100
AcDbEntity
  8
0
 62
    18
420
        0
370
     0
100
AcDbLine
 10
83.57511688171355
 20
114.6285702393421
 30
0.0
 11
77.12235491279905
 21
114.6285702393421
 31
0.0
  0
LINE
  5
1DD
330
70
100
AcDbEntity
  8
0
 62
    18
420
        0
370
     0
100
AcDbLine
 10
77.49876602765242
 20
115.0049813541952
 30
0.0
 11
83.19870576686019
 21
115.0049813541952
 31
0.0
  0
LINE
  5
1DE
330
70
100
AcDbEntity
  8
0
 62
    18
420
        0
370
     0
100
AcDbLine
 10
76.31575966668441
 20
60.53291573327364
 30
0.0
 11
83.57511688171355
 21
60.53291573327364
 31
0.0
  0
LINE
  5
1DF
330
70
100
AcDbEntity
  8
0
 62
    18
420
        0
370
     0
100
AcDbLine
 10
76.31575966668441
 20
72.90070950702688
 30
0.0
 11
83.57511688171355
 21
72.90070950702688
 31
0.0
  0
LINE
  5
1E0
330
70
100
AcDbEntity
  8
0
 62
    18
420
        0
370
     0
100
AcDbLine
 10
83.57511688171355
 20
60.53291573327364
 30
0.0
 11
83.57511688171355
 21
72.90070950702688
 31
0.0
  0
LINE
  5
1E1
330
70
100
AcDbEntity
  8
0
 62
    18
420
        0
370
     0
100
AcDbLine
 10
76.31575966668441
 20
114.3059321408963
 30
0.0
 11
83.57511688171355
 21
114.3059321408963
 31
0.0
  0
LINE
  5
1E2
330
70
100
AcDbEntity
  8
0
 62
    18
420
        0
370
     0
100
AcDbLine
 10
76.31575966668441
 20
107.1810074668863
 30
0.0
 11
76.37216770668821
 21
107.8531701719815
 31
0.0
  0
LINE
  5
1E3
330
70
100
AcDbEntity
  8
0
 62
    18
420
        0
370
     0
100
AcDbLine
 10
83.57511688171355
 20
101.9381383671431
 30
0.0
 11
83.57511688171355
 21
114.3059321408963
 31
0.0
  0
LINE
  5
1E4
330
70
100
AcDbEntity
  8
0
 62
    18
420
        0
370
     0
100
AcDbLine
 10
83.57511688171355
 20
101.9381383671431
 30
0.0
 11
76.31575966668441
 21
101.9381383671431
 31
0.0
  0
LINE
  5
1E5
330
70
100
AcDbEntity
  8
0
 62
    18
420
        0
370
     0
100
AcDbLine
 10
76.37216770668821
 20
107.8531701719815
 30
0.0
 11
76.31575966668441
 21
108.5253328770767
 31
0.0
  0
LINE
  5
1E6
330
70
100
AcDbEntity
  8
0
 62
    18
420
        0
370
     0
100
AcDbLine
 10
85.72603753801862
 20
60.53291573327364
 30
0.0
 11
85.72603753801862
 21
72.90070950702688
 31
0.0
  0
LINE
  5
1E7
330
70
100
AcDbEntity
  8
0
 62
    18
420
        0
370
     0
100
AcDbLine
 10
83.57511688171355
 20
72.90070950702688
 30
0.0
 11
85.72603753801862
 21
72.90070950702688
 31
0.0
  0
LINE
  5
1E8
330
70
100
AcDbEntity
  8
0
 62
    18
420
        0
370
     0
100
AcDbLine
 10
83.57511688171355
 20
60.53291573327364
 30
0.0
 11
85.72603753801862
 21
60.53291573327364
 31
0.0
  0
LINE
  5
1E9
330
70
100
AcDbEntity
  8
0
 62
    18
420
        0
370
     0
100
AcDbLine
 10
85.72603753801862
 20
101.9381383671431
 30
0.0
 11
85.72603753801862
 21
114.3059321408963
 31
0.0
  0
LINE
  5
1EA
330
70
100
AcDbEntity
  8
0
 62
    18
420
        0
370
     0
100
AcDbLine
 10
83.57511688171355
 20
114.3059321408963
 30
0.0
 11
85.72603753801862
 21
114.3059321408963
 31
0.0
  0
LINE
  5
1EB
330
70
100
AcDbEntity
  8
0
 62
    18
420
        0
370
     0
100
AcDbLine
 10
85.72603753801862
 20
101.9381383671431
 30
0.0
 11
83.57511688171355
 21
101.9381383671431
 31
0.0
  0
LINE
  5
1EC
330
70
100
AcDbEntity
  8
0
 62
    18
420
        0
370
     0
100
AcDbLine
 10
82.49965655356135
 20
72.90791139447472
 30
0.0
 11
83.03738671763714
 21
72.90791139447472
 31
0.0
  0
LINE
  5
1ED
330
70
100
AcDbEntity
  8
0
 62
     9
420
 12632256
370
     0
100
AcDbLine
 10
84.24727958680845
 20
73.70730475314151
 30
0.0
 11
85.72603753801862
 21
73.70730475314151
 31
0.0
  0
LINE
  5
1EE
330
70
100
AcDbEntity
  8
0
 62
    18
420
        0
370
     0
100
AcDbLine
 10
85.72603753801862
 20
72.90070950702688
 30
0.0
 11
85.72603753801862
 21
73.70730475314151
 31
0.0
  0
LINE
  5
1EF
330
70
100
AcDbEntity
  8
0
 62
    18
420
        0
370
     0
100
AcDbLine
 10
83.03738671763714
 20
101.9309364796949
 30
0.0
 11
82.49965655356135
 21
101.9309364796949
 31
0.0
  0
LINE
  5
1F0
330
70
100
AcDbEntity
  8
0
 62
     9
420
 12632256
370
     0
100
AcDbLine
 10
85.72603753801862
 20
101.1315431210288
 30
0.0
 11
84.24727958680845
 21
101.1315431210288
 31
0.0
  0
LINE
  5
1F1
330
70
100
AcDbEntity
  8
0
 62
    18
420
        0
370
     0
100
AcDbLine
 10
85.72603753801862
 20
101.1315431210288
 30
0.0
 11
85.72603753801862
 21
101.9381383671431
 31
0.0
  0
LINE
  5
1F2
330
70
100
AcDbEntity
  8
0
 62
    18
420
        0
370
     0
100
AcDbLine
 10
85.72603753801862
 20
73.70730475314151
 30
0.0
 11
85.72603753801862
 21
101.1315431210288
 31
0.0
  0
LINE
  5
1F3
330
70
100
AcDbEntity
  8
0
 62
    18
420
        0
370
     0
100
AcDbLine
 10
84.24727958680845
 20
100.8626780389906
 30
0.0
 11
80.34873589725631
 21
100.8626780389906
 31
0.0
  0
LINE
  5
1F4
330
70
100
AcDbEntity
  8
0
 62
    18
420
        0
370
     0
100
AcDbLine
 10
84.24727958680845
 20
101.5617272522897
 30
0.0
 11
80.34873589725631
 21
101.5617272522897
 31
0.0
  0
LINE
  5
1F5
330
70
100
AcDbEntity
  8
0
 62
    18
420
        0
370
     0
100
AcDbLine
 10
80.34873589725631
 20
100.8626780389906
 30
0.0
 11
76.45019220770352
 21
100.8626780389906
 31
0.0
  0
LINE
  5
1F6
330
70
100
AcDbEntity
  8
0
 62
    18
420
        0
370
     0
100
AcDbLine
 10
80.34873589725631
 20
101.5617272522897
 30
0.0
 11
76.45019220770352
 21
101.5617272522897
 31
0.0
  0
LINE
  5
1F7
330
70
100
AcDbEntity
  8
0
 62
    18
420
        0
370
     0
100
AcDbLine
 10
76.45019220770352
 20
73.97616983517908
 30
0.0
 11
80.34873604615873
 21
73.97616983517908
 31
0.0
  0
LINE
  5
1F8
330
70
100
AcDbEntity
  8
0
 62
    18
420
        0
370
     0
100
AcDbLine
 10
80.34873604615873
 20
73.97616983517908
 30
0.0
 11
84.24727958680845
 21
73.97616983517908
 31
0.0
  0
LINE
  5
1F9
330
70
100
AcDbEntity
  8
0
 62
    18
420
        0
370
     0
100
AcDbLine
 10
76.45019220770352
 20
73.27712062188024
 30
0.0
 11
84.24727958680845
 21
73.27712062188024
 31
0.0
  0
LINE
  5
1FA
330
70
100
AcDbEntity
  8
0
 62
    18
420
        0
370
     0
100
AcDbLine
 10
75.24029933853221
 20
114.3059321408963
 30
0.0
 11
75.77802950260799
 21
114.3059321408963
 31
0.0
  0
LINE
  5
1FB
330
70
100
AcDbEntity
  8
0
 62
    18
420
        0
370
     0
100
AcDbLine
 10
75.77802950260799
 20
60.53291573327364
 30
0.0
 11
75.24029933853221
 21
60.53291573327364
 31
0.0
  0
LINE
  5
1FC
330
70
100
AcDbEntity
  8
0
 62
    18
420
        0
370
     0
100
AcDbLine
 10
75.77802950260799
 20
114.3059321408963
 30
0.0
 11
75.77802950260799
 21
100.8626780389906
 31
0.0
  0
LINE
  5
1FD
330
70
100
AcDbEntity
  8
0
 62
    18
420
        0
370
     0
100
AcDbLine
 10
75.77802950260799
 20
73.97616983517908
 30
0.0
 11
75.77802950260799
 21
60.53291573327364
 31
0.0
  0
LINE
  5
1FE
330
70
100
AcDbEntity
  8
0
 62
    18
420
        0
370
     0
100
AcDbLine
 10
84.38171212782755
 20
100.8626780389906
 30
0.0
 11
76.31575966668441
 21
100.8626780389906
 31
0.0
  0
LINE
  5
1FF
330
70
100
AcDbEntity
  8
0
 62
    18
420
        0
370
     0
100
AcDbLine
 10
76.31575966668441
 20
73.97616983517908
 30
0.0
 11
76.31575966668441
 21
100.8626780389906
 31
0.0
  0
LINE
  5
200
330
70
100
AcDbEntity
  8
0
 62
    18
420
        0
370
     0
100
AcDbLine
 10
76.31575966668441
 20
73.97616983517908
 30
0.0
 11
84.38171212782755
 21
73.97616983517908
 31
0.0
  0
LINE
  5
201
330
70
100
AcDbEntity
  8
0
 62
     9
420
 12632256
370
     0
100
AcDbLine
 10
75.77802950260799
 20
73.97616983517908
 30
0.0
 11
75.77802950260799
 21
100.8626780389906
 31
0.0
  0
LINE
  5
202
330
70
100
AcDbEntity
  8
0
 62
    18
420
        0
370
     0
100
AcDbLine
 10
75.77802950260799
 20
100.8626780389906
 30
0.0
 11
76.31575966668441
 21
100.8626780389906
 31
0.0
  0
LINE
  5
203
330
70
100
AcDbEntity
  8
0
 62
    18
420
        0
370
     0
100
AcDbLine
 10
76.31575966668441
 20
73.97616983517908
 30
0.0
 11
75.77802950260799
 21
73.97616983517908
 31
0.0
  0
LINE
  5
204
330
70
100
AcDbEntity
  8
0
 62
    18
420
        0
370
     0
100
AcDbLine
 10
48.8915212987968
 20
114.3059321408963
 30
0.0
 11
75.24029933853221
 21
114.3059321408963
 31
0.0
  0
LINE
  5
205
330
70
100
AcDbEntity
  8
0
 62
    18
420
        0
370
     0
100
AcDbLine
 10
75.24029933853221
 20
100.8626780389906
 30
0.0
 11
75.24029933853221
 21
114.3059321408963
 31
0.0
  0
LINE
  5
206
330
70
100
AcDbEntity
  8
0
 62
    18
420
        0
370
     0
100
AcDbLine
 10
48.8915212987968
 20
60.53291573327364
 30
0.0
 11
75.24029933853221
 21
60.53291573327364
 31
0.0
  0
LINE
  5
207
330
70
100
AcDbEntity
  8
0
 62
    18
420
        0
370
     0
100
AcDbLine
 10
75.24029933853221
 20
60.53291573327364
 30
0.0
 11
75.24029933853221
 21
73.97616983517908
 31
0.0
  0
LINE
  5
208
330
70
100
AcDbEntity
  8
0
 62
    18
420
        0
370
     0
100
AcDbLine
 10
48.8915212987968
 20
60.53291573327364
 30
0.0
 11
48.8915212987968
 21
114.3059321408963
 31
0.0
  0
LINE
  5
209
330
70
100
AcDbEntity
  8
0
 62
    18
420
        0
370
     0
100
AcDbLine
 10
75.77802950260799
 20
100.8626780389906
 30
0.0
 11
75.24029933853221
 21
100.8626780389906
 31
0.0
  0
LINE
  5
20A
330
70
100
AcDbEntity
  8
0
 62
    18
420
        0
370
     0
100
AcDbLine
 10
75.24029933853221
 20
73.97616983517908
 30
0.0
 11
75.77802950260799
 21
73.97616983517908
 31
0.0
  0
LINE
  5
20B
330
70
100
AcDbEntity
  8
0
 62
    18
420
        0
370
     0
100
AcDbLine
 10
76.58462474872263
 20
101.8305923343276
 30
0.0
 11
76.58462474872263
 21
101.5617272522897
 31
0.0
  0
LINE
  5
20C
330
70
100
AcDbEntity
  8
0
 62
    18
420
        0
370
     0
100
AcDbLine
 10
84.11284704578998
 20
101.5617272522897
 30
0.0
 11
84.11284704578998
 21
101.8305923343276
 31
0.0
  0
LINE
  5
20D
330
70
100
AcDbEntity
  8
0
 62
    18
420
        0
370
     0
100
AcDbLine
 10
84.11284704578998
 20
73.0082555398414
 30
0.0
 11
84.11284704579063
 21
73.2771206218796
 31
0.0
  0
LINE
  5
20E
330
70
100
AcDbEntity
  8
0
 62
    18
420
        0
370
     0
100
AcDbLine
 10
76.58462474872263
 20
73.27712062188154
 30
0.0
 11
76.58462474872263
 21
73.00825553984331
 31
0.0
  0
LINE
  5
20F
330
70
100
AcDbEntity
  8
0
 62
    18
420
        0
370
     0
100
AcDbLine
 10
83.57511688171355
 20
60.21027763482818
 30
0.0
 11
83.57511688171355
 21
60.53291573327428
 31
0.0
  0
LINE
  5
210
330
70
100
AcDbEntity
  8
0
 62
    18
420
        0
370
     0
100
AcDbLine
 10
77.12235491279905
 20
60.53291573327428
 30
0.0
 11
77.12235491279905
 21
60.21027763482818
 31
0.0
  0
LINE
  5
211
330
70
100
AcDbEntity
  8
0
 62
    18
420
        0
370
     0
100
AcDbLine
 10
77.12235491279905
 20
60.21027763482818
 30
0.0
 11
77.49876602765242
 21
59.83386651997481
 31
0.0
  0
LINE
  5
212
330
70
100
AcDbEntity
  8
0
 62
    18
420
        0
370
     0
100
AcDbLine
 10
83.19870576686019
 20
59.83386651997481
 30
0.0
 11
83.57511688171355
 21
60.21027763482818
 31
0.0
  0
LINE
  5
213
330
70
100
AcDbEntity
  8
0
 62
    18
420
        0
370
     0
100
AcDbLine
 10
77.12235491279905
 20
114.6285702393421
 30
0.0
 11
77.12235491279905
 21
114.3059321408963
 31
0.0
  0
LINE
  5
214
330
70
100
AcDbEntity
  8
0
 62
    18
420
        0
370
     0
100
AcDbLine
 10
83.57511688171355
 20
114.3059321408963
 30
0.0
 11
83.57511688171355
 21
114.6285702393421
 31
0.0
  0
LINE
  5
215
330
70
100
AcDbEntity
  8
0
 62
    18
420
        0
370
     0
100
AcDbLine
 10
83.57511688171355
 20
114.6285702393421
 30
0.0
 11
83.19870576686019
 21
115.0049813541952
 31
0.0
  0
LINE
  5
216
330
70
100
AcDbEntity
  8
0
 62
    18
420
        0
370
     0
100
AcDbLine
 10
77.49876602765242
 20
115.0049813541952
 30
0.0
 11
77.12235491279905
 21
114.6285702393421
 31
0.0
  0
LINE
  5
217
330
70
100
AcDbEntity
  8
0
 62
    18
420
        0
370
     0
100
AcDbLine
 10
78.19781524095126
 20
101.9381383671431
 30
0.0
 11
78.19781524095126
 21
101.8305923343276
 31
0.0
  0
LINE
  5
218
330
70
100
AcDbEntity
  8
0
 62
    18
420
        0
370
     0
100
AcDbLine
 10
78.19781524095126
 20
73.00825553986962
 30
0.0
 11
78.19781524095126
 21
72.90070950702688
 31
0.0
  0
LINE
  5
219
330
70
100
AcDbEntity
  8
0
 62
    18
420
        0
370
     0
100
AcDbLine
 10
82.49965655356135
 20
72.90070950702688
 30
0.0
 11
82.49965655356135
 21
73.00825553986834
 31
0.0
  0
LINE
  5
21A
330
70
100
AcDbEntity
  8
0
 62
    18
420
        0
370
     0
100
AcDbLine
 10
82.49965655356135
 20
101.8305923343276
 30
0.0
 11
82.49965655356135
 21
101.9381383671431
 31
0.0
  0
LINE
  5
21B
330
70
100
AcDbEntity
  8
0
 62
    18
420
        0
370
     0
100
AcDbLine
 10
76.31575966668441
 20
72.90070950702688
 30
0.0
 11
76.31575966668441
 21
60.53291573327364
 31
0.0
  0
LINE
  5
21C
330
70
100
AcDbEntity
  8
0
 62
    18
420
        0
370
     0
100
AcDbLine
 10
76.31575966668441
 20
107.0465776198953
 30
0.0
 11
76.31575966668441
 21
101.9381383671431
 31
0.0
  0
LINE
  5
21D
330
70
100
AcDbEntity
  8
0
 62
    18
420
        0
370
     0
100
AcDbLine
 10
76.31575966668441
 20
114.3059321408963
 30
0.0
 11
76.31575966668441
 21
108.6597627240678
 31
0.0
  0
LINE
  5
21E
330
70
100
AcDbEntity
  8
0
 62
    18
420
        0
370
     0
100
AcDbLine
 10
84.24727958680845
 20
100.8626780389906
 30
0.0
 11
84.24727958680845
 21
101.5617272522897
 31
0.0
  0
LINE
  5
21F
330
70
100
AcDbEntity
  8
0
 62
    18
420
        0
370
     0
100
AcDbLine
 10
76.45019220770352
 20
101.5617272522897
 30
0.0
 11
76.45019220770352
 21
100.8626780389906
 31
0.0
  0
LINE
  5
220
330
70
100
AcDbEntity
  8
0
 62
    18
420
        0
370
     0
100
AcDbLine
 10
76.45019220770352
 20
73.97616983517908
 30
0.0
 11
76.45019220770352
 21
73.27712062188024
 31
0.0
  0
LINE
  5
221
330
70
100
AcDbEntity
  8
0
 62
    18
420
        0
370
     0
100
AcDbLine
 10
84.24727958680845
 20
73.27712062188024
 30
0.0
 11
84.24727958680845
 21
73.97616983517908
 31
0.0
  0
LINE
  5
222
330
70
100
AcDbEntity
  8
0
 62
    18
420
        0
370
     0
100
AcDbLine
 10
84.38171212782755
 20
73.97616983517908
 30
0.0
 11
84.38171212782755
 21
100.8626780389906
 31
0.0
  0
LINE
  5
223
330
70
100
AcDbEntity
  8
0
 62
    18
420
        0
370
     0
100
AcDbLine
 10
83.51703721323897
 20
101.8307113198509
 30
0.0
 11
83.47559886068294
 21
101.8658392772107
 31
0.0
  0
LINE
  5
224
330
70
100
AcDbEntity
  8
0
 62
    18
420
        0
370
     0
100
AcDbLine
 10
83.47559886068294
 20
101.8658392772107
 30
0.0
 11
83.41491777671089
 21
101.8942595034691
 31
0.0
  0
SPLINE
  5
225
330
70
100
AcDbEntity
  8
0
 62
    18
420
        0
370
     0
100
AcDbSpline
210
0.0
220
0.0
230
1.0
 70
     8
 71
     3
 72
     8
 73
     4
 74
     0
 42
0.0000000001
 43
0.0000000001
 40
0.0
 40
0.0
 40
0.0
 40
0.0
 40
1.0
 40
1.0
 40
1.0
 40
1.0
 10
83.41491777671089
 20
101.8942595034691
 30
0.0
 10
83.29143189035653
 20
101.9242187250444
 30
0.0
 10
83.16433009373199
 20
101.936566608645
 30
0.0
 10
83.03738671763778
 20
101.9309364796949
 30
0.0
  0
SPLINE
  5
226
330
70
100
AcDbEntity
  8
0
 62
    18
420
        0
370
     0
100
AcDbSpline
210
0.0
220
0.0
230
1.0
 70
     8
 71
     3
 72
     8
 73
     4
 74
     0
 42
0.0000000001
 43
0.0000000001
 40
0.0
 40
0.0
 40
0.0
 40
0.0
 40
1.0
 40
1.0
 40
1.0
 40
1.0
 10
83.03738671763714
 20
72.90791139447472
 30
0.0
 10
83.15413690312096
 20
72.90517752263283
 30
0.0
 10
83.27085596865655
 20
72.91455477221463
 30
0.0
 10
83.38567221191315
 20
72.93589277001544
 30
0.0
  0
LINE
  5
227
330
70
100
AcDbEntity
  8
0
 62
    18
420
        0
370
     0
100
AcDbLine
 10
83.38567221191315
 20
72.93589277001544
 30
0.0
 11
83.43746627047432
 21
72.95318199394555
 31
0.0
  0
LINE
  5
228
330
70
100
AcDbEntity
  8
0
 62
    18
420
        0
370
     0
100
AcDbLine
 10
83.43746627047432
 20
72.95318199394555
 30
0.0
 11
83.49287628330442
 21
72.98526507303147
 31
0.0
  0
LINE
  5
229
330
70
100
AcDbEntity
  8
0
 62
    18
420
        0
370
     0
100
AcDbLine
 10
83.49287628330442
 20
72.98526507303147
 30
0.0
 11
83.51703289839816
 21
73.00813165682777
 31
0.0
  0
CIRCLE
  5
22A
330
70
100
AcDbEntity
  8
0
  6
AI-Linetype-24
 62
     1
420
 16711680
370
    25
100
AcDbCircle
 10
62.33477540070264
 20
100.8626780389906
 30
0.0
 40
4.839571476686041
  0
CIRCLE
  5
22C
330
70
100
AcDbEntity
  8
0
  6
AI-Linetype-25
 62
     1
420
 16711680
370
    25
100
AcDbCircle
 10
62.33477540070264
 20
73.97616983517917
 30
0.0
 40
4.839571476686041
  0
LINE
  5
22E
330
70
100
AcDbEntity
  8
0
  6
AI-Linetype-26
 62
     1
420
 16711680
370
    25
100
AcDbLine
 10
56.312197563049
 20
100.8626780389906
 30
0.0
 11
68.35735323835644
 21
100.8626780389906
 31
0.0
  0
LINE
  5
230
330
70
100
AcDbEntity
  8
0
  6
AI-Linetype-27
 62
     1
420
 16711680
370
    25
100
AcDbLine
 10
62.33477540070256
 20
94.84010020133704
 30
0.0
 11
62.33477540070256
 21
106.8852558766445
 31
0.0
  0
LINE
  5
232
330
70
100
AcDbEntity
  8
0
  6
AI-Linetype-28
 62
     1
420
 16711680
370
    25
100
AcDbLine
 10
56.312197563049
 20
73.97616983517908
 30
0.0
 11
68.35735323835644
 21
73.97616983517908
 31
0.0
  0
LINE
  5
234
330
70
100
AcDbEntity
  8
0
  6
AI-Linetype-29
 62
     1
420
 16711680
370
    25
100
AcDbLine
 10
62.33477540070256
 20
67.95359199752585
 30
0.0
 11
62.33477540070256
 21
79.99874767283296
 31
0.0
  0
LINE
  5
236
330
70
100
AcDbEntity
  8
0
  6
AI-Linetype-30
 62
     1
420
 16711680
370
    25
100
AcDbLine
 10
118.7964426356502
 20
58.88184877082065
 30
0.0
 11
118.7964426285819
 21
116.0804416823477
 31
0.0
  0
LINE
  5
238
330
70
100
AcDbEntity
  8
0
  6
AI-Linetype-31
 62
     1
420
 16711680
370
    25
100
AcDbLine
 10
116.2873066565371
 20
107.8531701719815
 30
0.0
 11
121.3055786008756
 21
107.8531701719815
 31
0.0
  0
SPLINE
  5
23A
330
70
100
AcDbEntity
  8
0
 62
    18
420
        0
370
    25
100
AcDbSpline
210
0.0
220
0.0
230
1.0
 70
     8
 71
     3
 72
     8
 73
     4
 74
     0
 42
0.0000000001
 43
0.0000000001
 40
0.0
 40
0.0
 40
0.0
 40
0.0
 40
1.0
 40
1.0
 40
1.0
 40
1.0
 10
125.3950255559118
 20
31.13523528904441
 30
0.0
 10
125.5571610348025
 20
30.84038924253673
 30
0.0
 10
125.9796207975299
 20
30.58025109044703
 30
0.0
 10
126.5817390608861
 20
30.40449242195812
 30
0.0
  0
SPLINE
  5
23B
330
70
100
AcDbEntity
  8
0
 62
    18
420
        0
370
    25
100
AcDbSpline
210
0.0
220
0.0
230
1.0
 70
     8
 71
     3
 72
     8
 73
     4
 74
     0
 42
0.0000000001
 43
0.0000000001
 40
0.0
 40
0.0
 40
0.0
 40
0.0
 40
1.0
 40
1.0
 40
1.0
 40
1.0
 10
126.5817390608861
 20
30.40449242195812
 30
0.0
 10
126.7053617250577
 20
30.36840689495758
 30
0.0
 10
126.835498331036
 20
30.33619367915953
 30
0.0
 10
126.9710334183727
 20
30.30812888878976
 30
0.0
  0
SPLINE
  5
23C
330
70
100
AcDbEntity
  8
0
 62
    18
420
        0
370
    25
100
AcDbSpline
210
0.0
220
0.0
230
1.0
 70
     8
 71
     3
 72
     8
 73
     4
 74
     0
 42
0.0000000001
 43
0.0000000001
 40
0.0
 40
0.0
 40
0.0
 40
0.0
 40
1.0
 40
1.0
 40
1.0
 40
1.0
 10
126.9710334183727
 20
30.30812888878976
 30
0.0
 10
126.9825632296315
 20
30.30574144991803
 30
0.0
 10
126.9941305814419
 20
30.30338434818078
 30
0.0
 10
127.0057347542504
 20
30.30105773020303
 30
0.0
  0
SPLINE
  5
23D
330
70
100
AcDbEntity
  8
0
 62
    18
420
        0
370
    25
100
AcDbSpline
210
0.0
220
0.0
230
1.0
 70
     8
 71
     3
 72
     8
 73
     4
 74
     0
 42
0.0000000001
 43
0.0000000001
 40
0.0
 40
0.0
 40
0.0
 40
0.0
 40
1.0
 40
1.0
 40
1.0
 40
1.0
 10
127.0057347542504
 20
30.30105773020303
 30
0.0
 10
127.1408981244773
 20
30.27395769194263
 30
0.0
 10
127.2808503441205
 20
30.25103487814951
 30
0.0
 10
127.4244135696012
 20
30.23248220815767
 30
0.0
  0
SPLINE
  5
23E
330
70
100
AcDbEntity
  8
0
 62
    18
420
        0
370
    25
100
AcDbSpline
210
0.0
220
0.0
230
1.0
 70
     8
 71
     3
 72
     8
 73
     4
 74
     0
 42
0.0000000001
 43
0.0000000001
 40
0.0
 40
0.0
 40
0.0
 40
0.0
 40
1.0
 40
1.0
 40
1.0
 40
1.0
 10
127.4244135696012
 20
30.23248220815767
 30
0.0
 10
128.8045945939448
 20
30.05412146857948
 30
0.0
 10
130.3003355142015
 20
30.30194752928688
 30
0.0
 10
130.9856693688685
 20
30.8225389378699
 30
0.0
  0
SPLINE
  5
23F
330
70
100
AcDbEntity
  8
0
 62
    18
420
        0
370
    25
100
AcDbSpline
210
0.0
220
0.0
230
1.0
 70
     8
 71
     3
 72
    11
 73
     7
 74
     0
 42
0.0000000001
 43
0.0000000001
 40
0.0
 40
0.0
 40
0.0
 40
0.0
 40
1.0
 40
1.0
 40
1.0
 40
2.0
 40
2.0
 40
2.0
 40
2.0
 10
125.3549420320388
 20
10.37038471213094
 30
0.0
 10
125.6006471370575
 20
9.698882186993692
 30
0.0
 10
127.1332355792477
 20
9.235838093731789
 30
0.0
 10
128.7780741268487
 20
9.336146782806048
 30
0.0
 10
130.0876647924125
 20
9.416010744578041
 30
0.0
 10
131.1158033670442
 20
9.835746559039488
 30
0.0
 10
131.3114293252986
 20
10.37038470926703
 30
0.0
  0
LINE
  5
240
330
70
100
AcDbEntity
  8
0
 62
     9
420
 12632256
370
    25
100
AcDbLine
 10
125.6205685711799
 20
42.91462990626558
 30
0.0
 11
125.6975222480072
 21
42.97746232028506
 31
0.0
  0
SPLINE
  5
241
330
70
100
AcDbEntity
  8
0
 62
    18
420
        0
370
    25
100
AcDbSpline
210
0.0
220
0.0
230
1.0
 70
     8
 71
     3
 72
     8
 73
     4
 74
     0
 42
0.0000000001
 43
0.0000000001
 40
0.0
 40
0.0
 40
0.0
 40
0.0
 40
1.0
 40
1.0
 40
1.0
 40
1.0
 10
126.46705901628
 20
42.03497610999554
 30
0.0
 10
126.46705901628
 20
42.46874341071946
 30
0.0
 10
126.1225256695581
 20
42.89070886014053
 30
0.0
 10
125.6975222480072
 20
42.97746232028506
 30
0.0
  0
LINE
  5
242
330
70
100
AcDbEntity
  8
0
 62
     9
420
 12632256
370
    25
100
AcDbLine
 10
126.46705901628
 20
42.03497610999554
 30
0.0
 11
126.3901053394526
 21
41.97214369597607
 31
0.0
  0
SPLINE
  5
243
330
70
100
AcDbEntity
  8
0
 62
    18
420
        0
370
    25
100
AcDbSpline
210
0.0
220
0.0
230
1.0
 70
     8
 71
     3
 72
     8
 73
     4
 74
     0
 42
0.0000000001
 43
0.0000000001
 40
0.0
 40
0.0
 40
0.0
 40
0.0
 40
1.0
 40
1.0
 40
1.0
 40
1.0
 10
126.3901053394526
 20
41.97214369597607
 30
0.0
 10
126.3901053394526
 20
42.20170885865701
 30
0.0
 10
126.291697195519
 20
42.43987007805139
 30
0.0
 10
126.120767470557
 20
42.62397831779662
 30
0.0
  0
SPLINE
  5
244
330
70
100
AcDbEntity
  8
0
 62
    18
420
        0
370
    25
100
AcDbSpline
210
0.0
220
0.0
230
1.0
 70
     8
 71
     3
 72
     8
 73
     4
 74
     0
 42
0.0000000001
 43
0.0000000001
 40
0.0
 40
0.0
 40
0.0
 40
0.0
 40
1.0
 40
1.0
 40
1.0
 40
1.0
 10
126.1068859760874
 20
42.63864461724816
 30
0.0
 10
125.9695511418987
 20
42.78097470833706
 30
0.0
 10
125.7977748088427
 20
42.87845783447322
 30
0.0
 10
125.6205685711799
 20
42.91462990626558
 30
0.0
  0
SPLINE
  5
245
330
70
100
AcDbEntity
  8
0
 62
    18
420
        0
370
    25
100
AcDbSpline
210
0.0
220
0.0
230
1.0
 70
     8
 71
     3
 72
     8
 73
     4
 74
     0
 42
0.0000000001
 43
0.0000000001
 40
0.0
 40
0.0
 40
0.0
 40
0.0
 40
1.0
 40
1.0
 40
1.0
 40
1.0
 10
111.9323837206517
 20
45.70871893865669
 30
0.0
 10
111.7551774829889
 20
45.74489101044905
 30
0.0
 10
111.5834011499329
 20
45.71753527862559
 30
0.0
 10
111.4460663157442
 20
45.63127189881515
 30
0.0
  0
LINE
  5
246
330
70
100
AcDbEntity
  8
0
 62
    18
420
        0
370
    25
100
AcDbLine
 10
125.6205685711799
 20
42.91462990626558
 30
0.0
 11
111.9323837206517
 21
45.70871893865669
 31
0.0
  0
LINE
  5
247
330
70
100
AcDbEntity
  8
0
 62
    18
420
        0
370
    25
100
AcDbLine
 10
126.3901053394526
 20
41.76307310912059
 30
0.0
 11
126.3901053394526
 21
41.97214369597607
 31
0.0
  0
LINE
  5
248
330
70
100
AcDbEntity
  8
0
 62
    18
420
        0
370
    25
100
AcDbLine
 10
126.46705901628
 20
41.78605319139581
 30
0.0
 11
126.46705901628
 21
42.03497610999554
 31
0.0
  0
LINE
  5
249
330
70
100
AcDbEntity
  8
0
 62
     9
420
 12632256
370
    25
100
AcDbLine
 10
112.0093373974791
 20
45.77155135267552
 30
0.0
 11
111.9323837206517
 21
45.70871893865669
 31
0.0
  0
LINE
  5
24A
330
70
100
AcDbEntity
  8
0
 62
    18
420
        0
370
    25
100
AcDbLine
 10
125.6975222480072
 20
42.97746232028506
 30
0.0
 11
112.0093373974791
 21
45.77155135267552
 31
0.0
  0
SPLINE
  5
24B
330
70
100
AcDbEntity
  8
0
 62
    18
420
        0
370
    25
100
AcDbSpline
210
0.0
220
0.0
230
1.0
 70
     8
 71
     3
 72
     8
 73
     4
 74
     0
 42
0.0000000001
 43
0.0000000001
 40
0.0
 40
0.0
 40
0.0
 40
0.0
 40
1.0
 40
1.0
 40
1.0
 40
1.0
 10
112.0093373974791
 20
45.77155135267616
 30
0.0
 10
111.805243556995
 20
45.8132118334115
 30
0.0
 10
111.6095088688652
 20
45.77041820164849
 30
0.0
 10
111.4651927302608
 20
45.65258456790527
 30
0.0
  0
SPLINE
  5
24C
330
70
100
AcDbEntity
  8
0
 62
    18
420
        0
370
    25
100
AcDbSpline
210
0.0
220
0.0
230
1.0
 70
     8
 71
     3
 72
     8
 73
     4
 74
     0
 42
0.0000000001
 43
0.0000000001
 40
0.0
 40
0.0
 40
0.0
 40
0.0
 40
1.0
 40
1.0
 40
1.0
 40
1.0
 10
127.3135494588961
 20
0.098266775955921
 30
0.0
 10
128.2827057570443
 20
-0.0995614249998547
 30
0.0
 10
129.4590360440244
 20
0.0084052610644708
 30
0.0
 10
130.1275320362132
 20
0.3565414942714244
 30
0.0
  0
SPLINE
  5
24D
330
70
100
AcDbEntity
  8
0
 62
    18
420
        0
370
    25
100
AcDbSpline
210
0.0
220
0.0
230
1.0
 70
     8
 71
     3
 72
     8
 73
     4
 74
     0
 42
0.0000000001
 43
0.0000000001
 40
0.0
 40
0.0
 40
0.0
 40
0.0
 40
1.0
 40
1.0
 40
1.0
 40
1.0
 10
126.5806729799681
 20
0.3353987289461158
 30
0.0
 10
126.7822079473814
 20
0.2365312860970481
 30
0.0
 10
127.0317481521235
 20
0.1557892268259662
 30
0.0
 10
127.3135494588961
 20
0.098266775955921
 30
0.0
  0
SPLINE
  5
24E
330
70
100
AcDbEntity
  8
0
 62
    18
420
        0
370
    25
100
AcDbSpline
210
0.0
220
0.0
230
1.0
 70
     8
 71
     3
 72
     8
 73
     4
 74
     0
 42
0.0000000001
 43
0.0000000001
 40
0.0
 40
0.0
 40
0.0
 40
0.0
 40
1.0
 40
1.0
 40
1.0
 40
1.0
 10
130.3724581154929
 20
41.63834649617256
 30
0.0
 10
130.1518392092773
 20
41.818481078831
 30
0.0
 10
129.7940597099368
 20
41.96454394780778
 30
0.0
 10
129.3528218973484
 20
42.05461123914598
 30
0.0
  0
SPLINE
  5
24F
330
70
100
AcDbEntity
  8
0
 62
    18
420
        0
370
    25
100
AcDbSpline
210
0.0
220
0.0
230
1.0
 70
     8
 71
     3
 72
    14
 73
    10
 74
     0
 42
0.0000000001
 43
0.0000000001
 40
0.0
 40
0.0
 40
0.0
 40
0.0
 40
1.0
 40
1.0
 40
1.0
 40
2.0
 40
2.0
 40
2.0
 40
3.0
 40
3.0
 40
3.0
 40
3.0
 10
126.2939132433325
 20
41.63834649642796
 30
0.0
 10
125.730783709921
 20
41.17855315777876
 30
0.0
 10
126.1872903945026
 20
40.61944893743937
 30
0.0
 10
127.3135494616856
 20
40.38955226811412
 30
0.0
 10
128.4398085288686
 20
40.15965559878952
 30
0.0
 10
129.8093285820294
 20
40.3460236722362
 30
0.0
 10
130.3724581154403
 20
40.8058170108854
 30
0.0
 10
130.6933960615943
 20
41.06786174661022
 30
0.0
 10
130.6933960616135
 20
41.37630176040732
 30
0.0
 10
130.3724581154929
 20
41.63834649617256
 30
0.0
  0
SPLINE
  5
250
330
70
100
AcDbEntity
  8
0
 62
    18
420
        0
370
    25
100
AcDbSpline
210
0.0
220
0.0
230
1.0
 70
     8
 71
     3
 72
     8
 73
     4
 74
     0
 42
0.0000000001
 43
0.0000000001
 40
0.0
 40
0.0
 40
0.0
 40
0.0
 40
1.0
 40
1.0
 40
1.0
 40
1.0
 10
130.9142904669351
 20
40.94718994214639
 30
0.0
 10
130.9142904669453
 20
41.11077660734401
 30
0.0
 10
130.8209961976482
 20
41.27211668558297
 30
0.0
 10
130.641795984395
 20
41.41843304704249
 30
0.0
  0
SPLINE
  5
251
330
70
100
AcDbEntity
  8
0
 62
    18
420
        0
370
    25
100
AcDbSpline
210
0.0
220
0.0
230
1.0
 70
     8
 71
     3
 72
    11
 73
     7
 74
     0
 42
0.0000000001
 43
0.0000000001
 40
0.0
 40
0.0
 40
0.0
 40
0.0
 40
1.0
 40
1.0
 40
1.0
 40
2.0
 40
2.0
 40
2.0
 40
2.0
 10
129.3528218973484
 20
42.05461123914598
 30
0.0
 10
128.2265628302372
 20
42.28450790852962
 30
0.0
 10
126.857042777018
 20
42.09813983515481
 30
0.0
 10
126.2939132434627
 20
41.63834649653512
 30
0.0
 10
126.2939132433979
 20
41.63834649648186
 30
0.0
 10
126.2939132433979
 20
41.63834649648186
 30
0.0
 10
126.2939132433325
 20
41.63834649642796
 30
0.0
  0
SPLINE
  5
252
330
70
100
AcDbEntity
  8
0
 62
    18
420
        0
370
    25
100
AcDbSpline
210
0.0
220
0.0
230
1.0
 70
     8
 71
     3
 72
    11
 73
     7
 74
     0
 42
0.0000000001
 43
0.0000000001
 40
0.0
 40
0.0
 40
0.0
 40
0.0
 40
1.0
 40
1.0
 40
1.0
 40
2.0
 40
2.0
 40
2.0
 40
2.0
 10
125.7520808917883
 20
40.71156838988604
 30
0.0
 10
125.7520808917517
 20
40.12960848753361
 30
0.0
 10
126.9076808674002
 20
39.65783677305163
 30
0.0
 10
128.3331856792879
 20
39.65783677296179
 30
0.0
 10
129.7586904911762
 20
39.65783677287259
 30
0.0
 10
130.9142904668837
 20
40.12960848720956
 30
0.0
 10
130.9142904669203
 20
40.71156838956198
 30
0.0
  0
SPLINE
  5
253
330
70
100
AcDbEntity
  8
0
 62
    18
420
        0
370
    25
100
AcDbSpline
210
0.0
220
0.0
230
1.0
 70
     8
 71
     3
 72
     8
 73
     4
 74
     0
 42
0.0000000001
 43
0.0000000001
 40
0.0
 40
0.0
 40
0.0
 40
0.0
 40
1.0
 40
1.0
 40
1.0
 40
1.0
 10
126.0245753744021
 20
41.41843304733254
 30
0.0
 10
125.845375161131
 20
41.27211668589484
 30
0.0
 10
125.7520808918133
 20
41.11077660766742
 30
0.0
 10
125.7520808918031
 20
40.94718994247044
 30
0.0
  0
SPLINE
  5
254
330
70
100
AcDbEntity
  8
0
 62
    18
420
        0
370
    25
100
AcDbSpline
210
0.0
220
0.0
230
1.0
 70
     8
 71
     3
 72
    11
 73
     7
 74
     0
 42
0.0000000001
 43
0.0000000001
 40
0.0
 40
0.0
 40
0.0
 40
0.0
 40
1.0
 40
1.0
 40
1.0
 40
2.0
 40
2.0
 40
2.0
 40
2.0
 10
125.7520808918031
 20
40.94718994247044
 30
0.0
 10
125.7520808917665
 20
40.36523004011803
 30
0.0
 10
126.9076808674149
 20
39.89345832563604
 30
0.0
 10
128.3331856793033
 20
39.8934583255462
 30
0.0
 10
129.758690491191
 20
39.893458325457
 30
0.0
 10
130.9142904668985
 20
40.36523003979397
 30
0.0
 10
130.9142904669351
 20
40.94718994214639
 30
0.0
  0
LINE
  5
255
330
70
100
AcDbEntity
  8
0
 62
    18
420
        0
370
    25
100
AcDbLine
 10
129.7760671198538
 20
39.53346062685169
 30
0.0
 11
132.6272985920362
 21
40.29067102483931
 31
0.0
  0
SPLINE
  5
256
330
70
100
AcDbEntity
  8
0
 62
    18
420
        0
370
    25
100
AcDbSpline
210
0.0
220
0.0
230
1.0
 70
     8
 71
     3
 72
     8
 73
     4
 74
     0
 42
0.0000000001
 43
0.0000000001
 40
0.0
 40
0.0
 40
0.0
 40
0.0
 40
1.0
 40
1.0
 40
1.0
 40
1.0
 10
126.5806729945815
 20
41.81747929228978
 30
0.0
 10
125.6617008625331
 20
41.5747668045414
 30
0.0
 10
125.1068046948845
 20
41.15840279038457
 30
0.0
 10
125.1068046948845
 20
40.71156838971407
 30
0.0
  0
LINE
  5
257
330
70
100
AcDbEntity
  8
0
 62
    18
420
        0
370
    25
100
AcDbLine
 10
131.6999090405361
 20
41.49697356495521
 30
0.0
 11
130.0530622589038
 21
41.83313475658412
 31
0.0
  0
SPLINE
  5
258
330
70
100
AcDbEntity
  8
0
 62
    18
420
        0
370
    25
100
AcDbSpline
210
0.0
220
0.0
230
1.0
 70
     8
 71
     3
 72
     8
 73
     4
 74
     0
 42
0.0000000001
 43
0.0000000001
 40
0.0
 40
0.0
 40
0.0
 40
0.0
 40
1.0
 40
1.0
 40
1.0
 40
1.0
 10
131.6999090405361
 20
41.49697356495521
 30
0.0
 10
131.9124107513119
 20
41.45359683488296
 30
0.0
 10
132.1708107613533
 20
41.48876062233455
 30
0.0
 10
132.2770616167412
 20
41.57551408247908
 30
0.0
  0
LINE
  5
259
330
70
100
AcDbEntity
  8
0
 62
    18
420
        0
370
    25
100
AcDbLine
 10
135.2590165937988
 20
44.01027012572769
 30
0.0
 11
132.2770616167412
 21
41.57551408247908
 31
0.0
  0
LINE
  5
25A
330
70
100
AcDbEntity
  8
0
 62
    18
420
        0
370
    25
100
AcDbLine
 10
136.7980901303451
 20
43.69610805563097
 30
0.0
 11
135.2590165937988
 21
44.01027012572769
 31
0.0
  0
LINE
  5
25B
330
70
100
AcDbEntity
  8
0
 62
    18
420
        0
370
    25
100
AcDbLine
 10
132.6272985920362
 20
40.29067102483931
 30
0.0
 11
136.7980901303451
 21
43.69610805563097
 31
0.0
  0
SPLINE
  5
25C
330
70
100
AcDbEntity
  8
0
 62
    18
420
        0
370
    25
100
AcDbSpline
210
0.0
220
0.0
230
1.0
 70
     8
 71
     3
 72
    11
 73
     7
 74
     0
 42
0.0000000001
 43
0.0000000001
 40
0.0
 40
0.0
 40
0.0
 40
0.0
 40
1.0
 40
1.0
 40
1.0
 40
2.0
 40
2.0
 40
2.0
 40
2.0
 10
125.1068046948845
 20
40.71156838971407
 30
0.0
 10
125.1068046948845
 20
39.98411851158744
 30
0.0
 10
126.5513046644821
 20
39.39440386842399
 30
0.0
 10
128.3331856793418
 20
39.39440386842399
 30
0.0
 10
128.8340655027087
 20
39.39440386842399
 30
0.0
 10
129.3280665864113
 20
39.44201290089946
 30
0.0
 10
129.7760671198538
 20
39.53346062685169
 30
0.0
  0
LINE
  5
25D
330
70
100
AcDbEntity
  8
0
 62
    18
420
        0
370
    25
100
AcDbLine
 10
129.7760671198538
 20
30.50130111157646
 30
0.0
 11
129.7760671198538
 21
39.53346062685169
 31
0.0
  0
SPLINE
  5
25E
330
70
100
AcDbEntity
  8
0
 62
    18
420
        0
370
    25
100
AcDbSpline
210
0.0
220
0.0
230
1.0
 70
     8
 71
     3
 72
    11
 73
     7
 74
     0
 42
0.0000000001
 43
0.0000000001
 40
0.0
 40
0.0
 40
0.0
 40
0.0
 40
1.0
 40
1.0
 40
1.0
 40
2.0
 40
2.0
 40
2.0
 40
2.0
 10
125.1068046948845
 20
31.6794088744382
 30
0.0
 10
125.1068046948845
 20
30.95195899631157
 30
0.0
 10
126.5513046644821
 20
30.36224435314877
 30
0.0
 10
128.3331856793418
 20
30.36224435314877
 30
0.0
 10
128.8340655027087
 20
30.36224435314877
 30
0.0
 10
129.3280665864113
 20
30.40985338562424
 30
0.0
 10
129.7760671198538
 20
30.50130111157646
 30
0.0
  0
LINE
  5
25F
330
70
100
AcDbEntity
  8
0
 62
    18
420
        0
370
    25
100
AcDbLine
 10
132.6272985920362
 20
31.25851150956409
 30
0.0
 11
132.6272985920362
 21
40.29067102483931
 31
0.0
  0
LINE
  5
260
330
70
100
AcDbEntity
  8
0
 62
    18
420
        0
370
    25
100
AcDbLine
 10
132.6272985920362
 20
31.25851150956409
 30
0.0
 11
129.7760671198538
 21
30.50130111157646
 31
0.0
  0
SPLINE
  5
261
330
70
100
AcDbEntity
  8
0
 62
    18
420
        0
370
    25
100
AcDbSpline
210
0.0
220
0.0
230
1.0
 70
     8
 71
     3
 72
     8
 73
     4
 74
     0
 42
0.0000000001
 43
0.0000000001
 40
0.0
 40
0.0
 40
0.0
 40
0.0
 40
1.0
 40
1.0
 40
1.0
 40
1.0
 10
135.8746460084176
 20
23.30698970636583
 30
0.0
 10
135.8746460084176
 20
23.78297296227986
 30
0.0
 10
135.7428998508131
 20
24.11053362735723
 30
0.0
 10
135.5343344378058
 20
24.15310686401217
 30
0.0
  0
SPLINE
  5
262
330
70
100
AcDbEntity
  8
0
 62
    18
420
        0
370
    25
100
AcDbSpline
210
0.0
220
0.0
230
1.0
 70
     8
 71
     3
 72
     8
 73
     4
 74
     0
 42
0.0000000001
 43
0.0000000001
 40
0.0
 40
0.0
 40
0.0
 40
0.0
 40
1.0
 40
1.0
 40
1.0
 40
1.0
 10
135.8746460084176
 20
38.22968803595101
 30
0.0
 10
135.8746460084176
 20
38.70567129186568
 30
0.0
 10
135.7428998508131
 20
39.0332319569424
 30
0.0
 10
135.5343344378058
 20
39.07580519359734
 30
0.0
  0
SPLINE
  5
263
330
70
100
AcDbEntity
  8
0
 62
    18
420
        0
370
    25
100
AcDbSpline
210
0.0
220
0.0
230
1.0
 70
     8
 71
     3
 72
     8
 73
     4
 74
     0
 42
0.0000000001
 43
0.0000000001
 40
0.0
 40
0.0
 40
0.0
 40
0.0
 40
1.0
 40
1.0
 40
1.0
 40
1.0
 10
135.8746460084176
 20
8.384291376780007
 30
0.0
 10
135.8746460084176
 20
8.860274632694681
 30
0.0
 10
135.7428998508131
 20
9.187835297771401
 30
0.0
 10
135.5343344378058
 20
9.23040853442634
 30
0.0
  0
LINE
  5
264
330
70
100
AcDbEntity
  8
0
 62
    18
420
        0
370
    25
100
AcDbLine
 10
136.7980901303451
 20
4.425849293564168
 30
0.0
 11
136.7980901303451
 21
43.69610805563097
 31
0.0
  0
LINE
  5
265
330
70
100
AcDbEntity
  8
0
 62
    18
420
        0
370
    25
100
AcDbLine
 10
132.6272985920362
 20
1.020412262772515
 30
0.0
 11
136.7980901303451
 21
4.425849293564168
 31
0.0
  0
LINE
  5
266
330
70
100
AcDbEntity
  8
0
 62
    18
420
        0
370
    25
100
AcDbLine
 10
132.6272985920362
 20
1.020412262772515
 30
0.0
 11
132.6272985920362
 21
10.05257177804774
 31
0.0
  0
LINE
  5
267
330
70
100
AcDbEntity
  8
0
 62
    18
420
        0
370
    25
100
AcDbLine
 10
132.6272985920362
 20
10.05257177804774
 30
0.0
 11
133.5852741228054
 21
10.834755523533
 31
0.0
  0
SPLINE
  5
268
330
70
100
AcDbEntity
  8
0
 62
    18
420
        0
370
    25
100
AcDbSpline
210
0.0
220
0.0
230
1.0
 70
     8
 71
     3
 72
     8
 73
     4
 74
     0
 42
0.0000000001
 43
0.0000000001
 40
0.0
 40
0.0
 40
0.0
 40
0.0
 40
1.0
 40
1.0
 40
1.0
 40
1.0
 10
133.5852741228054
 20
10.834755523533
 30
0.0
 10
133.7446504058869
 20
10.96488571375044
 30
0.0
 10
133.8738504109073
 20
11.33410548199379
 30
0.0
 10
133.8738504109073
 20
11.65943095753641
 30
0.0
  0
LINE
  5
269
330
70
100
AcDbEntity
  8
0
 62
    18
420
        0
370
    25
100
AcDbLine
 10
133.8738504109073
 20
11.65943095753641
 30
0.0
 11
133.8738504109073
 21
31.68726292619103
 31
0.0
  0
SPLINE
  5
26A
330
70
100
AcDbEntity
  8
0
 62
    18
420
        0
370
    25
100
AcDbSpline
210
0.0
220
0.0
230
1.0
 70
     8
 71
     3
 72
     8
 73
     4
 74
     0
 42
0.0000000001
 43
0.0000000001
 40
0.0
 40
0.0
 40
0.0
 40
0.0
 40
1.0
 40
1.0
 40
1.0
 40
1.0
 10
133.7143293621832
 20
32.08388034383779
 30
0.0
 10
133.6742589763144
 20
32.09205967710229
 30
0.0
 10
133.6300741761497
 20
32.07727434543013
 30
0.0
 10
133.5852741228054
 20
32.04069525504936
 30
0.0
  0
LINE
  5
26B
330
70
100
AcDbEntity
  8
0
 62
    18
420
        0
370
    25
100
AcDbLine
 10
133.5852741228054
 20
32.04069525504936
 30
0.0
 11
132.6272985920362
 21
31.25851150956409
 31
0.0
  0
SPLINE
  5
26C
330
70
100
AcDbEntity
  8
0
 62
    18
420
        0
370
    25
100
AcDbSpline
210
0.0
220
0.0
230
1.0
 70
     8
 71
     3
 72
     8
 73
     4
 74
     0
 42
0.0000000001
 43
0.0000000001
 40
0.0
 40
0.0
 40
0.0
 40
0.0
 40
1.0
 40
1.0
 40
1.0
 40
1.0
 10
134.6597352412128
 20
36.95004414692119
 30
0.0
 10
134.9319371820983
 20
37.41546453340153
 30
0.0
 10
135.0802112612087
 20
38.14185620520123
 30
0.0
 10
135.0121922696372
 20
38.6767238987113
 30
0.0
  0
SPLINE
  5
26D
330
70
100
AcDbEntity
  8
0
 62
    18
420
        0
370
    25
100
AcDbSpline
210
0.0
220
0.0
230
1.0
 70
     8
 71
     3
 72
    11
 73
     7
 74
     0
 42
0.0000000001
 43
0.0000000001
 40
0.0
 40
0.0
 40
0.0
 40
0.0
 40
1.0
 40
1.0
 40
1.0
 40
2.0
 40
2.0
 40
2.0
 40
2.0
 10
134.9836987497918
 20
36.37825225399569
 30
0.0
 10
135.2878064429947
 20
36.31617653106256
 30
0.0
 10
135.6575984352114
 20
36.86972200944515
 30
0.0
 10
135.8096522818128
 20
37.61463068464666
 30
0.0
 10
135.8523940267406
 20
37.8240216162229
 30
0.0
 10
135.8746460084176
 20
38.03459955391921
 30
0.0
 10
135.8746460084176
 20
38.22968803595101
 30
0.0
  0
SPLINE
  5
26E
330
70
100
AcDbEntity
  8
0
 62
    18
420
        0
370
    25
100
AcDbSpline
210
0.0
220
0.0
230
1.0
 70
     8
 71
     3
 72
    11
 73
     7
 74
     0
 42
0.0000000001
 43
0.0000000001
 40
0.0
 40
0.0
 40
0.0
 40
0.0
 40
1.0
 40
1.0
 40
1.0
 40
2.0
 40
2.0
 40
2.0
 40
2.0
 10
135.5343344378058
 20
39.07580519359734
 30
0.0
 10
135.230226744603
 20
39.13788091653112
 30
0.0
 10
134.8604347523863
 20
38.58433543814852
 30
0.0
 10
134.7083809057848
 20
37.83942676294702
 30
0.0
 10
134.5563270591834
 20
37.09451808774551
 30
0.0
 10
134.679591056589
 20
36.44032797692947
 30
0.0
 10
134.9836987497918
 20
36.37825225399569
 30
0.0
  0
SPLINE
  5
26F
330
70
100
AcDbEntity
  8
0
 62
    18
420
        0
370
    25
100
AcDbSpline
210
0.0
220
0.0
230
1.0
 70
     8
 71
     3
 72
     8
 73
     4
 74
     0
 42
0.0000000001
 43
0.0000000001
 40
0.0
 40
0.0
 40
0.0
 40
0.0
 40
1.0
 40
1.0
 40
1.0
 40
1.0
 10
133.8738504109073
 20
31.68726292619103
 30
0.0
 10
133.8738504109073
 20
31.91038007740051
 30
0.0
 10
133.8120943995305
 20
32.06392413915547
 30
0.0
 10
133.7143293621832
 20
32.08388034383779
 30
0.0
  0
LINE
  5
270
330
70
100
AcDbEntity
  8
0
 62
     9
420
 12632256
370
    25
100
AcDbLine
 10
133.8738504109073
 20
31.68726292619103
 30
0.0
 11
133.2966978347029
 21
31.80507370247715
 31
0.0
  0
LINE
  5
271
330
70
100
AcDbEntity
  8
0
 62
     9
420
 12632256
370
    25
100
AcDbLine
 10
132.3347768743617
 20
11.97359302763313
 30
0.0
 11
133.8738504109073
 21
11.65943095753641
 31
0.0
  0
LINE
  5
272
330
70
100
AcDbEntity
  8
0
 62
    18
420
        0
370
    25
100
AcDbLine
 10
132.3347768743617
 20
31.18082560842904
 30
0.0
 11
132.3347768743617
 21
11.97359302763313
 31
0.0
  0
LINE
  5
273
330
70
100
AcDbEntity
  8
0
 62
    18
420
        0
370
    25
100
AcDbLine
 10
129.7760671198538
 20
9.295361380060107
 30
0.0
 11
132.6272985920362
 21
10.05257177804774
 31
0.0
  0
SPLINE
  5
274
330
70
100
AcDbEntity
  8
0
 62
    18
420
        0
370
    25
100
AcDbSpline
210
0.0
220
0.0
230
1.0
 70
     8
 71
     3
 72
     8
 73
     4
 74
     0
 42
0.0000000001
 43
0.0000000001
 40
0.0
 40
0.0
 40
0.0
 40
0.0
 40
1.0
 40
1.0
 40
1.0
 40
1.0
 10
125.214350727554
 20
10.81071356476271
 30
0.0
 10
125.1429546271507
 20
10.70066842690434
 30
0.0
 10
125.1068046948845
 20
10.58730894070127
 30
0.0
 10
125.1068046948845
 20
10.47346914292248
 30
0.0
  0
LINE
  5
275
330
70
100
AcDbEntity
  8
0
 62
     9
420
 12632256
370
    25
100
AcDbLine
 10
133.5852741228054
 20
10.834755523533
 30
0.0
 11
131.5594621532296
 21
11.2482726602234
 31
0.0
  0
SPLINE
  5
276
330
70
100
AcDbEntity
  8
0
 62
    18
420
        0
370
    25
100
AcDbSpline
210
0.0
220
0.0
230
1.0
 70
     8
 71
     3
 72
    11
 73
     7
 74
     0
 42
0.0000000001
 43
0.0000000001
 40
0.0
 40
0.0
 40
0.0
 40
0.0
 40
1.0
 40
1.0
 40
1.0
 40
2.0
 40
2.0
 40
2.0
 40
2.0
 10
125.1068046948845
 20
1.441309627646619
 30
0.0
 10
125.1068046948845
 20
0.7138597495199956
 30
0.0
 10
126.5513046644821
 20
0.124145106357191
 30
0.0
 10
128.3331856793418
 20
0.124145106357191
 30
0.0
 10
128.8340655027087
 20
0.124145106357191
 30
0.0
 10
129.3280665864113
 20
0.1717541388326579
 30
0.0
 10
129.7760671198538
 20
0.2632018647848846
 30
0.0
  0
SPLINE
  5
277
330
70
100
AcDbEntity
  8
0
 62
    18
420
        0
370
    25
100
AcDbSpline
210
0.0
220
0.0
230
1.0
 70
     8
 71
     3
 72
    11
 73
     7
 74
     0
 42
0.0000000001
 43
0.0000000001
 40
0.0
 40
0.0
 40
0.0
 40
0.0
 40
1.0
 40
1.0
 40
1.0
 40
2.0
 40
2.0
 40
2.0
 40
2.0
 10
125.1068046948845
 20
10.47346914292248
 30
0.0
 10
125.1068046948845
 20
9.74601926479586
 30
0.0
 10
126.5513046644821
 20
9.156304621632415
 30
0.0
 10
128.3331856793418
 20
9.156304621632415
 30
0.0
 10
128.8340655027087
 20
9.156304621632415
 30
0.0
 10
129.3280665864113
 20
9.20391365410788
 30
0.0
 10
129.7760671198538
 20
9.295361380060107
 30
0.0
  0
LINE
  5
278
330
70
100
AcDbEntity
  8
0
 62
    18
420
        0
370
    25
100
AcDbLine
 10
129.7760671198538
 20
0.2632018647848846
 30
0.0
 11
129.7760671198538
 21
9.295361380060107
 31
0.0
  0
LINE
  5
279
330
70
100
AcDbEntity
  8
0
 62
    18
420
        0
370
    25
100
AcDbLine
 10
129.7760671198538
 20
0.2632018647848846
 30
0.0
 11
132.6272985920362
 21
1.020412262772515
 31
0.0
  0
SPLINE
  5
27A
330
70
100
AcDbEntity
  8
0
 62
    18
420
        0
370
    25
100
AcDbSpline
210
0.0
220
0.0
230
1.0
 70
     8
 71
     3
 72
     8
 73
     4
 74
     0
 42
0.0000000001
 43
0.0000000001
 40
0.0
 40
0.0
 40
0.0
 40
0.0
 40
1.0
 40
1.0
 40
1.0
 40
1.0
 10
134.6597352412391
 20
22.02734581738093
 30
0.0
 10
134.9319371821003
 20
22.49276620385037
 30
0.0
 10
135.0802112611972
 20
23.21915787558846
 30
0.0
 10
135.0121922696436
 20
23.7540255690767
 30
0.0
  0
SPLINE
  5
27B
330
70
100
AcDbEntity
  8
0
 62
    18
420
        0
370
    25
100
AcDbSpline
210
0.0
220
0.0
230
1.0
 70
     8
 71
     3
 72
    11
 73
     7
 74
     0
 42
0.0000000001
 43
0.0000000001
 40
0.0
 40
0.0
 40
0.0
 40
0.0
 40
1.0
 40
1.0
 40
1.0
 40
2.0
 40
2.0
 40
2.0
 40
2.0
 10
134.9836987497918
 20
21.45555392441051
 30
0.0
 10
135.2878064429947
 20
21.39347820147673
 30
0.0
 10
135.6575984352114
 20
21.94702367985933
 30
0.0
 10
135.8096522818128
 20
22.69193235506148
 30
0.0
 10
135.8523940267406
 20
22.90132328663707
 30
0.0
 10
135.8746460084176
 20
23.11190122433403
 30
0.0
 10
135.8746460084176
 20
23.30698970636583
 30
0.0
  0
SPLINE
  5
27C
330
70
100
AcDbEntity
  8
0
 62
    18
420
        0
370
    25
100
AcDbSpline
210
0.0
220
0.0
230
1.0
 70
     8
 71
     3
 72
    11
 73
     7
 74
     0
 42
0.0000000001
 43
0.0000000001
 40
0.0
 40
0.0
 40
0.0
 40
0.0
 40
1.0
 40
1.0
 40
1.0
 40
2.0
 40
2.0
 40
2.0
 40
2.0
 10
135.5343344378058
 20
24.15310686401217
 30
0.0
 10
135.230226744603
 20
24.2151825869453
 30
0.0
 10
134.8604347523863
 20
23.6616371085627
 30
0.0
 10
134.7083809057848
 20
22.91672843336119
 30
0.0
 10
134.5563270591834
 20
22.17181975815968
 30
0.0
 10
134.679591056589
 20
21.51762964734365
 30
0.0
 10
134.9836987497918
 20
21.45555392441051
 30
0.0
  0
LINE
  5
27D
330
70
100
AcDbEntity
  8
0
 62
    18
420
        0
370
    25
100
AcDbLine
 10
131.5595666637991
 20
11.29278110080397
 30
0.0
 11
131.6999090405361
 21
11.26413383311251
 31
0.0
  0
SPLINE
  5
27E
330
70
100
AcDbEntity
  8
0
 62
    18
420
        0
370
    25
100
AcDbSpline
210
0.0
220
0.0
230
1.0
 70
     8
 71
     3
 72
    32
 73
    28
 74
     0
 42
0.0000000001
 43
0.0000000001
 40
0.0
 40
0.0
 40
0.0
 40
0.0
 40
1.0
 40
1.0
 40
1.0
 40
2.0
 40
2.0
 40
2.0
 40
3.0
 40
3.0
 40
3.0
 40
4.0
 40
4.0
 40
4.0
 40
5.0
 40
5.0
 40
5.0
 40
6.0
 40
6.0
 40
6.0
 40
7.0
 40
7.0
 40
7.0
 40
8.0
 40
8.0
 40
8.0
 40
9.0
 40
9.0
 40
9.0
 40
9.0
 10
131.6999090405361
 20
11.26413383311251
 30
0.0
 10
131.785119234218
 20
11.24651716764247
 30
0.0
 10
131.8729636191992
 20
11.24584398954267
 30
0.0
 10
131.9584337931457
 20
11.26215267971499
 30
0.0
 10
131.9584337931457
 20
11.26215267971499
 30
0.0
 10
132.0244883764799
 20
11.28064602498164
 30
0.0
 10
132.0244883764799
 20
11.28064602498164
 30
0.0
 10
132.0244883764799
 20
11.28064602498164
 30
0.0
 10
132.08644555969
 20
11.30905183256456
 30
0.0
 10
132.08644555969
 20
11.30905183256456
 30
0.0
 10
132.08644555969
 20
11.30905183256456
 30
0.0
 10
132.1386708415592
 20
11.34491864157854
 30
0.0
 10
132.1386708415592
 20
11.34491864157854
 30
0.0
 10
132.1386708415592
 20
11.34491864157854
 30
0.0
 10
132.1834656885258
 20
11.38885229007986
 30
0.0
 10
132.1834656885258
 20
11.38885229007986
 30
0.0
 10
132.1834656885258
 20
11.38885229007986
 30
0.0
 10
132.2179103814089
 20
11.43572043660425
 30
0.0
 10
132.2179103814089
 20
11.43572043660425
 30
0.0
 10
132.2179103814089
 20
11.43572043660425
 30
0.0
 10
132.2481173275383
 20
11.49241396905035
 30
0.0
 10
132.2481173275383
 20
11.49241396905035
 30
0.0
 10
132.2481173275383
 20
11.49241396905035
 30
0.0
 10
132.2708895095304
 20
11.55245842919544
 30
0.0
 10
132.2708895095304
 20
11.55245842919544
 30
0.0
 10
132.2708895095304
 20
11.55245842919544
 30
0.0
 10
132.2770616167412
 20
11.57303638826036
 30
0.0
 10
132.2770616167412
 20
11.57303638826036
 30
0.0
  0
SPLINE
  5
27F
330
70
100
AcDbEntity
  8
0
 62
    18
420
        0
370
    25
100
AcDbSpline
210
0.0
220
0.0
230
1.0
 70
     8
 71
     3
 72
     8
 73
     4
 74
     0
 42
0.0000000001
 43
0.0000000001
 40
0.0
 40
0.0
 40
0.0
 40
0.0
 40
1.0
 40
1.0
 40
1.0
 40
1.0
 10
132.2770616167412
 20
11.57303638826036
 30
0.0
 10
132.3145252045917
 20
11.7055882509473
 30
0.0
 10
132.3347768743617
 20
11.84613931351117
 30
0.0
 10
132.3347768743617
 20
11.97359302763313
 30
0.0
  0
SPLINE
  5
280
330
70
100
AcDbEntity
  8
0
 62
    18
420
        0
370
    25
100
AcDbSpline
210
0.0
220
0.0
230
1.0
 70
     8
 71
     3
 72
     8
 73
     4
 74
     0
 42
0.0000000001
 43
0.0000000001
 40
0.0
 40
0.0
 40
0.0
 40
0.0
 40
1.0
 40
1.0
 40
1.0
 40
1.0
 10
134.6597352404594
 20
7.104647486462298
 30
0.0
 10
134.9319371820605
 20
7.570067873281459
 30
0.0
 10
135.0802112615373
 20
8.296459546834277
 30
0.0
 10
135.0121922694569
 20
8.831327240957163
 30
0.0
  0
SPLINE
  5
281
330
70
100
AcDbEntity
  8
0
 62
    18
420
        0
370
    25
100
AcDbSpline
210
0.0
220
0.0
230
1.0
 70
     8
 71
     3
 72
    11
 73
     7
 74
     0
 42
0.0000000001
 43
0.0000000001
 40
0.0
 40
0.0
 40
0.0
 40
0.0
 40
1.0
 40
1.0
 40
1.0
 40
2.0
 40
2.0
 40
2.0
 40
2.0
 10
134.9836987497918
 20
6.532855594824686
 30
0.0
 10
135.2878064429947
 20
6.470779871891548
 30
0.0
 10
135.6575984352114
 20
7.024325350274149
 30
0.0
 10
135.8096522818128
 20
7.769234025475658
 30
0.0
 10
135.8523940267406
 20
7.97862495705189
 30
0.0
 10
135.8746460084176
 20
8.189202894748206
 30
0.0
 10
135.8746460084176
 20
8.384291376780007
 30
0.0
  0
SPLINE
  5
282
330
70
100
AcDbEntity
  8
0
 62
    18
420
        0
370
    25
100
AcDbSpline
210
0.0
220
0.0
230
1.0
 70
     8
 71
     3
 72
    11
 73
     7
 74
     0
 42
0.0000000001
 43
0.0000000001
 40
0.0
 40
0.0
 40
0.0
 40
0.0
 40
1.0
 40
1.0
 40
1.0
 40
2.0
 40
2.0
 40
2.0
 40
2.0
 10
135.5343344378058
 20
9.23040853442634
 30
0.0
 10
135.230226744603
 20
9.292484257360118
 30
0.0
 10
134.8604347523863
 20
8.738938778977518
 30
0.0
 10
134.7083809057848
 20
7.99403010377601
 30
0.0
 10
134.5563270591834
 20
7.249121428574501
 30
0.0
 10
134.679591056589
 20
6.594931317758467
 30
0.0
 10
134.9836987497918
 20
6.532855594824686
 30
0.0
  0
SPLINE
  5
283
330
70
100
AcDbEntity
  8
0
 62
    18
420
        0
370
    25
100
AcDbSpline
210
0.0
220
0.0
230
1.0
 70
     8
 71
     3
 72
    11
 73
     7
 74
     0
 42
0.0000000001
 43
0.0000000001
 40
0.0
 40
0.0
 40
0.0
 40
0.0
 40
1.0
 40
1.0
 40
1.0
 40
2.0
 40
2.0
 40
2.0
 40
2.0
 10
126.9384002867153
 20
29.75516619480751
 30
0.0
 10
128.4790376898387
 20
29.44068490178264
 30
0.0
 10
130.3524377626384
 20
29.69562236088965
 30
0.0
 10
131.1227564642001
 20
30.32458494703949
 30
0.0
 10
131.3392900553699
 20
30.50138388391396
 30
0.0
 10
131.4520206308588
 20
30.69633647859314
 30
0.0
 10
131.4520206308523
 20
30.89400369918742
 30
0.0
  0
SPLINE
  5
284
330
70
100
AcDbEntity
  8
0
 62
    18
420
        0
370
    25
100
AcDbSpline
210
0.0
220
0.0
230
1.0
 70
     8
 71
     3
 72
     8
 73
     4
 74
     0
 42
0.0000000001
 43
0.0000000001
 40
0.0
 40
0.0
 40
0.0
 40
0.0
 40
1.0
 40
1.0
 40
1.0
 40
1.0
 10
127.3919574228363
 20
30.19062382031059
 30
0.0
 10
128.888728236896
 20
29.99719618679995
 30
0.0
 10
130.5043689066663
 20
30.2881312861895
 30
0.0
 10
131.1636768946928
 20
30.86981294939391
 30
0.0
  0
SPLINE
  5
285
330
70
100
AcDbEntity
  8
0
 62
    18
420
        0
370
    25
100
AcDbSpline
210
0.0
220
0.0
230
1.0
 70
     8
 71
     3
 72
     8
 73
     4
 74
     0
 42
0.0000000001
 43
0.0000000001
 40
0.0
 40
0.0
 40
0.0
 40
0.0
 40
1.0
 40
1.0
 40
1.0
 40
1.0
 10
126.9384002866992
 20
30.26567955870137
 30
0.0
 10
127.0845369995633
 20
30.23584952710121
 30
0.0
 10
127.2361894861586
 20
30.21075370464962
 30
0.0
 10
127.3919574228363
 20
30.19062382031059
 30
0.0
  0
SPLINE
  5
286
330
70
100
AcDbEntity
  8
0
 62
    18
420
        0
370
    25
100
AcDbSpline
210
0.0
220
0.0
230
1.0
 70
     8
 71
     3
 72
     8
 73
     4
 74
     0
 42
0.0000000001
 43
0.0000000001
 40
0.0
 40
0.0
 40
0.0
 40
0.0
 40
1.0
 40
1.0
 40
1.0
 40
1.0
 10
125.2143507275681
 20
30.8940036989917
 30
0.0
 10
125.2143507275835
 20
30.41172875245302
 30
0.0
 10
125.8817888182948
 20
29.97084610764146
 30
0.0
 10
126.9384002867153
 20
29.75516619480751
 30
0.0
  0
SPLINE
  5
287
330
70
100
AcDbEntity
  8
0
 62
    18
420
        0
370
    25
100
AcDbSpline
210
0.0
220
0.0
230
1.0
 70
     8
 71
     3
 72
     8
 73
     4
 74
     0
 42
0.0000000001
 43
0.0000000001
 40
0.0
 40
0.0
 40
0.0
 40
0.0
 40
1.0
 40
1.0
 40
1.0
 40
1.0
 10
126.5514723044091
 20
30.35947887325408
 30
0.0
 10
126.6747476416942
 20
30.32444964028333
 30
0.0
 10
126.8040601459905
 20
30.29310162509396
 30
0.0
 10
126.9384002866992
 20
30.26567955870137
 30
0.0
  0
SPLINE
  5
288
330
70
100
AcDbEntity
  8
0
 62
    18
420
        0
370
    25
100
AcDbSpline
210
0.0
220
0.0
230
1.0
 70
     8
 71
     3
 72
     8
 73
     4
 74
     0
 42
0.0000000001
 43
0.0000000001
 40
0.0
 40
0.0
 40
0.0
 40
0.0
 40
1.0
 40
1.0
 40
1.0
 40
1.0
 10
125.2189902562129
 20
31.33509285594064
 30
0.0
 10
125.2713736523334
 20
30.94346160890699
 30
0.0
 10
125.7629483608577
 20
30.58354144351303
 30
0.0
 10
126.5514723044091
 20
30.35947887325408
 30
0.0
  0
SPLINE
  5
289
330
70
100
AcDbEntity
  8
0
 62
    18
420
        0
370
    25
100
AcDbSpline
210
0.0
220
0.0
230
1.0
 70
     8
 71
     3
 72
    11
 73
     7
 74
     0
 42
0.0000000001
 43
0.0000000001
 40
0.0
 40
0.0
 40
0.0
 40
0.0
 40
1.0
 40
1.0
 40
1.0
 40
2.0
 40
2.0
 40
2.0
 40
2.0
 10
125.2143507275521
 20
10.74836095423385
 30
0.0
 10
125.2143507275303
 20
10.04515940546827
 30
0.0
 10
126.6107006981235
 20
9.47510191710614
 30
0.0
 10
128.3331856791544
 20
9.475101917052237
 30
0.0
 10
130.055670660186
 20
9.475101916998335
 30
0.0
 10
131.4520206308145
 20
10.04515940527255
 30
0.0
 10
131.4520206308363
 20
10.74836095403877
 30
0.0
  0
SPLINE
  5
28A
330
70
100
AcDbEntity
  8
0
 62
    18
420
        0
370
    25
100
AcDbSpline
210
0.0
220
0.0
230
1.0
 70
     8
 71
     3
 72
     8
 73
     4
 74
     0
 42
0.0000000001
 43
0.0000000001
 40
0.0
 40
0.0
 40
0.0
 40
0.0
 40
1.0
 40
1.0
 40
1.0
 40
1.0
 10
127.4866952347986
 20
42.37662736168022
 30
0.0
 10
127.486695234816
 20
42.91883648759892
 30
0.0
 10
127.0560285514271
 20
43.44629329938633
 30
0.0
 10
126.5247742744883
 20
43.55473512456763
 30
0.0
  0
LINE
  5
28B
330
70
100
AcDbEntity
  8
0
 62
    18
420
        0
370
    25
100
AcDbLine
 10
124.7125151852051
 20
43.92466096210627
 30
0.0
 11
126.5247742744883
 21
43.55473512456763
 31
0.0
  0
SPLINE
  5
28C
330
70
100
AcDbEntity
  8
0
 62
    18
420
        0
370
    25
100
AcDbSpline
210
0.0
220
0.0
230
1.0
 70
     8
 71
     3
 72
     8
 73
     4
 74
     0
 42
0.0000000001
 43
0.0000000001
 40
0.0
 40
0.0
 40
0.0
 40
0.0
 40
1.0
 40
1.0
 40
1.0
 40
1.0
 10
124.7125151852051
 20
43.92466096210627
 30
0.0
 10
124.4540627286065
 20
43.97741734889216
 30
0.0
 10
124.2064829356014
 20
43.92180540198852
 30
0.0
 10
124.0255662159769
 20
43.77035689254275
 30
0.0
  0
LINE
  5
28D
330
70
100
AcDbEntity
  8
0
 62
    18
420
        0
370
    25
100
AcDbLine
 10
124.0255662159769
 20
43.77035689254275
 30
0.0
 11
112.9752930306478
 21
46.02598446107761
 31
0.0
  0
SPLINE
  5
28E
330
70
100
AcDbEntity
  8
0
 62
    18
420
        0
370
    25
100
AcDbSpline
210
0.0
220
0.0
230
1.0
 70
     8
 71
     3
 72
     8
 73
     4
 74
     0
 42
0.0000000001
 43
0.0000000001
 40
0.0
 40
0.0
 40
0.0
 40
0.0
 40
1.0
 40
1.0
 40
1.0
 40
1.0
 10
112.9752930306478
 20
46.02598446107761
 30
0.0
 10
112.7943763110348
 20
46.25129191202414
 30
0.0
 10
112.5467965180361
 20
46.40797788617414
 30
0.0
 10
112.2883440614375
 20
46.46073427296004
 30
0.0
  0
LINE
  5
28F
330
70
100
AcDbEntity
  8
0
 62
    18
420
        0
370
    25
100
AcDbLine
 10
110.476084972155
 20
46.83066011049932
 30
0.0
 11
112.2883440614375
 21
46.46073427296004
 31
0.0
  0
SPLINE
  5
290
330
70
100
AcDbEntity
  8
0
 62
    18
420
        0
370
    25
100
AcDbSpline
210
0.0
220
0.0
230
1.0
 70
     8
 71
     3
 72
     8
 73
     4
 74
     0
 42
0.0000000001
 43
0.0000000001
 40
0.0
 40
0.0
 40
0.0
 40
0.0
 40
1.0
 40
1.0
 40
1.0
 40
1.0
 10
109.7959041381659
 20
46.6819516295633
 30
0.0
 10
109.6155089648785
 20
46.53465958738171
 30
0.0
 10
109.5141640117914
 20
46.30563293985978
 30
0.0
 10
109.514164011783
 20
46.0452549352325
 30
0.0
  0
LINE
  5
291
330
70
100
AcDbEntity
  8
0
 62
    18
420
        0
370
    25
100
AcDbLine
 10
109.5141640117824
 20
46.02561980528315
 30
0.0
 11
109.514164011783
 21
46.0452549352325
 31
0.0
  0
LINE
  5
292
330
70
100
AcDbEntity
  8
0
 62
    18
420
        0
370
    25
100
AcDbLine
 10
127.4866952347986
 20
42.37662736168022
 30
0.0
 11
127.4866952347897
 21
42.0863486887209
 31
0.0
  0
LINE
  5
293
330
70
100
AcDbEntity
  8
0
 62
    18
420
        0
370
    25
100
AcDbLine
 10
108.9216207002124
 20
46.14657220227039
 30
0.0
 11
108.9216207002643
 21
47.83519332965035
 31
0.0
  0
LINE
  5
294
330
70
100
AcDbEntity
  8
0
 62
    18
420
        0
370
    25
100
AcDbLine
 10
108.9216207002643
 20
47.83519332965035
 30
0.0
 11
128.1600399070892
 21
43.90816745344328
 31
0.0
  0
LINE
  5
295
330
70
100
AcDbEntity
  8
0
 62
    18
420
        0
370
    25
100
AcDbLine
 10
128.1600399070892
 20
43.90816745344328
 30
0.0
 11
128.1600399070347
 21
42.15019010076853
 31
0.0
  0
LINE
  5
296
330
70
100
AcDbEntity
  8
0
 62
    18
420
        0
370
    25
100
AcDbLine
 10
129.3143450594987
 20
44.85065366358393
 30
0.0
 11
128.1600399070892
 21
43.90816745344328
 31
0.0
  0
LINE
  5
297
330
70
100
AcDbEntity
  8
0
 62
    18
420
        0
370
    25
100
AcDbLine
 10
129.3143450594987
 20
44.85065366358393
 30
0.0
 11
129.3143450594127
 21
42.06228176488434
 31
0.0
  0
LINE
  5
298
330
70
100
AcDbEntity
  8
0
 62
    18
420
        0
370
    25
100
AcDbLine
 10
110.0759258526738
 20
48.77767953979034
 30
0.0
 11
108.9216207002643
 21
47.83519332965035
 31
0.0
  0
LINE
  5
299
330
70
100
AcDbEntity
  8
0
 62
    18
420
        0
370
    25
100
AcDbLine
 10
110.0759258526738
 20
48.77767953979034
 30
0.0
 11
129.3143450594987
 21
44.85065366358393
 31
0.0
  0
LINE
  5
29A
330
70
100
AcDbEntity
  8
0
 62
    18
420
        0
370
    25
100
AcDbLine
 10
110.3798928760624
 20
45.84890364085976
 30
0.0
 11
110.37989287609
 21
46.75211959283813
 31
0.0
  0
SPLINE
  5
29B
330
70
100
AcDbEntity
  8
0
 62
    18
420
        0
370
    25
100
AcDbSpline
210
0.0
220
0.0
230
1.0
 70
     8
 71
     3
 72
     8
 73
     4
 74
     0
 42
0.0000000001
 43
0.0000000001
 40
0.0
 40
0.0
 40
0.0
 40
0.0
 40
1.0
 40
1.0
 40
1.0
 40
1.0
 10
110.384283462624
 20
46.84491789156163
 30
0.0
 10
110.3813580768749
 20
46.81437276377864
 30
0.0
 10
110.3798928760913
 20
46.78340465986719
 30
0.0
 10
110.37989287609
 20
46.75211959283813
 30
0.0
  0
SPLINE
  5
29C
330
70
100
AcDbEntity
  8
0
 62
    18
420
        0
370
    25
100
AcDbSpline
210
0.0
220
0.0
230
1.0
 70
     8
 71
     3
 72
     8
 73
     4
 74
     0
 42
0.0000000001
 43
0.0000000001
 40
0.0
 40
0.0
 40
0.0
 40
0.0
 40
1.0
 40
1.0
 40
1.0
 40
1.0
 10
110.476084972155
 20
46.83066011049867
 30
0.0
 10
110.2209676715712
 20
46.88273571141464
 30
0.0
 10
109.9762993114237
 20
46.82924367172114
 30
0.0
 10
109.7959041381659
 20
46.6819516295633
 30
0.0
  0
LINE
  5
29D
330
70
100
AcDbEntity
  8
0
 62
     9
420
 12632256
370
    25
100
AcDbLine
 10
109.514164011783
 20
46.0452549352325
 30
0.0
 11
110.37989287609
 21
46.75211959283813
 31
0.0
  0
LINE
  5
29E
330
70
100
AcDbEntity
  8
0
 62
    18
420
        0
370
    25
100
AcDbLine
 10
126.8518274004161
 20
41.92964420476916
 30
0.0
 11
126.8518274004161
 21
43.13454335532636
 31
0.0
  0
LINE
  5
29F
330
70
100
AcDbEntity
  8
0
 62
    18
420
        0
370
    25
100
AcDbLine
 10
126.8518274004161
 20
43.13454335532636
 30
0.0
 11
126.8999234484332
 21
43.17381361408862
 31
0.0
  0
LINE
  5
2A0
330
70
100
AcDbEntity
  8
0
 62
    18
420
        0
370
    25
100
AcDbLine
 10
126.8999234484332
 20
41.94596589047963
 30
0.0
 11
126.8999234484332
 21
43.17381361408862
 31
0.0
  0
LINE
  5
2A1
330
70
100
AcDbEntity
  8
0
 62
    18
420
        0
370
    25
100
AcDbLine
 10
110.8550322450689
 20
46.3998754928619
 30
0.0
 11
126.8518274004161
 21
43.13454335532636
 31
0.0
  0
LINE
  5
2A2
330
70
100
AcDbEntity
  8
0
 62
    18
420
        0
370
    25
100
AcDbLine
 10
110.8014607564178
 20
46.7642430566569
 30
0.0
 11
110.8550322450689
 21
46.3998754928619
 31
0.0
  0
LINE
  5
2A3
330
70
100
AcDbEntity
  8
0
 62
    18
420
        0
370
    25
100
AcDbLine
 10
126.8999234484332
 20
43.17381361408862
 30
0.0
 11
126.6050865081963
 21
43.53491364454024
 31
0.0
  0
LINE
  5
2A4
330
70
100
AcDbEntity
  8
0
 62
    18
420
        0
370
    25
100
AcDbLine
 10
110.8550322450689
 20
45.75191622329472
 30
0.0
 11
110.8550322450689
 21
46.3998754928619
 31
0.0
  0
LINE
  5
2A5
330
70
100
AcDbEntity
  8
0
 62
    18
420
        0
370
    25
100
AcDbLine
 10
110.7300321050966
 20
45.77743177002061
 30
0.0
 11
110.7300321050966
 21
46.77882336905317
 31
0.0
  0
SPLINE
  5
2A6
330
70
100
AcDbEntity
  8
0
 62
    18
420
        0
370
    25
100
AcDbSpline
210
0.0
220
0.0
230
1.0
 70
     8
 71
     3
 72
     8
 73
     4
 74
     0
 42
0.0000000001
 43
0.0000000001
 40
0.0
 40
0.0
 40
0.0
 40
0.0
 40
1.0
 40
1.0
 40
1.0
 40
1.0
 10
125.2143507275579
 20
31.23124812104305
 30
0.0
 10
125.1429546271514
 20
31.12120298318275
 30
0.0
 10
125.1068046948845
 20
31.0078434969784
 30
0.0
 10
125.1068046948845
 20
30.89400369919705
 30
0.0
  0
SPLINE
  5
2A7
330
70
100
AcDbEntity
  8
0
 62
    18
420
        0
370
    25
100
AcDbSpline
210
0.0
220
0.0
230
1.0
 70
     8
 71
     3
 72
    11
 73
     7
 74
     0
 42
0.0000000001
 43
0.0000000001
 40
0.0
 40
0.0
 40
0.0
 40
0.0
 40
1.0
 40
1.0
 40
1.0
 40
2.0
 40
2.0
 40
2.0
 40
2.0
 10
125.1068046948845
 20
30.89400369919705
 30
0.0
 10
125.1068046948845
 20
30.16655382107042
 30
0.0
 10
126.5513046644821
 20
29.57683917790697
 30
0.0
 10
128.3331856793418
 20
29.57683917790697
 30
0.0
 10
130.1150666942021
 20
29.57683917790697
 30
0.0
 10
131.5595666637991
 20
30.16655382107042
 30
0.0
 10
131.5595666637991
 20
30.89400369919705
 30
0.0
  0
SPLINE
  5
2A8
330
70
100
AcDbEntity
  8
0
 62
    18
420
        0
370
    25
100
AcDbSpline
210
0.0
220
0.0
230
1.0
 70
     8
 71
     3
 72
    11
 73
     7
 74
     0
 42
0.0000000001
 43
0.0000000001
 40
0.0
 40
0.0
 40
0.0
 40
0.0
 40
1.0
 40
1.0
 40
1.0
 40
2.0
 40
2.0
 40
2.0
 40
2.0
 10
125.1068046948845
 20
11.25887431816364
 30
0.0
 10
125.1068046948845
 20
10.53142444003702
 30
0.0
 10
126.5513046644821
 20
9.941709796873571
 30
0.0
 10
128.3331856793418
 20
9.941709796873571
 30
0.0
 10
130.1150666942021
 20
9.941709796873571
 30
0.0
 10
131.5595666637991
 20
10.53142444003702
 30
0.0
 10
131.5595666637991
 20
11.25887431816364
 30
0.0
  0
SPLINE
  5
2A9
330
70
100
AcDbEntity
  8
0
 62
    18
420
        0
370
    25
100
AcDbSpline
210
0.0
220
0.0
230
1.0
 70
     8
 71
     3
 72
     8
 73
     4
 74
     0
 42
0.0000000001
 43
0.0000000001
 40
0.0
 40
0.0
 40
0.0
 40
0.0
 40
1.0
 40
1.0
 40
1.0
 40
1.0
 10
131.5595666637991
 20
30.89400369919705
 30
0.0
 10
131.5595666637991
 20
30.92048480229488
 30
0.0
 10
131.5576105280871
 20
30.94695988327311
 30
0.0
 10
131.5537009239353
 20
30.97339284225367
 30
0.0
  0
LINE
  5
2AA
330
70
100
AcDbEntity
  8
0
 62
    18
420
        0
370
    25
100
AcDbLine
 10
125.1068046948845
 20
31.84711290055735
 30
0.0
 11
124.9664623181474
 21
31.87576016824881
 31
0.0
  0
LINE
  5
2AB
330
70
100
AcDbEntity
  8
0
 62
    18
420
        0
370
    25
100
AcDbLine
 10
124.9664623181474
 20
31.87576016824881
 30
0.0
 11
125.1068046948845
 21
31.990349239014
 31
0.0
  0
LINE
  5
2AC
330
70
100
AcDbEntity
  8
0
 62
    18
420
        0
370
    25
100
AcDbLine
 10
106.1128114954593
 20
6.27155145538095
 30
0.0
 11
106.1128114954593
 21
45.54181021744839
 31
0.0
  0
LINE
  5
2AD
330
70
100
AcDbEntity
  8
0
 62
    18
420
        0
370
    25
100
AcDbLine
 10
106.1128114954593
 20
45.54181021744839
 30
0.0
 11
124.9664623181474
 21
41.69332485876583
 31
0.0
  0
LINE
  5
2AE
330
70
100
AcDbEntity
  8
0
 62
    18
420
        0
370
    25
100
AcDbLine
 10
124.9664623181474
 20
31.87576016824881
 30
0.0
 11
124.9664623181474
 21
41.69332485876583
 31
0.0
  0
LINE
  5
2AF
330
70
100
AcDbEntity
  8
0
 62
    18
420
        0
370
    25
100
AcDbLine
 10
124.9664623181474
 20
12.2406307872154
 30
0.0
 11
125.1068046948845
 21
12.21198351952395
 31
0.0
  0
LINE
  5
2B0
330
70
100
AcDbEntity
  8
0
 62
    18
420
        0
370
    25
100
AcDbLine
 10
124.9664623181474
 20
2.423066096698385
 30
0.0
 11
124.9664623181474
 21
12.2406307872154
 31
0.0
  0
LINE
  5
2B1
330
70
100
AcDbEntity
  8
0
 62
    18
420
        0
370
    25
100
AcDbLine
 10
106.1128114954593
 20
6.27155145538095
 30
0.0
 11
124.9664623181474
 21
2.423066096698385
 31
0.0
  0
LINE
  5
2B2
330
70
100
AcDbEntity
  8
0
 62
    18
420
        0
370
    25
100
AcDbLine
 10
126.120767470557
 20
42.63581106905534
 30
0.0
 11
124.9664623181474
 21
41.69332485876583
 31
0.0
  0
LINE
  5
2B3
330
70
100
AcDbEntity
  8
0
 62
    18
420
        0
370
    25
100
AcDbLine
 10
126.120767470557
 20
42.63581106905534
 30
0.0
 11
126.120767470557
 21
41.67027758496064
 31
0.0
  0
LINE
  5
2B4
330
70
100
AcDbEntity
  8
0
 62
    18
420
        0
370
    25
100
AcDbLine
 10
107.2671166478688
 20
46.4842964277379
 30
0.0
 11
106.1128114954593
 21
45.54181021744839
 31
0.0
  0
LINE
  5
2B5
330
70
100
AcDbEntity
  8
0
 62
    18
420
        0
370
    25
100
AcDbLine
 10
126.120767470557
 20
42.63581106905534
 30
0.0
 11
107.2671166478688
 21
46.4842964277379
 31
0.0
  0
LINE
  5
2B6
330
70
100
AcDbEntity
  8
0
 62
    18
420
        0
370
    25
100
AcDbLine
 10
125.1068046948845
 20
2.537655167463576
 30
0.0
 11
124.9664623181474
 21
2.423066096698385
 31
0.0
  0
LINE
  5
2B7
330
70
100
AcDbEntity
  8
0
 62
    18
420
        0
370
    25
100
AcDbLine
 10
111.4651927302608
 20
45.65258456790527
 30
0.0
 11
111.4404853816265
 21
45.63241110222175
 31
0.0
  0
LINE
  5
2B8
330
70
100
AcDbEntity
  8
0
 62
    18
420
        0
370
    25
100
AcDbLine
 10
130.641795984395
 20
41.41843304704313
 30
0.0
 11
130.3724581154929
 21
41.63834649617256
 31
0.0
  0
LINE
  5
2B9
330
70
100
AcDbEntity
  8
0
 62
    18
420
        0
370
    25
100
AcDbLine
 10
126.2939132433325
 20
41.63834649642796
 30
0.0
 11
126.0245753744021
 21
41.41843304733254
 31
0.0
  0
LINE
  5
2BA
330
70
100
AcDbEntity
  8
0
 62
    18
420
        0
370
    25
100
AcDbLine
 10
125.7520808918031
 20
40.94718994247044
 30
0.0
 11
125.7520808917883
 21
40.71156838988604
 31
0.0
  0
LINE
  5
2BB
330
70
100
AcDbEntity
  8
0
 62
    18
420
        0
370
    25
100
AcDbLine
 10
130.9142904669203
 20
40.71156838956198
 30
0.0
 11
130.9142904669351
 21
40.94718994214639
 31
0.0
  0
LINE
  5
2BC
330
70
100
AcDbEntity
  8
0
 62
    18
420
        0
370
    25
100
AcDbLine
 10
125.1068046948845
 20
40.71156838971407
 30
0.0
 11
125.1068046948845
 21
31.6794088744382
 31
0.0
  0
LINE
  5
2BD
330
70
100
AcDbEntity
  8
0
 62
    18
420
        0
370
    25
100
AcDbLine
 10
125.1068046948845
 20
10.47346914292248
 30
0.0
 11
125.1068046948845
 21
1.441309627646619
 31
0.0
  0
LINE
  5
2BE
330
70
100
AcDbEntity
  8
0
 62
    18
420
        0
370
    25
100
AcDbLine
 10
131.4520206308523
 20
30.89400369918742
 30
0.0
 11
131.4520206308511
 21
30.9463892910005
 31
0.0
  0
LINE
  5
2BF
330
70
100
AcDbEntity
  8
0
 62
    18
420
        0
370
    25
100
AcDbLine
 10
125.214350727554
 20
31.34216445259797
 30
0.0
 11
125.2143507275681
 21
30.8940036989917
 31
0.0
  0
LINE
  5
2C0
330
70
100
AcDbEntity
  8
0
 62
    18
420
        0
370
    25
100
AcDbLine
 10
125.2143507275579
 20
10.92162989631763
 30
0.0
 11
125.2143507275521
 21
10.74836095423385
 31
0.0
  0
LINE
  5
2C1
330
70
100
AcDbEntity
  8
0
 62
    18
420
        0
370
    25
100
AcDbLine
 10
131.4520206308363
 20
10.74836095403877
 30
0.0
 11
131.4520206308421
 21
10.92162989587935
 31
0.0
  0
LINE
  5
2C2
330
70
100
AcDbEntity
  8
0
 62
    18
420
        0
370
    25
100
AcDbLine
 10
125.1068046948845
 20
30.89400369919705
 30
0.0
 11
125.1068046948845
 21
11.25887431816364
 31
0.0
  0
LINE
  5
2C3
330
70
100
AcDbEntity
  8
0
 62
    18
420
        0
370
    25
100
AcDbLine
 10
131.5595666637991
 20
11.25887431816364
 30
0.0
 11
131.5595666637991
 21
30.89400369919705
 31
0.0
  0
ENDSEC
  0
SECTION
  2
OBJECTS
  0
DICTIONARY
  5
C
330
0
100
AcDbDictionary
281
     1
  3
ACAD_COLOR
350
63
  3
ACAD_DETAILVIEWSTYLE
350
6A
  3
ACAD_GROUP
350
D
  3
ACAD_LAYOUT
350
62
  3
ACAD_MATERIAL
350
10
  3
ACAD_MLEADERSTYLE
350
66
  3
ACAD_MLINESTYLE
350
5F
  3
ACAD_PLOTSETTINGS
350
61
  3
ACAD_PLOTSTYLENAME
350
E
  3
ACAD_SCALELIST
350
42
  3
ACAD_SECTIONVIEWSTYLE
350
68
  3
ACAD_TABLESTYLE
350
64
  3
ACAD_VISUALSTYLE
350
29
  3
ACDB_RECOMPOSE_DATA
350
2CC
  3
AcDbVariableDictionary
350
2C4
  0
DICTIONARY
  5
63
102
{ACAD_REACTORS
330
C
102
}
330
C
100
AcDbDictionary
281
     1
  0
DICTIONARY
  5
6A
102
{ACAD_REACTORS
330
C
102
}
330
C
100
AcDbDictionary
281
     1
  3
Imperial24
350
6B
  0
DICTIONARY
  5
D
102
{ACAD_REACTORS
330
C
102
}
330
C
100
AcDbDictionary
281
     1
  0
DICTIONARY
  5
62
102
{ACAD_REACTORS
330
C
102
}
330
C
100
AcDbDictionary
281
     1
  3
Layout1
350
6F
  3
Layout2
350
77
  3
Model
350
73
  0
DICTIONARY
  5
10
102
{ACAD_REACTORS
330
C
102
}
330
C
100
AcDbDictionary
281
     1
  3
ByBlock
350
19
  3
ByLayer
350
11
  3
Global
350
21
  0
DICTIONARY
  5
66
102
{ACAD_REACTORS
330
C
102
}
330
C
100
AcDbDictionary
281
     1
  3
Standard
350
67
  0
DICTIONARY
  5
5F
102
{ACAD_REACTORS
330
C
102
}
330
C
100
AcDbDictionary
281
     1
  3
Standard
350
60
  0
DICTIONARY
  5
61
102
{ACAD_REACTORS
330
C
102
}
330
C
100
AcDbDictionary
281
     1
  0
ACDBDICTIONARYWDFLT
  5
E
102
{ACAD_REACTORS
330
C
102
}
330
C
100
AcDbDictionary
281
     1
  3
Normal
350
F
100
AcDbDictionaryWithDefault
340
F
  0
DICTIONARY
  5
42
102
{ACAD_REACTORS
330
C
102
}
330
C
100
AcDbDictionary
281
     1
  3
A0
350
43
  3
A1
350
44
  3
A2
350
45
  3
A3
350
46
  3
A4
350
47
  3
A5
350
48
  3
A6
350
49
  3
A7
350
4A
  3
A8
350
4B
  3
A9
350
4C
  3
B0
350
4D
  3
B1
350
4E
  3
B2
350
4F
  3
B3
350
50
  3
B4
350
51
  3
B5
350
52
  3
B6
350
53
  0
DICTIONARY
  5
68
102
{ACAD_REACTORS
330
C
102
}
330
C
100
AcDbDictionary
281
     1
  3
Imperial24
350
69
  0
DICTIONARY
  5
64
102
{ACAD_REACTORS
330
C
102
}
330
C
100
AcDbDictionary
281
     1
  3
Standard
350
65
  0
DICTIONARY
  5
29
102
{ACAD_REACTORS
330
C
102
}
330
C
100
AcDbDictionary
281
     1
  3
2dWireframe
350
2F
  3
Basic
350
2E
  3
Brighten
350
35
  3
ColorChange
350
39
  3
Conceptual
350
32
  3
Dim
350
34
  3
EdgeColorOff
350
41
  3
Facepattern
350
38
  3
Flat
350
2A
  3
FlatWithEdges
350
2B
  3
Gouraud
350
2C
  3
GouraudWithEdges
350
2D
  3
Hidden
350
31
  3
JitterOff
350
3F
  3
Linepattern
350
37
  3
OverhangOff
350
40
  3
Realistic
350
33
  3
Shaded
350
3E
  3
Shaded with edges
350
3D
  3
Shades of Gray
350
3A
  3
Sketchy
350
3B
  3
Thicken
350
36
  3
Wireframe
350
30
  3
X-Ray
350
3C
  0
XRECORD
  5
2CC
102
{ACAD_REACTORS
330
C
102
}
330
C
100
AcDbXrecord
280
     1
 90
        1
330
65
  0
DICTIONARY
  5
2C4
102
{ACAD_REACTORS
330
C
102
}
330
C
100
AcDbDictionary
281
     1
  3
CANNOSCALE
350
2C9
  3
CMLEADERSTYLE
350
2C6
  3
CTABLESTYLE
350
2C5
  3
CVIEWDETAILSTYLE
350
2C7
  3
CVIEWSECTIONSTYLE
350
2C8
  0
ACDBDETAILVIEWSTYLE
  5
6B
102
{ACAD_REACTORS
330
6A
102
}
330
6A
100
AcDbModelDocViewStyle
 70
     0
  3
Imperial24
290
     1
300
Imperial24
 90
        0
100
AcDbDetailViewStyle
 70
     0
 71
     0
 90
        3
 71
     1
340
55
 62
   256
 40
0.24
340
0
 62
   256
 40
0.24
300

 40
0.36
280
     3
 71
     2
340
5D
 90
       25
 62
   256
 71
     3
340
55
 62
   256
 40
0.24
 90
        1
 40
0.75
 90
        1
300
%<\AcVar ViewType \f "%tc1">% %<\AcVar ViewDetailId>%\PSCALE %<\AcVar ViewScale \f "%sn">%
 71
     4
340
5D
 90
       25
 62
   256
340
5D
 90
       25
 62
   256
280
     0
  0
LAYOUT
  5
6F
102
{ACAD_REACTORS
330
62
102
}
330
62
100
AcDbPlotSettings
  1

  2

  4

  6

 40
0.0
 41
0.0
 42
0.0
 43
0.0
 44
0.0
 45
0.0
 46
0.0
 47
0.0
 48
0.0
 49
0.0
140
0.0
141
0.0
142
1.0
143
1.0
 70
   688
 72
     0
 73
     0
 74
     5
  7

 75
    16
147
1.0
 76
     0
 77
     2
 78
   300
148
0.0
149
0.0
100
AcDbLayout
  1
Layout1
 70
     1
 71
     1
 10
0.0
 20
0.0
 11
12.0
 21
9.0
 12
0.0
 22
0.0
 32
0.0
 14
0.0
 24
0.0
 34
0.0
 15
0.0
 25
0.0
 35
0.0
146
0.0
 13
0.0
 23
0.0
 33
0.0
 16
1.0
 26
0.0
 36
0.0
 17
0.0
 27
1.0
 37
0.0
 76
     0
330
6C
  0
LAYOUT
  5
77
102
{ACAD_REACTORS
330
62
102
}
330
62
100
AcDbPlotSettings
  1

  2

  4

  6

 40
0.0
 41
0.0
 42
0.0
 43
0.0
 44
0.0
 45
0.0
 46
0.0
 47
0.0
 48
0.0
 49
0.0
140
0.0
141
0.0
142
1.0
143
1.0
 70
   688
 72
     0
 73
     0
 74
     5
  7

 75
    16
147
1.0
 76
     0
 77
     2
 78
   300
148
0.0
149
0.0
100
AcDbLayout
  1
Layout2
 70
     1
 71
     2
 10
0.0
 20
0.0
 11
12.0
 21
9.0
 12
0.0
 22
0.0
 32
0.0
 14
0.0
 24
0.0
 34
0.0
 15
0.0
 25
0.0
 35
0.0
146
0.0
 13
0.0
 23
0.0
 33
0.0
 16
1.0
 26
0.0
 36
0.0
 17
0.0
 27
1.0
 37
0.0
 76
     0
330
74
  0
LAYOUT
  5
73
102
{ACAD_REACTORS
330
62
102
}
330
62
100
AcDbPlotSettings
  1

  2

  4

  6

 40
0.0
 41
0.0
 42
0.0
 43
0.0
 44
0.0
 45
0.0
 46
0.0
 47
0.0
 48
0.0
 49
0.0
140
0.0
141
0.0
142
1.0
143
1.0
 70
  1712
 72
     0
 73
     0
 74
     0
  7

 75
     0
147
1.0
 76
     0
 77
     2
 78
   300
148
0.0
149
0.0
100
AcDbLayout
  1
Model
 70
     1
 71
     0
 10
0.0
 20
0.0
 11
12.0
 21
9.0
 12
0.0
 22
0.0
 32
0.0
 14
0.0
 24
0.0
 34
0.0
 15
0.0
 25
0.0
 35
0.0
146
0.0
 13
0.0
 23
0.0
 33
0.0
 16
1.0
 26
0.0
 36
0.0
 17
0.0
 27
1.0
 37
0.0
 76
     0
330
70
  0
MATERIAL
  5
19
102
{ACAD_XDICTIONARY
360
1A
102
}
102
{ACAD_REACTORS
330
10
102
}
330
10
100
AcDbMaterial
  1
ByBlock
 72
     0
 43
0.0208333333333333
 43
0.0
 43
0.0
 43
0.0
 43
0.0
 43
0.0208333333333333
 43
0.0
 43
0.0
 43
0.0
 43
0.0
 43
1.0
 43
0.0
 43
0.0
 43
0.0
 43
0.0
 43
1.0
 77
     0
 47
0.0208333333333333
 47
0.0
 47
0.0
 47
0.0
 47
0.0
 47
0.0208333333333333
 47
0.0
 47
0.0
 47
0.0
 47
0.0
 47
1.0
 47
0.0
 47
0.0
 47
0.0
 47
0.0
 47
1.0
171
     0
 49
0.0208333333333333
 49
0.0
 49
0.0
 49
0.0
 49
0.0
 49
0.0208333333333333
 49
0.0
 49
0.0
 49
0.0
 49
0.0
 49
1.0
 49
0.0
 49
0.0
 49
0.0
 49
0.0
 49
1.0
175
     0
142
0.0208333333333333
142
0.0
142
0.0
142
0.0
142
0.0
142
0.0208333333333333
142
0.0
142
0.0
142
0.0
142
0.0
142
1.0
142
0.0
142
0.0
142
0.0
142
0.0
142
1.0
179
     0
144
0.0208333333333333
144
0.0
144
0.0
144
0.0
144
0.0
144
0.0208333333333333
144
0.0
144
0.0
144
0.0
144
0.0
144
1.0
144
0.0
144
0.0
144
0.0
144
0.0
144
1.0
147
0.0208333333333333
147
0.0
147
0.0
147
0.0
147
0.0
147
0.0208333333333333
147
0.0
147
0.0
147
0.0
147
0.0
147
1.0
147
0.0
147
0.0
147
0.0
147
0.0
147
1.0
  0
MATERIAL
  5
11
102
{ACAD_XDICTIONARY
360
12
102
}
102
{ACAD_REACTORS
330
10
102
}
330
10
100
AcDbMaterial
  1
ByLayer
 72
     0
 43
0.0208333333333333
 43
0.0
 43
0.0
 43
0.0
 43
0.0
 43
0.0208333333333333
 43
0.0
 43
0.0
 43
0.0
 43
0.0
 43
1.0
 43
0.0
 43
0.0
 43
0.0
 43
0.0
 43
1.0
 77
     0
 47
0.0208333333333333
 47
0.0
 47
0.0
 47
0.0
 47
0.0
 47
0.0208333333333333
 47
0.0
 47
0.0
 47
0.0
 47
0.0
 47
1.0
 47
0.0
 47
0.0
 47
0.0
 47
0.0
 47
1.0
171
     0
 49
0.0208333333333333
 49
0.0
 49
0.0
 49
0.0
 49
0.0
 49
0.0208333333333333
 49
0.0
 49
0.0
 49
0.0
 49
0.0
 49
1.0
 49
0.0
 49
0.0
 49
0.0
 49
0.0
 49
1.0
175
     0
142
0.0208333333333333
142
0.0
142
0.0
142
0.0
142
0.0
142
0.0208333333333333
142
0.0
142
0.0
142
0.0
142
0.0
142
1.0
142
0.0
142
0.0
142
0.0
142
0.0
142
1.0
179
     0
144
0.0208333333333333
144
0.0
144
0.0
144
0.0
144
0.0
144
0.0208333333333333
144
0.0
144
0.0
144
0.0
144
0.0
144
1.0
144
0.0
144
0.0
144
0.0
144
0.0
144
1.0
147
0.0208333333333333
147
0.0
147
0.0
147
0.0
147
0.0
147
0.0208333333333333
147
0.0
147
0.0
147
0.0
147
0.0
147
1.0
147
0.0
147
0.0
147
0.0
147
0.0
147
1.0
  0
MATERIAL
  5
21
102
{ACAD_XDICTIONARY
360
22
102
}
102
{ACAD_REACTORS
330
10
102
}
330
10
100
AcDbMaterial
  1
Global
 72
     0
 43
0.0208333333333333
 43
0.0
 43
0.0
 43
0.0
 43
0.0
 43
0.0208333333333333
 43
0.0
 43
0.0
 43
0.0
 43
0.0
 43
1.0
 43
0.0
 43
0.0
 43
0.0
 43
0.0
 43
1.0
 77
     0
 47
0.0208333333333333
 47
0.0
 47
0.0
 47
0.0
 47
0.0
 47
0.0208333333333333
 47
0.0
 47
0.0
 47
0.0
 47
0.0
 47
1.0
 47
0.0
 47
0.0
 47
0.0
 47
0.0
 47
1.0
171
     0
 49
0.0208333333333333
 49
0.0
 49
0.0
 49
0.0
 49
0.0
 49
0.0208333333333333
 49
0.0
 49
0.0
 49
0.0
 49
0.0
 49
1.0
 49
0.0
 49
0.0
 49
0.0
 49
0.0
 49
1.0
175
     0
142
0.0208333333333333
142
0.0
142
0.0
142
0.0
142
0.0
142
0.0208333333333333
142
0.0
142
0.0
142
0.0
142
0.0
142
1.0
142
0.0
142
0.0
142
0.0
142
0.0
142
1.0
179
     0
144
0.0208333333333333
144
0.0
144
0.0
144
0.0
144
0.0
144
0.0208333333333333
144
0.0
144
0.0
144
0.0
144
0.0
144
1.0
144
0.0
144
0.0
144
0.0
144
0.0
144
1.0
147
0.0208333333333333
147
0.0
147
0.0
147
0.0
147
0.0
147
0.0208333333333333
147
0.0
147
0.0
147
0.0
147
0.0
147
1.0
147
0.0
147
0.0
147
0.0
147
0.0
147
1.0
  0
MLEADERSTYLE
  5
67
102
{ACAD_REACTORS
330
66
102
}
330
66
100
AcDbMLeaderStyle
179
     2
170
     2
171
     1
172
     0
 90
        2
 40
0.0
 41
0.0
173
     1
 91
-1056964608
340
5B
 92
       -2
290
     1
 42
0.09
291
     1
 43
0.36
  3
Standard
 44
0.18
300

342
55
174
     1
178
     6
175
     1
176
     0
 93
-1056964608
 45
0.18
292
     0
297
     0
 46
0.18
 94
-1056964608
 47
1.0
 49
1.0
140
1.0
293
     1
141
0.0
294
     1
177
     0
142
1.0
295
     1
296
     0
143
0.125
271
     0
272
     9
273
     9
298
     1
  0
MLINESTYLE
  5
60
102
{ACAD_REACTORS
330
5F
102
}
330
5F
100
AcDbMlineStyle
  2
STANDARD
 70
     0
  3

 62
   256
 51
90.0
 52
90.0
 71
     2
 49
0.5
 62
   256
  6
BYLAYER
 49
-0.5
 62
   256
  6
BYLAYER
  0
ACDBPLACEHOLDER
  5
F
102
{ACAD_REACTORS
330
E
102
}
330
E
  0
SCALE
  5
43
102
{ACAD_REACTORS
330
42
102
}
330
42
100
AcDbScale
 70
     0
300
1:1
140
1.0
141
1.0
290
     1
  0
SCALE
  5
44
102
{ACAD_REACTORS
330
42
102
}
330
42
100
AcDbScale
 70
     0
300
1/128" = 1'-0"
140
0.0078125
141
12.0
290
     0
  0
SCALE
  5
45
102
{ACAD_REACTORS
330
42
102
}
330
42
100
AcDbScale
 70
     0
300
1/64" = 1'-0"
140
0.015625
141
12.0
290
     0
  0
SCALE
  5
46
102
{ACAD_REACTORS
330
42
102
}
330
42
100
AcDbScale
 70
     0
300
1/32" = 1'-0"
140
0.03125
141
12.0
290
     0
  0
SCALE
  5
47
102
{ACAD_REACTORS
330
42
102
}
330
42
100
AcDbScale
 70
     0
300
1/16" = 1'-0"
140
0.0625
141
12.0
290
     0
  0
SCALE
  5
48
102
{ACAD_REACTORS
330
42
102
}
330
42
100
AcDbScale
 70
     0
300
3/32" = 1'-0"
140
0.09375
141
12.0
290
     0
  0
SCALE
  5
49
102
{ACAD_REACTORS
330
42
102
}
330
42
100
AcDbScale
 70
     0
300
1/8" = 1'-0"
140
0.125
141
12.0
290
     0
  0
SCALE
  5
4A
102
{ACAD_REACTORS
330
42
102
}
330
42
100
AcDbScale
 70
     0
300
3/16" = 1'-0"
140
0.1875
141
12.0
290
     0
  0
SCALE
  5
4B
102
{ACAD_REACTORS
330
42
102
}
330
42
100
AcDbScale
 70
     0
300
1/4" = 1'-0"
140
0.25
141
12.0
290
     0
  0
SCALE
  5
4C
102
{ACAD_REACTORS
330
42
102
}
330
42
100
AcDbScale
 70
     0
300
3/8" = 1'-0"
140
0.375
141
12.0
290
     0
  0
SCALE
  5
4D
102
{ACAD_REACTORS
330
42
102
}
330
42
100
AcDbScale
 70
     0
300
1/2" = 1'-0"
140
0.5
141
12.0
290
     0
  0
SCALE
  5
4E
102
{ACAD_REACTORS
330
42
102
}
330
42
100
AcDbScale
 70
     0
300
3/4" = 1'-0"
140
0.75
141
12.0
290
     0
  0
SCALE
  5
4F
102
{ACAD_REACTORS
330
42
102
}
330
42
100
AcDbScale
 70
     0
300
1" = 1'-0"
140
1.0
141
12.0
290
     0
  0
SCALE
  5
50
102
{ACAD_REACTORS
330
42
102
}
330
42
100
AcDbScale
 70
     0
300
1-1/2" = 1'-0"
140
1.5
141
12.0
290
     0
  0
SCALE
  5
51
102
{ACAD_REACTORS
330
42
102
}
330
42
100
AcDbScale
 70
     0
300
3" = 1'-0"
140
3.0
141
12.0
290
     0
  0
SCALE
  5
52
102
{ACAD_REACTORS
330
42
102
}
330
42
100
AcDbScale
 70
     0
300
6" = 1'-0"
140
6.0
141
12.0
290
     0
  0
SCALE
  5
53
102
{ACAD_REACTORS
330
42
102
}
330
42
100
AcDbScale
 70
     0
300
1'-0" = 1'-0"
140
12.0
141
12.0
290
     0
  0
ACDBSECTIONVIEWSTYLE
  5
69
102
{ACAD_REACTORS
330
68
102
}
330
68
100
AcDbModelDocViewStyle
 70
     0
  3
Imperial24
290
     1
300
Imperial24
 90
        0
100
AcDbSectionViewStyle
 70
     0
 71
     0
 90
       78
 71
     1
340
55
 62
   256
 40
0.24
340
0
340
0
 62
   256
 40
0.24
300
I, O, Q, S, X, Z
 40
0.48
 90
        3
 40
0.18
 90
        1
 71
     2
340
5D
 90
       25
 62
   256
340
5D
 90
       50
 62
   256
 40
0.24
 40
0.0
 40
0.24
 71
     3
340
55
 62
   256
 40
0.24
 90
        1
 40
0.75
 90
        1
300
%<\AcVar ViewType \f "%tc1">% %<\AcVar ViewSectionStartId>%-%<\AcVar ViewSectionEndId>%\PSCALE %<\AcVar ViewScale \f "%sn">%
 71
     4
 62
   256
 62
   257
300
ANSI31
 40
1.0
 90
        0
290
     0
290
     0
 90
        6
 40
0.0
 40
1.570796326794896
 40
0.2617993877991494
 40
1.308996938995747
 40
-0.2617993877991494
 40
1.832595714594046
  0
TABLESTYLE
  5
65
102
{ACAD_XDICTIONARY
360
2CA
102
}
102
{ACAD_REACTORS
330
64
102
}
330
64
100
AcDbTableStyle
280
     0
  3
Standard
 70
     0
 71
     0
 40
0.06
 41
0.06
280
     0
281
     0
  7
Standard
140
0.18
170
     2
 62
     0
 63
     7
283
     0
 90
      512
 91
        0
  1

274
    -2
284
     1
 64
     0
275
    -2
285
     1
 65
     0
276
    -2
286
     1
 66
     0
277
    -2
287
     1
 67
     0
278
    -2
288
     1
 68
     0
279
    -2
289
     1
 69
     0
  7
Standard
140
0.25
170
     5
 62
     0
 63
     7
283
     0
 90
      512
 91
        0
  1

274
    -2
284
     1
 64
     0
275
    -2
285
     1
 65
     0
276
    -2
286
     1
 66
     0
277
    -2
287
     1
 67
     0
278
    -2
288
     1
 68
     0
279
    -2
289
     1
 69
     0
  7
Standard
140
0.18
170
     5
 62
     0
 63
     7
283
     0
 90
      512
 91
        0
  1

274
    -2
284
     1
 64
     0
275
    -2
285
     1
 65
     0
276
    -2
286
     1
 66
     0
277
    -2
287
     1
 67
     0
278
    -2
288
     1
 68
     0
279
    -2
289
     1
 69
     0
  0
VISUALSTYLE
  5
2F
102
{ACAD_REACTORS
330
29
102
}
330
29
100
AcDbVisualStyle
  2
2dWireframe
 70
     4
177
     3
291
     0
 70
    58
 90
        0
176
     1
 90
        2
176
     1
 90
        0
176
     1
 90
        0
176
     1
 40
0.6
176
     1
 40
30.0
176
     1
 62
     7
420
 16777215
176
     1
 90
        1
176
     1
 90
        4
176
     1
 62
     7
176
     1
 62
   257
176
     1
 90
        1
176
     1
 90
        1
176
     1
 40
1.0
176
     1
 90
        0
176
     1
 62
   257
176
     1
 40
1.0
176
     1
 90
        1
176
     1
 90
        6
176
     1
 90
        2
176
     1
 62
     7
176
     1
 90
        5
176
     1
 90
        0
176
     1
 90
        0
176
     1
290
     0
176
     1
 90
        1
176
     1
 40
0.0
176
     1
 90
        0
176
     1
290
     1
176
     1
290
     1
176
     1
290
     0
176
     1
290
     0
176
     1
290
     0
176
     1
290
     0
176
     1
290
     0
176
     1
290
     0
176
     1
290
     0
176
     1
 90
       50
176
     1
 40
0.0
176
     1
 40
1.0
176
     1
 90
        0
176
     1
 62
    18
420
        0
176
     1
 90
       50
176
     1
 90
        3
176
     1
 62
     5
420
      255
176
     1
290
     0
176
     1
 90
       50
176
     1
 90
       50
176
     1
 90
       50
176
     1
290
     0
176
     1
 90
       50
176
     1
 62
   256
176
     0
 40
1.0
176
     0
 90
        2
176
     1
  1
strokes_ogs.tif
176
     1
290
     0
176
     1
 40
1.0
176
     1
 40
1.0
176
     1
  0
VISUALSTYLE
  5
2E
102
{ACAD_REACTORS
330
29
102
}
330
29
100
AcDbVisualStyle
  2
Basic
 70
     7
177
     3
291
     1
 70
    58
 90
        1
176
     1
 90
        0
176
     1
 90
        1
176
     1
 90
        0
176
     1
 40
0.6
176
     1
 40
30.0
176
     1
 62
     7
420
 16777215
176
     1
 90
        0
176
     1
 90
        4
176
     1
 62
     7
176
     1
 62
   257
176
     1
 90
        1
176
     1
 90
        1
176
     1
 40
1.0
176
     1
 90
        8
176
     1
 62
     7
176
     1
 40
1.0
176
     1
 90
        1
176
     1
 90
        6
176
     1
 90
        2
176
     1
 62
     7
176
     1
 90
        5
176
     1
 90
        0
176
     1
 90
        0
176
     1
290
     0
176
     1
 90
        1
176
     1
 40
0.0
176
     1
 90
        0
176
     1
290
     0
176
     1
290
     1
176
     1
290
     1
176
     1
290
     0
176
     1
290
     0
176
     1
290
     0
176
     1
290
     0
176
     1
290
     0
176
     1
290
     0
176
     1
 90
       50
176
     1
 40
0.0
176
     1
 40
1.0
176
     1
 90
        0
176
     1
 62
    18
420
        0
176
     1
 90
       50
176
     1
 90
        3
176
     1
 62
     5
420
      255
176
     1
290
     0
176
     1
 90
       50
176
     1
 90
       50
176
     1
 90
       50
176
     1
290
     0
176
     1
 90
       50
176
     1
 62
   256
176
     0
 40
1.0
176
     0
 90
        2
176
     1
  1
strokes_ogs.tif
176
     1
290
     0
176
     1
 40
1.0
176
     1
 40
1.0
176
     1
  0
VISUALSTYLE
  5
35
102
{ACAD_REACTORS
330
29
102
}
330
29
100
AcDbVisualStyle
  2
Brighten
 70
    12
177
     3
291
     1
 70
    58
 90
        2
176
     1
 90
        2
176
     1
 90
        0
176
     1
 90
        0
176
     1
 40
0.6
176
     1
 40
30.0
176
     1
 62
     7
420
 16777215
176
     1
 90
        1
176
     1
 90
        4
176
     1
 62
     7
176
     1
 62
   257
176
     1
 90
        1
176
     1
 90
        1
176
     1
 40
1.0
176
     1
 90
        8
176
     1
 62
     7
176
     1
 40
1.0
176
     1
 90
        1
176
     1
 90
        6
176
     1
 90
        2
176
     1
 62
     7
176
     1
 90
        5
176
     1
 90
        0
176
     1
 90
        0
176
     1
290
     0
176
     1
 90
        1
176
     1
 40
50.0
176
     1
 90
        0
176
     1
290
     0
176
     1
290
     1
176
     1
290
     1
176
     1
290
     0
176
     1
290
     0
176
     1
290
     0
176
     1
290
     0
176
     1
290
     0
176
     1
290
     0
176
     1
 90
       50
176
     1
 40
0.0
176
     1
 40
1.0
176
     1
 90
        0
176
     1
 62
    18
420
        0
176
     1
 90
       50
176
     1
 90
        3
176
     1
 62
     5
420
      255
176
     1
290
     0
176
     1
 90
       50
176
     1
 90
       50
176
     1
 90
       50
176
     1
290
     0
176
     1
 90
       50
176
     1
 62
   256
176
     0
 40
1.0
176
     0
 90
        2
176
     1
  1
strokes_ogs.tif
176
     1
290
     0
176
     1
 40
1.0
176
     1
 40
1.0
176
     1
  0
VISUALSTYLE
  5
39
102
{ACAD_REACTORS
330
29
102
}
330
29
100
AcDbVisualStyle
  2
ColorChange
 70
    16
177
     3
291
     1
 70
    58
 90
        2
176
     1
 90
        2
176
     1
 90
        3
176
     1
 90
        0
176
     1
 40
0.6
176
     1
 40
30.0
176
     1
 62
     8
420
  8421504
176
     1
 90
        1
176
     1
 90
        4
176
     1
 62
     7
176
     1
 62
   257
176
     1
 90
        1
176
     1
 90
        1
176
     1
 40
1.0
176
     1
 90
        8
176
     1
 62
     8
420
  8421504
176
     1
 40
1.0
176
     1
 90
        1
176
     1
 90
        6
176
     1
 90
        2
176
     1
 62
     7
176
     1
 90
        5
176
     1
 90
        0
176
     1
 90
        0
176
     1
290
     0
176
     1
 90
        1
176
     1
 40
0.0
176
     1
 90
        0
176
     1
290
     0
176
     1
290
     1
176
     1
290
     1
176
     1
290
     0
176
     1
290
     0
176
     1
290
     0
176
     1
290
     0
176
     1
290
     0
176
     1
290
     0
176
     1
 90
       50
176
     1
 40
0.0
176
     1
 40
1.0
176
     1
 90
        0
176
     1
 62
    18
420
        0
176
     1
 90
       50
176
     1
 90
        3
176
     1
 62
     5
420
      255
176
     1
290
     0
176
     1
 90
       50
176
     1
 90
       50
176
     1
 90
       50
176
     1
290
     0
176
     1
 90
       50
176
     1
 62
   256
176
     0
 40
1.0
176
     0
 90
        2
176
     1
  1
strokes_ogs.tif
176
     1
290
     0
176
     1
 40
1.0
176
     1
 40
1.0
176
     1
  0
VISUALSTYLE
  5
32
102
{ACAD_REACTORS
330
29
102
}
330
29
100
AcDbVisualStyle
  2
Conceptual
 70
     9
177
     3
291
     0
 70
    58
 90
        3
176
     1
 90
        2
176
     1
 90
        0
176
     1
 90
        0
176
     1
 40
0.6
176
     1
 40
30.0
176
     1
 62
     7
420
 16777215
176
     1
 90
        2
176
     1
 90
        2
176
     1
 62
     7
176
     1
 62
   257
176
     1
 90
        1
176
     1
 90
        1
176
     1
 40
179.0
176
     1
 90
        8
176
     1
 62
     7
176
     1
 40
1.0
176
     1
 90
        1
176
     1
 90
        6
176
     1
 90
        2
176
     1
 62
     7
176
     1
 90
        3
176
     1
 90
        0
176
     1
 90
        0
176
     1
290
     0
176
     1
 90
        1
176
     1
 40
0.0
176
     1
 90
        0
176
     1
290
     0
176
     1
290
     1
176
     1
290
     1
176
     1
290
     0
176
     1
290
     0
176
     1
290
     0
176
     1
290
     0
176
     1
290
     0
176
     1
290
     0
176
     1
 90
       50
176
     1
 40
0.0
176
     1
 40
1.0
176
     1
 90
        0
176
     1
 62
    18
420
        0
176
     1
 90
       50
176
     1
 90
        3
176
     1
 62
     5
420
      255
176
     1
290
     0
176
     1
 90
       50
176
     1
 90
       50
176
     1
 90
       50
176
     1
290
     0
176
     1
 90
       50
176
     1
 62
   256
176
     0
 40
1.0
176
     0
 90
        2
176
     1
  1
strokes_ogs.tif
176
     1
290
     0
176
     1
 40
1.0
176
     1
 40
1.0
176
     1
  0
VISUALSTYLE
  5
34
102
{ACAD_REACTORS
330
29
102
}
330
29
100
AcDbVisualStyle
  2
Dim
 70
    11
177
     3
291
     1
 70
    58
 90
        2
176
     1
 90
        2
176
     1
 90
        0
176
     1
 90
        0
176
     1
 40
0.6
176
     1
 40
30.0
176
     1
 62
     7
420
 16777215
176
     1
 90
        1
176
     1
 90
        4
176
     1
 62
     7
176
     1
 62
   257
176
     1
 90
        1
176
     1
 90
        1
176
     1
 40
1.0
176
     1
 90
        8
176
     1
 62
     7
176
     1
 40
1.0
176
     1
 90
        1
176
     1
 90
        6
176
     1
 90
        2
176
     1
 62
     7
176
     1
 90
        5
176
     1
 90
        0
176
     1
 90
        0
176
     1
290
     0
176
     1
 90
        1
176
     1
 40
-50.0
176
     1
 90
        0
176
     1
290
     0
176
     1
290
     1
176
     1
290
     1
176
     1
290
     0
176
     1
290
     0
176
     1
290
     0
176
     1
290
     0
176
     1
290
     0
176
     1
290
     0
176
     1
 90
       50
176
     1
 40
0.0
176
     1
 40
1.0
176
     1
 90
        0
176
     1
 62
    18
420
        0
176
     1
 90
       50
176
     1
 90
        3
176
     1
 62
     5
420
      255
176
     1
290
     0
176
     1
 90
       50
176
     1
 90
       50
176
     1
 90
       50
176
     1
290
     0
176
     1
 90
       50
176
     1
 62
   256
176
     0
 40
1.0
176
     0
 90
        2
176
     1
  1
strokes_ogs.tif
176
     1
290
     0
176
     1
 40
1.0
176
     1
 40
1.0
176
     1
  0
VISUALSTYLE
  5
41
102
{ACAD_REACTORS
330
29
102
}
330
29
100
AcDbVisualStyle
  2
EdgeColorOff
 70
    22
177
     3
291
     1
 70
    58
 90
        2
176
     0
 90
        2
176
     0
 90
        0
176
     0
 90
        0
176
     0
 40
0.6
176
     0
 40
30.0
176
     0
 62
     7
420
 16777215
176
     0
 90
        1
176
     0
 90
        4
176
     0
 62
     7
176
     0
 62
   257
176
     0
 90
        1
176
     0
 90
        1
176
     0
 40
1.0
176
     0
 90
        8
176
     2
 62
     7
176
     0
 40
1.0
176
     0
 90
        1
176
     0
 90
        6
176
     0
 90
        2
176
     0
 62
     7
176
     0
 90
        5
176
     0
 90
        0
176
     0
 90
        0
176
     0
290
     0
176
     0
 90
        1
176
     0
 40
0.0
176
     0
 90
        0
176
     0
290
     0
176
     0
290
     1
176
     0
290
     1
176
     0
290
     0
176
     0
290
     0
176
     0
290
     0
176
     0
290
     0
176
     0
290
     0
176
     0
290
     0
176
     0
 90
       50
176
     0
 40
0.0
176
     0
 40
1.0
176
     0
 90
        0
176
     0
 62
    18
420
        0
176
     0
 90
       50
176
     0
 90
        3
176
     0
 62
     5
420
      255
176
     0
290
     0
176
     0
 90
       50
176
     0
 90
       50
176
     0
 90
       50
176
     0
290
     0
176
     0
 90
       50
176
     0
 62
   256
176
     0
 40
1.0
176
     0
 90
        2
176
     0
  1
strokes_ogs.tif
176
     0
290
     0
176
     0
 40
1.0
176
     0
 40
1.0
176
     0
  0
VISUALSTYLE
  5
38
102
{ACAD_REACTORS
330
29
102
}
330
29
100
AcDbVisualStyle
  2
Facepattern
 70
    15
177
     3
291
     1
 70
    58
 90
        2
176
     1
 90
        2
176
     1
 90
        0
176
     1
 90
        0
176
     1
 40
0.6
176
     1
 40
30.0
176
     1
 62
     7
420
 16777215
176
     1
 90
        1
176
     1
 90
        4
176
     1
 62
     7
176
     1
 62
   257
176
     1
 90
        1
176
     1
 90
        1
176
     1
 40
1.0
176
     1
 90
        8
176
     1
 62
     7
176
     1
 40
1.0
176
     1
 90
        1
176
     1
 90
        6
176
     1
 90
        2
176
     1
 62
     7
176
     1
 90
        5
176
     1
 90
        0
176
     1
 90
        0
176
     1
290
     0
176
     1
 90
        1
176
     1
 40
0.0
176
     1
 90
        0
176
     1
290
     0
176
     1
290
     1
176
     1
290
     1
176
     1
290
     0
176
     1
290
     0
176
     1
290
     0
176
     1
290
     0
176
     1
290
     0
176
     1
290
     0
176
     1
 90
       50
176
     1
 40
0.0
176
     1
 40
1.0
176
     1
 90
        0
176
     1
 62
    18
420
        0
176
     1
 90
       50
176
     1
 90
        3
176
     1
 62
     5
420
      255
176
     1
290
     0
176
     1
 90
       50
176
     1
 90
       50
176
     1
 90
       50
176
     1
290
     0
176
     1
 90
       50
176
     1
 62
   256
176
     0
 40
1.0
176
     0
 90
        2
176
     1
  1
strokes_ogs.tif
176
     1
290
     0
176
     1
 40
1.0
176
     1
 40
1.0
176
     1
  0
VISUALSTYLE
  5
2A
102
{ACAD_REACTORS
330
29
102
}
330
29
100
AcDbVisualStyle
  2
Flat
 70
     0
177
     3
291
     1
 70
    58
 90
        2
176
     1
 90
        1
176
     1
 90
        1
176
     1
 90
        2
176
     1
 40
0.6
176
     1
 40
30.0
176
     1
 62
     7
420
 16777215
176
     1
 90
        0
176
     1
 90
        0
176
     1
 62
     7
176
     1
 62
   257
176
     1
 90
        1
176
     1
 90
        1
176
     1
 40
1.0
176
     1
 90
        8
176
     1
 62
     7
176
     1
 40
1.0
176
     1
 90
        1
176
     1
 90
        6
176
     1
 90
        2
176
     1
 62
     7
176
     1
 90
        5
176
     1
 90
        0
176
     1
 90
        0
176
     1
290
     0
176
     1
 90
       13
176
     1
 40
0.0
176
     1
 90
        0
176
     1
290
     0
176
     1
290
     1
176
     1
290
     1
176
     1
290
     0
176
     1
290
     0
176
     1
290
     0
176
     1
290
     0
176
     1
290
     0
176
     1
290
     0
176
     1
 90
       50
176
     1
 40
0.0
176
     1
 40
1.0
176
     1
 90
        0
176
     1
 62
    18
420
        0
176
     1
 90
       50
176
     1
 90
        3
176
     1
 62
     5
420
      255
176
     1
290
     0
176
     1
 90
       50
176
     1
 90
       50
176
     1
 90
       50
176
     1
290
     0
176
     1
 90
       50
176
     1
 62
   256
176
     0
 40
1.0
176
     0
 90
        2
176
     1
  1
strokes_ogs.tif
176
     1
290
     0
176
     1
 40
1.0
176
     1
 40
1.0
176
     1
  0
VISUALSTYLE
  5
2B
102
{ACAD_REACTORS
330
29
102
}
330
29
100
AcDbVisualStyle
  2
FlatWithEdges
 70
     1
177
     3
291
     1
 70
    58
 90
        2
176
     1
 90
        1
176
     1
 90
        1
176
     1
 90
        2
176
     1
 40
0.6
176
     1
 40
30.0
176
     1
 62
     7
420
 16777215
176
     1
 90
        1
176
     1
 90
        0
176
     1
 62
     7
176
     1
 62
   257
176
     1
 90
        1
176
     1
 90
        1
176
     1
 40
1.0
176
     1
 90
        0
176
     1
 62
   257
176
     1
 40
1.0
176
     1
 90
        1
176
     1
 90
        6
176
     1
 90
        2
176
     1
 62
     7
176
     1
 90
        5
176
     1
 90
        0
176
     1
 90
        0
176
     1
290
     0
176
     1
 90
       13
176
     1
 40
0.0
176
     1
 90
        0
176
     1
290
     0
176
     1
290
     1
176
     1
290
     1
176
     1
290
     0
176
     1
290
     0
176
     1
290
     0
176
     1
290
     0
176
     1
290
     0
176
     1
290
     0
176
     1
 90
       50
176
     1
 40
0.0
176
     1
 40
1.0
176
     1
 90
        0
176
     1
 62
    18
420
        0
176
     1
 90
       50
176
     1
 90
        3
176
     1
 62
     5
420
      255
176
     1
290
     0
176
     1
 90
       50
176
     1
 90
       50
176
     1
 90
       50
176
     1
290
     0
176
     1
 90
       50
176
     1
 62
   256
176
     0
 40
1.0
176
     0
 90
        2
176
     1
  1
strokes_ogs.tif
176
     1
290
     0
176
     1
 40
1.0
176
     1
 40
1.0
176
     1
  0
VISUALSTYLE
  5
2C
102
{ACAD_REACTORS
330
29
102
}
330
29
100
AcDbVisualStyle
  2
Gouraud
 70
     2
177
     3
291
     1
 70
    58
 90
        2
176
     1
 90
        2
176
     1
 90
        1
176
     1
 90
        2
176
     1
 40
0.6
176
     1
 40
30.0
176
     1
 62
     7
420
 16777215
176
     1
 90
        0
176
     1
 90
        0
176
     1
 62
     7
176
     1
 62
   257
176
     1
 90
        1
176
     1
 90
        1
176
     1
 40
1.0
176
     1
 90
        0
176
     1
 62
     7
176
     1
 40
1.0
176
     1
 90
        1
176
     1
 90
        6
176
     1
 90
        2
176
     1
 62
     7
176
     1
 90
        5
176
     1
 90
        0
176
     1
 90
        0
176
     1
290
     0
176
     1
 90
       13
176
     1
 40
0.0
176
     1
 90
        0
176
     1
290
     0
176
     1
290
     1
176
     1
290
     1
176
     1
290
     0
176
     1
290
     0
176
     1
290
     0
176
     1
290
     0
176
     1
290
     0
176
     1
290
     0
176
     1
 90
       50
176
     1
 40
0.0
176
     1
 40
1.0
176
     1
 90
        0
176
     1
 62
    18
420
        0
176
     1
 90
       50
176
     1
 90
        3
176
     1
 62
     5
420
      255
176
     1
290
     0
176
     1
 90
       50
176
     1
 90
       50
176
     1
 90
       50
176
     1
290
     0
176
     1
 90
       50
176
     1
 62
   256
176
     0
 40
1.0
176
     0
 90
        2
176
     1
  1
strokes_ogs.tif
176
     1
290
     0
176
     1
 40
1.0
176
     1
 40
1.0
176
     1
  0
VISUALSTYLE
  5
2D
102
{ACAD_REACTORS
330
29
102
}
330
29
100
AcDbVisualStyle
  2
GouraudWithEdges
 70
     3
177
     3
291
     1
 70
    58
 90
        2
176
     1
 90
        2
176
     1
 90
        1
176
     1
 90
        2
176
     1
 40
0.6
176
     1
 40
30.0
176
     1
 62
     7
420
 16777215
176
     1
 90
        1
176
     1
 90
        0
176
     1
 62
     7
176
     1
 62
   257
176
     1
 90
        1
176
     1
 90
        1
176
     1
 40
1.0
176
     1
 90
        0
176
     1
 62
   257
176
     1
 40
1.0
176
     1
 90
        1
176
     1
 90
        6
176
     1
 90
        2
176
     1
 62
     7
176
     1
 90
        5
176
     1
 90
        0
176
     1
 90
        0
176
     1
290
     0
176
     1
 90
       13
176
     1
 40
0.0
176
     1
 90
        0
176
     1
290
     0
176
     1
290
     1
176
     1
290
     1
176
     1
290
     0
176
     1
290
     0
176
     1
290
     0
176
     1
290
     0
176
     1
290
     0
176
     1
290
     0
176
     1
 90
       50
176
     1
 40
0.0
176
     1
 40
1.0
176
     1
 90
        0
176
     1
 62
    18
420
        0
176
     1
 90
       50
176
     1
 90
        3
176
     1
 62
     5
420
      255
176
     1
290
     0
176
     1
 90
       50
176
     1
 90
       50
176
     1
 90
       50
176
     1
290
     0
176
     1
 90
       50
176
     1
 62
   256
176
     0
 40
1.0
176
     0
 90
        2
176
     1
  1
strokes_ogs.tif
176
     1
290
     0
176
     1
 40
1.0
176
     1
 40
1.0
176
     1
  0
VISUALSTYLE
  5
31
102
{ACAD_REACTORS
330
29
102
}
330
29
100
AcDbVisualStyle
  2
Hidden
 70
     6
177
     3
291
     0
 70
    58
 90
        1
176
     1
 90
        2
176
     1
 90
        2
176
     1
 90
        0
176
     1
 40
0.6
176
     1
 40
30.0
176
     1
 62
     7
420
 16777215
176
     1
 90
        2
176
     1
 90
        2
176
     1
 62
     7
176
     1
 62
   257
176
     1
 90
        2
176
     1
 90
        1
176
     1
 40
40.0
176
     1
 90
        0
176
     1
 62
   257
176
     1
 40
1.0
176
     1
 90
        1
176
     1
 90
        6
176
     1
 90
        2
176
     1
 62
     7
176
     1
 90
        3
176
     1
 90
        0
176
     1
 90
        0
176
     1
290
     0
176
     1
 90
        1
176
     1
 40
0.0
176
     1
 90
        0
176
     1
290
     0
176
     1
290
     1
176
     1
290
     1
176
     1
290
     0
176
     1
290
     0
176
     1
290
     0
176
     1
290
     0
176
     1
290
     0
176
     1
290
     0
176
     1
 90
       50
176
     1
 40
0.0
176
     1
 40
1.0
176
     1
 90
        0
176
     1
 62
    18
420
        0
176
     1
 90
       50
176
     1
 90
        3
176
     1
 62
     5
420
      255
176
     1
290
     0
176
     1
 90
       50
176
     1
 90
       50
176
     1
 90
       50
176
     1
290
     0
176
     1
 90
       50
176
     1
 62
   256
176
     0
 40
1.0
176
     0
 90
        2
176
     1
  1
strokes_ogs.tif
176
     1
290
     0
176
     1
 40
1.0
176
     1
 40
1.0
176
     1
  0
VISUALSTYLE
  5
3F
102
{ACAD_REACTORS
330
29
102
}
330
29
100
AcDbVisualStyle
  2
JitterOff
 70
    20
177
     3
291
     1
 70
    58
 90
        2
176
     0
 90
        2
176
     0
 90
        0
176
     0
 90
        0
176
     0
 40
0.6
176
     0
 40
30.0
176
     0
 62
     7
420
 16777215
176
     0
 90
        1
176
     0
 90
        4
176
     0
 62
     7
176
     0
 62
   257
176
     0
 90
        1
176
     0
 90
        1
176
     0
 40
1.0
176
     0
 90
       10
176
     2
 62
     7
176
     0
 40
1.0
176
     0
 90
        1
176
     0
 90
        6
176
     0
 90
        2
176
     0
 62
     7
176
     0
 90
        5
176
     0
 90
        0
176
     0
 90
        0
176
     0
290
     0
176
     0
 90
        1
176
     0
 40
0.0
176
     0
 90
        0
176
     0
290
     0
176
     0
290
     1
176
     0
290
     1
176
     0
290
     0
176
     0
290
     0
176
     0
290
     0
176
     0
290
     0
176
     0
290
     0
176
     0
290
     0
176
     0
 90
       50
176
     0
 40
0.0
176
     0
 40
1.0
176
     0
 90
        0
176
     0
 62
    18
420
        0
176
     0
 90
       50
176
     0
 90
        3
176
     0
 62
     5
420
      255
176
     0
290
     0
176
     0
 90
       50
176
     0
 90
       50
176
     0
 90
       50
176
     0
290
     0
176
     0
 90
       50
176
     0
 62
   256
176
     0
 40
1.0
176
     0
 90
        2
176
     0
  1
strokes_ogs.tif
176
     0
290
     0
176
     0
 40
1.0
176
     0
 40
1.0
176
     0
  0
VISUALSTYLE
  5
37
102
{ACAD_REACTORS
330
29
102
}
330
29
100
AcDbVisualStyle
  2
Linepattern
 70
    14
177
     3
291
     1
 70
    58
 90
        2
176
     1
 90
        2
176
     1
 90
        0
176
     1
 90
        0
176
     1
 40
0.6
176
     1
 40
30.0
176
     1
 62
     7
420
 16777215
176
     1
 90
        1
176
     1
 90
        4
176
     1
 62
     7
176
     1
 62
   257
176
     1
 90
        7
176
     1
 90
        7
176
     1
 40
1.0
176
     1
 90
        8
176
     1
 62
     7
176
     1
 40
1.0
176
     1
 90
        1
176
     1
 90
        6
176
     1
 90
        2
176
     1
 62
     7
176
     1
 90
        5
176
     1
 90
        0
176
     1
 90
        0
176
     1
290
     0
176
     1
 90
        1
176
     1
 40
0.0
176
     1
 90
        0
176
     1
290
     0
176
     1
290
     1
176
     1
290
     1
176
     1
290
     0
176
     1
290
     0
176
     1
290
     0
176
     1
290
     0
176
     1
290
     0
176
     1
290
     0
176
     1
 90
       50
176
     1
 40
0.0
176
     1
 40
1.0
176
     1
 90
        0
176
     1
 62
    18
420
        0
176
     1
 90
       50
176
     1
 90
        3
176
     1
 62
     5
420
      255
176
     1
290
     0
176
     1
 90
       50
176
     1
 90
       50
176
     1
 90
       50
176
     1
290
     0
176
     1
 90
       50
176
     1
 62
   256
176
     0
 40
1.0
176
     0
 90
        2
176
     1
  1
strokes_ogs.tif
176
     1
290
     0
176
     1
 40
1.0
176
     1
 40
1.0
176
     1
  0
VISUALSTYLE
  5
40
102
{ACAD_REACTORS
330
29
102
}
330
29
100
AcDbVisualStyle
  2
OverhangOff
 70
    21
177
     3
291
     1
 70
    58
 90
        2
176
     0
 90
        2
176
     0
 90
        0
176
     0
 90
        0
176
     0
 40
0.6
176
     0
 40
30.0
176
     0
 62
     7
420
 16777215
176
     0
 90
        1
176
     0
 90
        4
176
     0
 62
     7
176
     0
 62
   257
176
     0
 90
        1
176
     0
 90
        1
176
     0
 40
1.0
176
     0
 90
        9
176
     2
 62
     7
176
     0
 40
1.0
176
     0
 90
        1
176
     0
 90
        6
176
     0
 90
        2
176
     0
 62
     7
176
     0
 90
        5
176
     0
 90
        0
176
     0
 90
        0
176
     0
290
     0
176
     0
 90
        1
176
     0
 40
0.0
176
     0
 90
        0
176
     0
290
     0
176
     0
290
     1
176
     0
290
     1
176
     0
290
     0
176
     0
290
     0
176
     0
290
     0
176
     0
290
     0
176
     0
290
     0
176
     0
290
     0
176
     0
 90
       50
176
     0
 40
0.0
176
     0
 40
1.0
176
     0
 90
        0
176
     0
 62
    18
420
        0
176
     0
 90
       50
176
     0
 90
        3
176
     0
 62
     5
420
      255
176
     0
290
     0
176
     0
 90
       50
176
     0
 90
       50
176
     0
 90
       50
176
     0
290
     0
176
     0
 90
       50
176
     0
 62
   256
176
     0
 40
1.0
176
     0
 90
        2
176
     0
  1
strokes_ogs.tif
176
     0
290
     0
176
     0
 40
1.0
176
     0
 40
1.0
176
     0
  0
VISUALSTYLE
  5
33
102
{ACAD_REACTORS
330
29
102
}
330
29
100
AcDbVisualStyle
  2
Realistic
 70
     8
177
     3
291
     0
 70
    58
 90
        2
176
     1
 90
        3
176
     1
 90
        0
176
     1
 90
        2
176
     1
 40
0.6
176
     1
 40
30.0
176
     1
 62
     7
420
 16777215
176
     1
 90
        0
176
     1
 90
        0
176
     1
 62
     7
176
     1
 62
   257
176
     1
 90
        1
176
     1
 90
        1
176
     1
 40
1.0
176
     1
 90
        8
176
     1
 62
   257
176
     1
 40
1.0
176
     1
 90
        1
176
     1
 90
        6
176
     1
 90
        2
176
     1
 62
     7
176
     1
 90
        3
176
     1
 90
        0
176
     1
 90
        0
176
     1
290
     0
176
     1
 90
       13
176
     1
 40
0.0
176
     1
 90
        0
176
     1
290
     0
176
     1
290
     1
176
     1
290
     1
176
     1
290
     0
176
     1
290
     0
176
     1
290
     0
176
     1
290
     0
176
     1
290
     0
176
     1
290
     0
176
     1
 90
       50
176
     1
 40
0.0
176
     1
 40
1.0
176
     1
 90
        0
176
     1
 62
    18
420
        0
176
     1
 90
       50
176
     1
 90
        3
176
     1
 62
     5
420
      255
176
     1
290
     0
176
     1
 90
       50
176
     1
 90
       50
176
     1
 90
       50
176
     1
290
     0
176
     1
 90
       50
176
     1
 62
   256
176
     0
 40
1.0
176
     0
 90
        2
176
     1
  1
strokes_ogs.tif
176
     1
290
     0
176
     1
 40
1.0
176
     1
 40
1.0
176
     1
  0
VISUALSTYLE
  5
3E
102
{ACAD_REACTORS
330
29
102
}
330
29
100
AcDbVisualStyle
  2
Shaded
 70
    27
177
     3
291
     0
 70
    58
 90
        2
176
     1
 90
        2
176
     1
 90
        1
176
     1
 90
        2
176
     1
 40
0.6
176
     1
 40
30.0
176
     1
 62
     7
420
 16777215
176
     1
 90
        0
176
     1
 90
        4
176
     1
 62
     7
176
     1
 62
   257
176
     1
 90
        1
176
     1
 90
        1
176
     1
 40
1.0
176
     1
 90
        8
176
     1
 62
   257
176
     1
 40
1.0
176
     1
 90
        1
176
     1
 90
        6
176
     1
 90
        2
176
     1
 62
     8
420
  7895160
176
     1
 90
        3
176
     1
 90
        0
176
     1
 90
        0
176
     1
290
     0
176
     1
 90
        5
176
     1
 40
0.0
176
     1
 90
        0
176
     1
290
     0
176
     1
290
     1
176
     1
290
     1
176
     1
290
     0
176
     1
290
     0
176
     1
290
     0
176
     1
290
     0
176
     1
290
     0
176
     1
290
     0
176
     1
 90
       50
176
     1
 40
0.0
176
     1
 40
1.0
176
     1
 90
        0
176
     1
 62
    18
420
        0
176
     1
 90
       50
176
     1
 90
        3
176
     1
 62
     5
420
      255
176
     1
290
     0
176
     1
 90
       50
176
     1
 90
       50
176
     1
 90
       50
176
     1
290
     0
176
     1
 90
       50
176
     1
 62
   256
176
     0
 40
1.0
176
     0
 90
        2
176
     1
  1
strokes_ogs.tif
176
     1
290
     0
176
     1
 40
1.0
176
     1
 40
1.0
176
     1
  0
VISUALSTYLE
  5
3D
102
{ACAD_REACTORS
330
29
102
}
330
29
100
AcDbVisualStyle
  2
Shaded with edges
 70
    26
177
     3
291
     0
 70
    58
 90
        2
176
     1
 90
        2
176
     1
 90
        1
176
     1
 90
        2
176
     1
 40
0.6
176
     1
 40
30.0
176
     1
 62
     7
420
 16777215
176
     1
 90
        1
176
     1
 90
        2
176
     1
 62
     7
176
     1
 62
   257
176
     1
 90
        2
176
     1
 90
        1
176
     1
 40
1.0
176
     1
 90
        8
176
     1
 62
   257
176
     1
 40
1.0
176
     1
 90
        1
176
     1
 90
        6
176
     1
 90
        2
176
     1
 62
     7
176
     1
 90
        3
176
     1
 90
        0
176
     1
 90
        0
176
     1
290
     0
176
     1
 90
        5
176
     1
 40
0.0
176
     1
 90
        0
176
     1
290
     0
176
     1
290
     1
176
     1
290
     1
176
     1
290
     0
176
     1
290
     0
176
     1
290
     0
176
     1
290
     0
176
     1
290
     0
176
     1
290
     0
176
     1
 90
       50
176
     1
 40
0.0
176
     1
 40
1.0
176
     1
 90
        0
176
     1
 62
    18
420
        0
176
     1
 90
       50
176
     1
 90
        3
176
     1
 62
     5
420
      255
176
     1
290
     0
176
     1
 90
       50
176
     1
 90
       50
176
     1
 90
       50
176
     1
290
     0
176
     1
 90
       50
176
     1
 62
   256
176
     0
 40
1.0
176
     0
 90
        2
176
     1
  1
strokes_ogs.tif
176
     1
290
     0
176
     1
 40
1.0
176
     1
 40
1.0
176
     1
  0
VISUALSTYLE
  5
3A
102
{ACAD_REACTORS
330
29
102
}
330
29
100
AcDbVisualStyle
  2
Shades of Gray
 70
    23
177
     3
291
     0
 70
    58
 90
        2
176
     1
 90
        2
176
     1
 90
        3
176
     1
 90
        0
176
     1
 40
0.6
176
     1
 40
30.0
176
     1
 62
     7
420
 16777215
176
     1
 90
        2
176
     1
 90
        2
176
     1
 62
     7
176
     1
 62
     7
176
     1
 90
        1
176
     1
 90
        1
176
     1
 40
40.0
176
     1
 90
        8
176
     1
 62
     7
176
     1
 40
1.0
176
     1
 90
        1
176
     1
 90
        6
176
     1
 90
        2
176
     1
 62
     7
176
     1
 90
        3
176
     1
 90
        0
176
     1
 90
        0
176
     1
290
     0
176
     1
 90
        1
176
     1
 40
0.0
176
     1
 90
        0
176
     1
290
     0
176
     1
290
     1
176
     1
290
     1
176
     1
290
     0
176
     1
290
     0
176
     1
290
     0
176
     1
290
     0
176
     1
290
     0
176
     1
290
     0
176
     1
 90
       50
176
     1
 40
0.0
176
     1
 40
1.0
176
     1
 90
        0
176
     1
 62
    18
420
        0
176
     1
 90
       50
176
     1
 90
        3
176
     1
 62
     5
420
      255
176
     1
290
     0
176
     1
 90
       50
176
     1
 90
       50
176
     1
 90
       50
176
     1
290
     0
176
     1
 90
       50
176
     1
 62
   256
176
     0
 40
1.0
176
     0
 90
        2
176
     1
  1
strokes_ogs.tif
176
     1
290
     0
176
     1
 40
1.0
176
     1
 40
1.0
176
     1
  0
VISUALSTYLE
  5
3B
102
{ACAD_REACTORS
330
29
102
}
330
29
100
AcDbVisualStyle
  2
Sketchy
 70
    24
177
     3
291
     0
 70
    58
 90
        1
176
     1
 90
        2
176
     1
 90
        2
176
     1
 90
        0
176
     1
 40
0.6
176
     1
 40
30.0
176
     1
 62
     7
420
 16777215
176
     1
 90
        2
176
     1
 90
        2
176
     1
 62
     7
176
     1
 62
     7
176
     1
 90
        1
176
     1
 90
        1
176
     1
 40
40.0
176
     1
 90
       11
176
     1
 62
     7
176
     1
 40
1.0
176
     1
 90
        1
176
     1
 90
        6
176
     1
 90
        2
176
     1
 62
     7
176
     1
 90
        6
176
     1
 90
        0
176
     1
 90
        0
176
     1
290
     0
176
     1
 90
        1
176
     1
 40
0.0
176
     1
 90
        0
176
     1
290
     0
176
     1
290
     1
176
     1
290
     1
176
     1
290
     0
176
     1
290
     0
176
     1
290
     0
176
     1
290
     0
176
     1
290
     0
176
     1
290
     0
176
     1
 90
       50
176
     1
 40
0.0
176
     1
 40
1.0
176
     1
 90
        0
176
     1
 62
    18
420
        0
176
     1
 90
       50
176
     1
 90
        3
176
     1
 62
     5
420
      255
176
     1
290
     0
176
     1
 90
       50
176
     1
 90
       50
176
     1
 90
       50
176
     1
290
     0
176
     1
 90
       50
176
     1
 62
   256
176
     0
 40
1.0
176
     0
 90
        2
176
     1
  1
strokes_ogs.tif
176
     1
290
     0
176
     1
 40
1.0
176
     1
 40
1.0
176
     1
  0
VISUALSTYLE
  5
36
102
{ACAD_REACTORS
330
29
102
}
330
29
100
AcDbVisualStyle
  2
Thicken
 70
    13
177
     3
291
     1
 70
    58
 90
        2
176
     1
 90
        2
176
     1
 90
        0
176
     1
 90
        0
176
     1
 40
0.6
176
     1
 40
30.0
176
     1
 62
     7
420
 16777215
176
     1
 90
        1
176
     1
 90
        4
176
     1
 62
     7
176
     1
 62
   257
176
     1
 90
        1
176
     1
 90
        1
176
     1
 40
1.0
176
     1
 90
       12
176
     1
 62
     7
176
     1
 40
1.0
176
     1
 90
        1
176
     1
 90
        6
176
     1
 90
        2
176
     1
 62
     7
176
     1
 90
        5
176
     1
 90
        0
176
     1
 90
        0
176
     1
290
     0
176
     1
 90
        1
176
     1
 40
0.0
176
     1
 90
        0
176
     1
290
     0
176
     1
290
     1
176
     1
290
     1
176
     1
290
     0
176
     1
290
     0
176
     1
290
     0
176
     1
290
     0
176
     1
290
     0
176
     1
290
     0
176
     1
 90
       50
176
     1
 40
0.0
176
     1
 40
1.0
176
     1
 90
        0
176
     1
 62
    18
420
        0
176
     1
 90
       50
176
     1
 90
        3
176
     1
 62
     5
420
      255
176
     1
290
     0
176
     1
 90
       50
176
     1
 90
       50
176
     1
 90
       50
176
     1
290
     0
176
     1
 90
       50
176
     1
 62
   256
176
     0
 40
1.0
176
     0
 90
        2
176
     1
  1
strokes_ogs.tif
176
     1
290
     0
176
     1
 40
1.0
176
     1
 40
1.0
176
     1
  0
VISUALSTYLE
  5
30
102
{ACAD_REACTORS
330
29
102
}
330
29
100
AcDbVisualStyle
  2
Wireframe
 70
     5
177
     3
291
     0
 70
    58
 90
        0
176
     1
 90
        2
176
     1
 90
        0
176
     1
 90
        0
176
     1
 40
0.6
176
     1
 40
30.0
176
     1
 62
     7
420
 16777215
176
     1
 90
        1
176
     1
 90
        4
176
     1
 62
     7
176
     1
 62
   257
176
     1
 90
        1
176
     1
 90
        1
176
     1
 40
1.0
176
     1
 90
        0
176
     1
 62
   257
176
     1
 40
1.0
176
     1
 90
        1
176
     1
 90
        6
176
     1
 90
        2
176
     1
 62
     7
176
     1
 90
        3
176
     1
 90
        0
176
     1
 90
        0
176
     1
290
     0
176
     1
 90
        1
176
     1
 40
0.0
176
     1
 90
        0
176
     1
290
     0
176
     1
290
     1
176
     1
290
     1
176
     1
290
     0
176
     1
290
     0
176
     1
290
     0
176
     1
290
     0
176
     1
290
     0
176
     1
290
     0
176
     1
 90
       50
176
     1
 40
0.0
176
     1
 40
1.0
176
     1
 90
        0
176
     1
 62
    18
420
        0
176
     1
 90
       50
176
     1
 90
        3
176
     1
 62
     5
420
      255
176
     1
290
     0
176
     1
 90
       50
176
     1
 90
       50
176
     1
 90
       50
176
     1
290
     0
176
     1
 90
       50
176
     1
 62
   256
176
     0
 40
1.0
176
     0
 90
        2
176
     1
  1
strokes_ogs.tif
176
     1
290
     0
176
     1
 40
1.0
176
     1
 40
1.0
176
     1
  0
VISUALSTYLE
  5
3C
102
{ACAD_REACTORS
330
29
102
}
330
29
100
AcDbVisualStyle
  2
X-Ray
 70
    25
177
     3
291
     0
 70
    58
 90
        2
176
     1
 90
        2
176
     1
 90
        1
176
     1
 90
        1
176
     1
 40
0.5
176
     1
 40
30.0
176
     1
 62
     7
420
 16777215
176
     1
 90
        1
176
     1
 90
        0
176
     1
 62
     7
176
     1
 62
   257
176
     1
 90
        1
176
     1
 90
        1
176
     1
 40
1.0
176
     1
 90
        8
176
     1
 62
     7
176
     1
 40
1.0
176
     1
 90
        1
176
     1
 90
        6
176
     1
 90
        2
176
     1
 62
     7
176
     1
 90
        3
176
     1
 90
        0
176
     1
 90
        0
176
     1
290
     0
176
     1
 90
       13
176
     1
 40
0.0
176
     1
 90
        0
176
     1
290
     0
176
     1
290
     1
176
     1
290
     1
176
     1
290
     0
176
     1
290
     0
176
     1
290
     0
176
     1
290
     0
176
     1
290
     0
176
     1
290
     0
176
     1
 90
       50
176
     1
 40
0.0
176
     1
 40
1.0
176
     1
 90
        0
176
     1
 62
    18
420
        0
176
     1
 90
       50
176
     1
 90
        3
176
     1
 62
     5
420
      255
176
     1
290
     0
176
     1
 90
       50
176
     1
 90
       50
176
     1
 90
       50
176
     1
290
     0
176
     1
 90
       50
176
     1
 62
   256
176
     0
 40
1.0
176
     0
 90
        2
176
     1
  1
strokes_ogs.tif
176
     1
290
     0
176
     1
 40
1.0
176
     1
 40
1.0
176
     1
  0
DICTIONARYVAR
  5
2C9
102
{ACAD_REACTORS
330
2C4
102
}
330
2C4
100
DictionaryVariables
280
     0
  1
1:1
  0
DICTIONARYVAR
  5
2C6
102
{ACAD_REACTORS
330
2C4
102
}
330
2C4
100
DictionaryVariables
280
     0
  1
STANDARD
  0
DICTIONARYVAR
  5
2C5
102
{ACAD_REACTORS
330
2C4
102
}
330
2C4
100
DictionaryVariables
280
     0
  1
STANDARD
  0
DICTIONARYVAR
  5
2C7
102
{ACAD_REACTORS
330
2C4
102
}
330
2C4
100
DictionaryVariables
280
     0
  1
Imperial24
  0
DICTIONARYVAR
  5
2C8
102
{ACAD_REACTORS
330
2C4
102
}
330
2C4
100
DictionaryVariables
280
     0
  1
Imperial24
  0
DICTIONARY
  5
1A
330
19
100
AcDbDictionary
280
     1
281
     1
  3
BUMPTILE
360
1C
  3
DIFFUSETILE
360
1B
  3
OPACITYTILE
360
1F
  3
REFLECTIONTILE
360
1E
  3
REFRACTIONTILE
360
20
  3
SPECULARTILE
360
1D
  0
DICTIONARY
  5
12
330
11
100
AcDbDictionary
280
     1
281
     1
  3
BUMPTILE
360
14
  3
DIFFUSETILE
360
13
  3
OPACITYTILE
360
17
  3
REFLECTIONTILE
360
16
  3
REFRACTIONTILE
360
18
  3
SPECULARTILE
360
15
  0
DICTIONARY
  5
22
330
21
100
AcDbDictionary
280
     1
281
     1
  3
BUMPTILE
360
24
  3
DIFFUSETILE
360
23
  3
OPACITYTILE
360
27
  3
REFLECTIONTILE
360
26
  3
REFRACTIONTILE
360
28
  3
SPECULARTILE
360
25
  0
DICTIONARY
  5
2CA
330
65
100
AcDbDictionary
280
     1
281
     1
  3
ACAD_ROUNDTRIP_2008_TABLESTYLE_CELLSTYLEMAP
360
2CB
  0
XRECORD
  5
1C
102
{ACAD_REACTORS
330
1A
102
}
330
1A
100
AcDbXrecord
280
     1
270
     1
271
     1
  0
XRECORD
  5
1B
102
{ACAD_REACTORS
330
1A
102
}
330
1A
100
AcDbXrecord
280
     1
270
     1
271
     1
  0
XRECORD
  5
1F
102
{ACAD_REACTORS
330
1A
102
}
330
1A
100
AcDbXrecord
280
     1
270
     1
271
     1
  0
XRECORD
  5
1E
102
{ACAD_REACTORS
330
1A
102
}
330
1A
100
AcDbXrecord
280
     1
270
     1
271
     1
  0
XRECORD
  5
20
102
{ACAD_REACTORS
330
1A
102
}
330
1A
100
AcDbXrecord
280
     1
270
     1
271
     1
  0
XRECORD
  5
1D
102
{ACAD_REACTORS
330
1A
102
}
330
1A
100
AcDbXrecord
280
     1
270
     1
271
     1
  0
XRECORD
  5
14
102
{ACAD_REACTORS
330
12
102
}
330
12
100
AcDbXrecord
280
     1
270
     1
271
     1
  0
XRECORD
  5
13
102
{ACAD_REACTORS
330
12
102
}
330
12
100
AcDbXrecord
280
     1
270
     1
271
     1
  0
XRECORD
  5
17
102
{ACAD_REACTORS
330
12
102
}
330
12
100
AcDbXrecord
280
     1
270
     1
271
     1
  0
XRECORD
  5
16
102
{ACAD_REACTORS
330
12
102
}
330
12
100
AcDbXrecord
280
     1
270
     1
271
     1
  0
XRECORD
  5
18
102
{ACAD_REACTORS
330
12
102
}
330
12
100
AcDbXrecord
280
     1
270
     1
271
     1
  0
XRECORD
  5
15
102
{ACAD_REACTORS
330
12
102
}
330
12
100
AcDbXrecord
280
     1
270
     1
271
     1
  0
XRECORD
  5
24
102
{ACAD_REACTORS
330
22
102
}
330
22
100
AcDbXrecord
280
     1
270
     1
271
     1
  0
XRECORD
  5
23
102
{ACAD_REACTORS
330
22
102
}
330
22
100
AcDbXrecord
280
     1
270
     1
271
     1
  0
XRECORD
  5
27
102
{ACAD_REACTORS
330
22
102
}
330
22
100
AcDbXrecord
280
     1
270
     1
271
     1
  0
XRECORD
  5
26
102
{ACAD_REACTORS
330
22
102
}
330
22
100
AcDbXrecord
280
     1
270
     1
271
     1
  0
XRECORD
  5
28
102
{ACAD_REACTORS
330
22
102
}
330
22
100
AcDbXrecord
280
     1
270
     1
271
     1
  0
XRECORD
  5
25
102
{ACAD_REACTORS
330
22
102
}
330
22
100
AcDbXrecord
280
     1
270
     1
271
     1
  0
CELLSTYLEMAP
  5
2CB
102
{ACAD_REACTORS
330
2CA
102
}
330
2CA
100
AcDbCellStyleMap
 90
        3
300
CELLSTYLE
  1
TABLEFORMAT_BEGIN
 90
        5
170
     1
 91
        0
 92
    32768
 62
   257
 93
        1
300
CONTENTFORMAT
  1
CONTENTFORMAT_BEGIN
 90
        0
 91
        0
 92
      512
 93
        0
300

 40
0.0
140
1.0
 94
        5
 62
     0
340
55
144
0.25
309
CONTENTFORMAT_END
171
     0
 94
        0
309
TABLEFORMAT_END
  1
CELLSTYLE_BEGIN
 90
        1
 91
        1
300
_TITLE
309
CELLSTYLE_END
300
CELLSTYLE
  1
TABLEFORMAT_BEGIN
 90
        5
170
     1
 91
        0
 92
        0
 62
   257
 93
        1
300
CONTENTFORMAT
  1
CONTENTFORMAT_BEGIN
 90
        0
 91
        0
 92
      512
 93
        0
300

 40
0.0
140
1.0
 94
        5
 62
     0
340
55
144
0.18
309
CONTENTFORMAT_END
171
     0
 94
        0
309
TABLEFORMAT_END
  1
CELLSTYLE_BEGIN
 90
        2
 91
        1
300
_HEADER
309
CELLSTYLE_END
300
CELLSTYLE
  1
TABLEFORMAT_BEGIN
 90
        5
170
     1
 91
        0
 92
        0
 62
   257
 93
        1
300
CONTENTFORMAT
  1
CONTENTFORMAT_BEGIN
 90
        0
 91
        0
 92
      512
 93
        0
300

 40
0.0
140
1.0
 94
        2
 62
     0
340
55
144
0.18
309
CONTENTFORMAT_END
171
     0
 94
        0
309
TABLEFORMAT_END
  1
CELLSTYLE_BEGIN
 90
        3
 91
        2
300
_DATA
309
CELLSTYLE_END
  0
ENDSEC
  0
EOF
