  0
SECTION
  2
HEADER
  9
$ACADVER
  1
AC1015
  9
$ACADMAINTVER
 70
     6
  9
$DWGCODEPAGE
  3
ANSI_1252
  9
$INSBASE
 10
0.0
 20
0.0
 30
0.0
  9
$EXTMIN
 10
-127.6497333486313
 20
-132.4064025480256
 30
-0.0000000000000082
  9
$EXTMAX
 10
114.1855743979531
 20
105.9098028727576
 30
0.0000000000000071
  9
$LIMMIN
 10
-66.34999999999982
 20
-2008.85
  9
$LIMMAX
 10
3734.350000000001
 20
346.85
  9
$ORTHOMODE
 70
     1
  9
$REGENMODE
 70
     1
  9
$FILLMODE
 70
     1
  9
$QTEXTMODE
 70
     0
  9
$MIRRTEXT
 70
     1
  9
$LTSCALE
 40
10.0
  9
$ATTMODE
 70
     1
  9
$TEXTSIZE
 40
0.2
  9
$TRACEWID
 40
0.05
  9
$TEXTSTYLE
  7
STANDARD
  9
$CLAYER
  8
0
  9
$CELTYPE
  6
CONTINUOUS
  9
$CECOLOR
 62
   256
  9
$CELTSCALE
 40
1.0
  9
$DISPSILH
 70
     0
  9
$DIMSCALE
 40
1.0
  9
$DIMASZ
 40
1.25
  9
$DIMEXO
 40
0.0
  9
$DIMDLI
 40
0.38
  9
$DIMRND
 40
0.0
  9
$DIMDLE
 40
0.0
  9
$DIMEXE
 40
0.75
  9
$DIMTP
 40
0.0
  9
$DIMTM
 40
0.0
  9
$DIMTXT
 40
2.5
  9
$DIMCEN
 40
0.09
  9
$DIMTSZ
 40
0.0
  9
$DIMTOL
 70
     0
  9
$DIMLIM
 70
     0
  9
$DIMTIH
 70
     0
  9
$DIMTOH
 70
     0
  9
$DIMSE1
 70
     0
  9
$DIMSE2
 70
     0
  9
$DIMTAD
 70
     1
  9
$DIMZIN
 70
     0
  9
$DIMBLK
  1

  9
$DIMASO
 70
     1
  9
$DIMSHO
 70
     1
  9
$DIMPOST
  1

  9
$DIMAPOST
  1

  9
$DIMALT
 70
     0
  9
$DIMALTD
 70
     2
  9
$DIMALTF
 40
25.4
  9
$DIMLFAC
 40
1.0
  9
$DIMTOFL
 70
     0
  9
$DIMTVP
 40
0.0
  9
$DIMTIX
 70
     0
  9
$DIMSOXD
 70
     0
  9
$DIMSAH
 70
     0
  9
$DIMBLK1
  1

  9
$DIMBLK2
  1

  9
$DIMSTYLE
  2
STANDARD
  9
$DIMCLRD
 70
     7
  9
$DIMCLRE
 70
     7
  9
$DIMCLRT
 70
     7
  9
$DIMTFAC
 40
0.8
  9
$DIMGAP
 40
1.25
  9
$DIMJUST
 70
     0
  9
$DIMSD1
 70
     0
  9
$DIMSD2
 70
     0
  9
$DIMTOLJ
 70
     1
  9
$DIMTZIN
 70
     0
  9
$DIMALTZ
 70
     0
  9
$DIMALTTZ
 70
     0
  9
$DIMUPT
 70
     0
  9
$DIMDEC
 70
     2
  9
$DIMTDEC
 70
     4
  9
$DIMALTU
 70
     2
  9
$DIMALTTD
 70
     2
  9
$DIMTXSTY
  7
STANDARD
  9
$DIMAUNIT
 70
     0
  9
$DIMADEC
 70
     0
  9
$DIMALTRND
 40
0.0
  9
$DIMAZIN
 70
     0
  9
$DIMDSEP
 70
    46
  9
$DIMATFIT
 70
     3
  9
$DIMFRAC
 70
     0
  9
$DIMLDRBLK
  1

  9
$DIMLUNIT
 70
     2
  9
$DIMLWD
 70
    -2
  9
$DIMLWE
 70
    -2
  9
$DIMTMOVE
 70
     0
  9
$LUNITS
 70
     2
  9
$LUPREC
 70
     4
  9
$SKETCHINC
 40
0.1
  9
$FILLETRAD
 40
0.0
  9
$AUNITS
 70
     0
  9
$AUPREC
 70
     0
  9
$MENU
  1
acad
  9
$ELEVATION
 40
0.0
  9
$PELEVATION
 40
0.0
  9
$THICKNESS
 40
0.0
  9
$LIMCHECK
 70
     0
  9
$CHAMFERA
 40
0.0
  9
$CHAMFERB
 40
0.0
  9
$CHAMFERC
 40
0.0
  9
$CHAMFERD
 40
0.0
  9
$SKPOLY
 70
     0
  9
$TDCREATE
 40
2455303.727916655
  9
$TDUCREATE
 40
2455303.644583322
  9
$TDUPDATE
 40
2455306.421153229
  9
$TDUUPDATE
 40
2455306.337819896
  9
$TDINDWG
 40
0.0026100116
  9
$TDUSRTIMER
 40
2455826.506065845
  9
$USRTIMER
 70
     1
  9
$ANGBASE
 50
0.0
  9
$ANGDIR
 70
     0
  9
$PDMODE
 70
     0
  9
$PDSIZE
 40
0.0
  9
$PLINEWID
 40
0.0
  9
$SPLFRAME
 70
     0
  9
$SPLINETYPE
 70
     6
  9
$SPLINESEGS
 70
     8
  9
$HANDSEED
  5
66DD
  9
$SURFTAB1
 70
     6
  9
$SURFTAB2
 70
     6
  9
$SURFTYPE
 70
     6
  9
$SURFU
 70
     6
  9
$SURFV
 70
     6
  9
$UCSBASE
  2

  9
$UCSNAME
  2

  9
$UCSORG
 10
0.0
 20
0.0
 30
0.0
  9
$UCSXDIR
 10
1.0
 20
0.0
 30
0.0
  9
$UCSYDIR
 10
0.0
 20
1.0
 30
0.0
  9
$UCSORTHOREF
  2

  9
$UCSORTHOVIEW
 70
     0
  9
$UCSORGTOP
 10
0.0
 20
0.0
 30
0.0
  9
$UCSORGBOTTOM
 10
0.0
 20
0.0
 30
0.0
  9
$UCSORGLEFT
 10
0.0
 20
0.0
 30
0.0
  9
$UCSORGRIGHT
 10
0.0
 20
0.0
 30
0.0
  9
$UCSORGFRONT
 10
0.0
 20
0.0
 30
0.0
  9
$UCSORGBACK
 10
0.0
 20
0.0
 30
0.0
  9
$PUCSBASE
  2

  9
$PUCSNAME
  2

  9
$PUCSORG
 10
0.0
 20
0.0
 30
0.0
  9
$PUCSXDIR
 10
1.0
 20
0.0
 30
0.0
  9
$PUCSYDIR
 10
0.0
 20
1.0
 30
0.0
  9
$PUCSORTHOREF
  2

  9
$PUCSORTHOVIEW
 70
     0
  9
$PUCSORGTOP
 10
0.0
 20
0.0
 30
0.0
  9
$PUCSORGBOTTOM
 10
0.0
 20
0.0
 30
0.0
  9
$PUCSORGLEFT
 10
0.0
 20
0.0
 30
0.0
  9
$PUCSORGRIGHT
 10
0.0
 20
0.0
 30
0.0
  9
$PUCSORGFRONT
 10
0.0
 20
0.0
 30
0.0
  9
$PUCSORGBACK
 10
0.0
 20
0.0
 30
0.0
  9
$USERI1
 70
     0
  9
$USERI2
 70
     0
  9
$USERI3
 70
     0
  9
$USERI4
 70
     0
  9
$USERI5
 70
     0
  9
$USERR1
 40
0.0
  9
$USERR2
 40
0.0
  9
$USERR3
 40
0.0
  9
$USERR4
 40
0.0
  9
$USERR5
 40
0.0
  9
$WORLDVIEW
 70
     1
  9
$SHADEDGE
 70
     3
  9
$SHADEDIF
 70
    70
  9
$TILEMODE
 70
     1
  9
$MAXACTVP
 70
    16
  9
$PINSBASE
 10
0.0
 20
0.0
 30
0.0
  9
$PLIMCHECK
 70
     0
  9
$PEXTMIN
 10
1.000000000000000E+20
 20
1.000000000000000E+20
 30
1.000000000000000E+20
  9
$PEXTMAX
 10
-1.000000000000000E+20
 20
-1.000000000000000E+20
 30
-1.000000000000000E+20
  9
$PLIMMIN
 10
0.0
 20
0.0
  9
$PLIMMAX
 10
12.0
 20
9.0
  9
$UNITMODE
 70
     0
  9
$VISRETAIN
 70
     0
  9
$PLINEGEN
 70
     1
  9
$PSLTSCALE
 70
     0
  9
$TREEDEPTH
 70
  3020
  9
$CMLSTYLE
  2
STANDARD
  9
$CMLJUST
 70
     0
  9
$CMLSCALE
 40
1.0
  9
$PROXYGRAPHICS
 70
     0
  9
$MEASUREMENT
 70
     1
  9
$CELWEIGHT
370
    -1
  9
$ENDCAPS
280
     0
  9
$JOINSTYLE
280
     0
  9
$LWDISPLAY
290
     0
  9
$INSUNITS
 70
     0
  9
$HYPERLINKBASE
  1

  9
$STYLESHEET
  1

  9
$XEDIT
290
     1
  9
$CEPSNTYPE
380
     0
  9
$PSTYLEMODE
290
     1
  9
$FINGERPRINTGUID
  2
{AAAA7F79-7AD8-4CDA-B726-323DE0B6BCCB}
  9
$VERSIONGUID
  2
{FAEB1C32-E019-11D5-929B-00C0DF256EC4}
  9
$EXTNAMES
290
     1
  9
$PSVPSCALE
 40
0.0
  9
$OLESTARTUP
290
     0
  0
ENDSEC
  0
SECTION
  2
CLASSES
  0
CLASS
  1
IMAGE
  2
AcDbRasterImage
  3
ISM
 90
      127
280
     0
281
     1
  0
CLASS
  1
DICTIONARYVAR
  2
AcDbDictionaryVar
  3
ObjectDBX Classes
 90
        0
280
     0
281
     0
  0
CLASS
  1
RASTERVARIABLES
  2
AcDbRasterVariables
  3
ISM
 90
        0
280
     0
281
     0
  0
CLASS
  1
IMAGEDEF
  2
AcDbRasterImageDef
  3
ISM
 90
        0
280
     0
281
     0
  0
CLASS
  1
IMAGEDEF_REACTOR
  2
AcDbRasterImageDefReactor
  3
ISM
 90
        1
280
     0
281
     0
  0
CLASS
  1
IDBUFFER
  2
AcDbIdBuffer
  3
ObjectDBX Classes
 90
        0
280
     0
281
     0
  0
CLASS
  1
SPATIAL_FILTER
  2
AcDbSpatialFilter
  3
ObjectDBX Classes
 90
        0
280
     0
281
     0
  0
CLASS
  1
SORTENTSTABLE
  2
AcDbSortentsTable
  3
ObjectDBX Classes
 90
        0
280
     0
281
     0
  0
CLASS
  1
LAYER_INDEX
  2
AcDbLayerIndex
  3
ObjectDBX Classes
 90
        0
280
     0
281
     0
  0
CLASS
  1
SPATIAL_INDEX
  2
AcDbSpatialIndex
  3
AutoCAD 2000
 90
        0
280
     0
281
     0
  0
CLASS
  1
OBJECT_PTR
  2
CAseDLPNTableRecord
  3
ASE-LPNTableRecord
 90
        1
280
     0
281
     0
  0
CLASS
  1
LAYOUT
  2
AcDbLayout
  3
ObjectDBX Classes
 90
        0
280
     0
281
     0
  0
CLASS
  1
PLOTSETTINGS
  2
AcDbPlotSettings
  3
ObjectDBX Classes
 90
        0
280
     0
281
     0
  0
CLASS
  1
ACDBDICTIONARYWDFLT
  2
AcDbDictionaryWithDefault
  3
ObjectDBX Classes
 90
        0
280
     0
281
     0
  0
CLASS
  1
ACDBPLACEHOLDER
  2
AcDbPlaceHolder
  3
ObjectDBX Classes
 90
        0
280
     0
281
     0
  0
CLASS
  1
VBA_PROJECT
  2
AcDbVbaProject
  3
ObjectDBX Classes
 90
        0
280
     0
281
     0
  0
CLASS
  1
WIPEOUT
  2
AcDbWipeout
  3
WipeOut|AutoCAD Express Tool|expresstools@autodesk.com
 90
      127
280
     0
281
     1
  0
CLASS
  1
WIPEOUTVARIABLES
  2
AcDbWipeoutVariables
  3
WipeOut|AutoCAD Express Tool|expresstools@autodesk.com
 90
        0
280
     0
281
     0
  0
CLASS
  1
RTEXT
  2
RText
  3
RText|AutoCAD Express Tool|expresstools@autodesk.com
 90
        0
280
     0
281
     1
  0
CLASS
  1
ARCALIGNEDTEXT
  2
AcDbArcAlignedText
  3
ATEXT|AutoCAD Express Tool|expresstools@autodesk.com
 90
        0
280
     0
281
     1
  0
CLASS
  1
MATERIAL
  2
AcDbMaterial
  3
ObjectDBX Classes
 90
     1153
280
     0
281
     0
  0
CLASS
  1
VISUALSTYLE
  2
AcDbVisualStyle
  3
ObjectDBX Classes
 90
     4095
280
     0
281
     0
  0
CLASS
  1
TABLESTYLE
  2
AcDbTableStyle
  3
ObjectDBX Classes
 90
     4095
280
     0
281
     0
  0
CLASS
  1
SCALE
  2
AcDbScale
  3
ObjectDBX Classes
 90
     1153
280
     0
281
     0
  0
CLASS
  1
MLEADERSTYLE
  2
AcDbMLeaderStyle
  3
ACDB_MLEADERSTYLE_CLASS
 90
     4095
280
     0
281
     0
  0
CLASS
  1
CELLSTYLEMAP
  2
AcDbCellStyleMap
  3
ObjectDBX Classes
 90
     1152
280
     0
281
     0
  0
CLASS
  1
XRECORD
  2
AcDbXrecord
  3
AutoCAD 2000
 90
        0
280
     0
281
     0
  0
CLASS
  1
LWPOLYLINE
  2
AcDbPolyline
  3
AutoCAD 2000
 90
        0
280
     0
281
     1
  0
CLASS
  1
HATCH
  2
AcDbHatch
  3
AutoCAD 2000
 90
        0
280
     0
281
     1
  0
ENDSEC
  0
SECTION
  2
TABLES
  0
TABLE
  2
VPORT
  5
7
330
0
100
AcDbSymbolTable
 70
     1
  0
VPORT
  5
15
330
7
100
AcDbSymbolTableRecord
100
AcDbViewportTableRecord
  2
*ACTIVE
 70
     0
 10
0.0
 20
0.0
 11
1.0
 21
1.0
 12
-8.072395750622675
 22
38.54400917606748
 13
0.0
 23
0.0
 14
1.0
 24
1.0
 15
0.0
 25
0.0
 16
0.0
 26
0.0
 36
1.0
 17
0.0
 27
0.0
 37
0.0
 40
141.901803148064
 41
1.626168224299065
 42
50.0
 43
0.0
 44
0.0
 50
0.0
 51
0.0
 71
    16
 72
   100
 73
     1
 74
     1
 75
     0
 76
     0
 77
     0
 78
     0
281
     0
 65
     1
110
0.0
120
0.0
130
0.0
111
1.0
121
0.0
131
0.0
112
0.0
122
1.0
132
0.0
 79
     0
146
0.0
  0
ENDTAB
  0
TABLE
  2
LTYPE
  5
4
330
0
100
AcDbSymbolTable
 70
     4
  0
LTYPE
  5
11
330
4
100
AcDbSymbolTableRecord
100
AcDbLinetypeTableRecord
  2
BYBLOCK
 70
     0
  3

 72
    65
 73
     0
 40
0.0
  0
LTYPE
  5
12
330
4
100
AcDbSymbolTableRecord
100
AcDbLinetypeTableRecord
  2
BYLAYER
 70
     0
  3

 72
    65
 73
     0
 40
0.0
  0
LTYPE
  5
13
330
4
100
AcDbSymbolTableRecord
100
AcDbLinetypeTableRecord
  2
CONTINUOUS
 70
     0
  3
Solid line
 72
    65
 73
     0
 40
0.0
  0
LTYPE
  5
1E4
330
4
100
AcDbSymbolTableRecord
100
AcDbLinetypeTableRecord
  2
CENTER
 70
     0
  3
____ _ ____ _ ____ _ ____ _ ____ _ ____ _ ____
 72
    65
 73
     4
 40
2.0
 49
1.25
 74
     0
 49
-0.25
 74
     0
 49
0.25
 74
     0
 49
-0.25
 74
     0
  0
LTYPE
  5
63BB
330
4
100
AcDbSymbolTableRecord
100
AcDbLinetypeTableRecord
  2
________________
 70
     0
  3

 72
    65
 73
     0
 40
0.0
  0
LTYPE
  5
63D8
330
4
100
AcDbSymbolTableRecord
100
AcDbLinetypeTableRecord
  2
_..__..__..__.._
 70
     0
  3

 72
    65
 73
     2
 40
1.8
 49
0.8999999999999999
 74
     0
 49
-0.8999999999999999
 74
     0
  0
ENDTAB
  0
TABLE
  2
LAYER
  5
2
330
0
100
AcDbSymbolTable
 70
     2
  0
LAYER
  5
14
102
{ACAD_XDICTIONARY
360
5E41
102
}
330
2
100
AcDbSymbolTableRecord
100
AcDbLayerTableRecord
  2
0
 70
     0
 62
     7
  6
CONTINUOUS
370
    -3
390
63B9
  0
LAYER
  5
63F8
330
2
100
AcDbSymbolTableRecord
100
AcDbLayerTableRecord
  2
Defpoints
 70
     0
 62
     7
  6
CONTINUOUS
290
     0
370
    -3
390
63B9
  0
ENDTAB
  0
TABLE
  2
STYLE
  5
3
330
0
100
AcDbSymbolTable
 70
     1
  0
STYLE
  5
17
330
3
100
AcDbSymbolTableRecord
100
AcDbTextStyleTableRecord
  2
STANDARD
 70
     0
 40
0.0
 41
1.0
 50
0.0
 71
     0
 42
0.0
  3
I011000D.TTF
  4

1001
ACAD
1000
IsonormD
1071
        0
  0
ENDTAB
  0
TABLE
  2
VIEW
  5
5
330
0
100
AcDbSymbolTable
 70
     0
  0
ENDTAB
  0
TABLE
  2
UCS
  5
6
330
0
100
AcDbSymbolTable
 70
     0
  0
ENDTAB
  0
TABLE
  2
APPID
  5
8
330
0
100
AcDbSymbolTable
 70
     6
  0
APPID
  5
16
330
8
100
AcDbSymbolTableRecord
100
AcDbRegAppTableRecord
  2
ACAD
 70
     0
  0
APPID
  5
26
330
8
100
AcDbSymbolTableRecord
100
AcDbRegAppTableRecord
  2
TOPSOLID_DRAFT
 70
     0
  0
APPID
  5
319D
330
8
100
AcDbSymbolTableRecord
100
AcDbRegAppTableRecord
  2
ACAD_MLEADERVER
 70
     0
  0
APPID
  5
5E45
330
8
100
AcDbSymbolTableRecord
100
AcDbRegAppTableRecord
  2
DCO15
 70
     0
  0
APPID
  5
6374
330
8
100
AcDbSymbolTableRecord
100
AcDbRegAppTableRecord
  2
ACAD_EXEMPT_FROM_CAD_STAND
 70
     0
  0
APPID
  5
63F7
330
8
100
AcDbSymbolTableRecord
100
AcDbRegAppTableRecord
  2
ACAD_DSTYLE_DIMRADIAL_EXTENSION
 70
     0
  0
ENDTAB
  0
TABLE
  2
DIMSTYLE
  5
9
330
0
100
AcDbSymbolTable
 70
     1
100
AcDbDimStyleTable
  0
DIMSTYLE
105
18
330
9
100
AcDbSymbolTableRecord
100
AcDbDimStyleTableRecord
  2
STANDARD
 70
     0
 41
1.25
 42
0.0
 44
0.75
 73
     0
 74
     0
 77
     1
140
2.5
146
0.8
147
1.25
176
     7
177
     7
178
     7
271
     2
340
17
  0
ENDTAB
  0
TABLE
  2
BLOCK_RECORD
  5
1
330
0
100
AcDbSymbolTable
 70
     7
  0
BLOCK_RECORD
  5
A
102
{ACAD_XDICTIONARY
360
31A7
102
}
330
1
100
AcDbSymbolTableRecord
100
AcDbBlockTableRecord
  2
*MODEL_SPACE
340
63B3
  0
BLOCK_RECORD
  5
B
330
1
100
AcDbSymbolTableRecord
100
AcDbBlockTableRecord
  2
*PAPER_SPACE
340
63B4
  0
BLOCK_RECORD
  5
640D
330
1
100
AcDbSymbolTableRecord
100
AcDbBlockTableRecord
  2
D_FRAME_VIEW@474
340
0
  0
BLOCK_RECORD
  5
646E
330
1
100
AcDbSymbolTableRecord
100
AcDbBlockTableRecord
  2
D_FRAME_VIEW@468
340
0
  0
BLOCK_RECORD
  5
64EA
330
1
100
AcDbSymbolTableRecord
100
AcDbBlockTableRecord
  2
D_FRAME_VIEW@391
340
0
  0
BLOCK_RECORD
  5
6609
330
1
100
AcDbSymbolTableRecord
100
AcDbBlockTableRecord
  2
D_FRAME_VIEW@411
340
0
  0
BLOCK_RECORD
  5
661F
330
1
100
AcDbSymbolTableRecord
100
AcDbBlockTableRecord
  2
D_FRAME_VIEW@403
340
0
  0
BLOCK_RECORD
  5
6635
330
1
100
AcDbSymbolTableRecord
100
AcDbBlockTableRecord
  2
D_FRAME_VIEW@409
340
0
  0
ENDTAB
  0
ENDSEC
  0
SECTION
  2
BLOCKS
  0
BLOCK
  5
D
330
A
100
AcDbEntity
  8
0
100
AcDbBlockBegin
  2
*MODEL_SPACE
 70
     0
 10
0.0
 20
0.0
 30
0.0
  3
*MODEL_SPACE
  1

  0
ENDBLK
  5
E
330
A
100
AcDbEntity
  8
0
100
AcDbBlockEnd
  0
BLOCK
  5
F
330
B
100
AcDbEntity
 67
     1
  8
0
100
AcDbBlockBegin
  2
*PAPER_SPACE
 70
     0
 10
0.0
 20
0.0
 30
0.0
  3
*PAPER_SPACE
  1

  0
ENDBLK
  5
10
330
B
100
AcDbEntity
 67
     1
  8
0
100
AcDbBlockEnd
  0
BLOCK
  5
640E
330
640D
100
AcDbEntity
  8
0
100
AcDbBlockBegin
  2
D_FRAME_VIEW@474
 70
     0
 10
0.0
 20
0.0
 30
0.0
  3
D_FRAME_VIEW@474
  1

  0
LINE
  5
640F
330
640D
100
AcDbEntity
  8
0
  6
________________
 62
     7
370
     9
100
AcDbLine
 10
62.49999999999996
 20
92.40000000015881
 30
0.0
 11
76.49999999999997
 21
92.40000000015881
 31
0.0
  0
LINE
  5
6410
330
640D
100
AcDbEntity
  8
0
  6
________________
 62
     7
370
     9
100
AcDbLine
 10
62.49999999999996
 20
87.40000000015881
 30
0.0
 11
76.49999999999997
 21
87.40000000015881
 31
0.0
  0
LINE
  5
6411
330
640D
100
AcDbEntity
  8
0
  6
________________
 62
     7
370
     9
100
AcDbLine
 10
74.4798294077828
 20
75.70000000016125
 30
0.0
 11
73.31477064551302
 21
75.70000000016125
 31
0.0
  0
LINE
  5
6412
330
640D
100
AcDbEntity
  8
0
  6
________________
 62
     7
370
     9
100
AcDbLine
 10
73.31477064551301
 20
75.70000000016125
 30
0.0
 11
69.50006604037254
 21
75.70000000016125
 31
0.0
  0
LINE
  5
6413
330
640D
100
AcDbEntity
  8
0
  6
________________
 62
     7
370
     9
100
AcDbLine
 10
69.50006604037254
 20
75.70000000016125
 30
0.0
 11
64.52017059221716
 21
75.70000000016125
 31
0.0
  0
LINE
  5
6414
330
640D
100
AcDbEntity
  8
0
  6
________________
 62
     7
370
     9
100
AcDbLine
 10
75.74999999999997
 20
77.40000000016127
 30
0.0
 11
63.24999999999996
 21
77.40000000016127
 31
0.0
  0
LINE
  5
6415
330
640D
100
AcDbEntity
  8
0
  6
________________
 62
   253
370
     9
100
AcDbLine
 10
64.08715789032493
 20
75.95000000016127
 30
0.0
 11
74.91284210967501
 21
75.95000000016127
 31
0.0
  0
LINE
  5
6416
330
640D
100
AcDbEntity
  8
0
  6
________________
 62
     7
370
     9
100
AcDbLine
 10
74.47982940778279
 20
75.70000000016127
 30
0.0
 11
64.52017059221714
 21
75.70000000016127
 31
0.0
  0
LINE
  5
6417
330
640D
100
AcDbEntity
  8
0
  6
________________
 62
     7
370
     9
100
AcDbLine
 10
85.99999999999997
 20
77.50000000016139
 30
0.0
 11
81.99999999999997
 21
77.50000000016139
 31
0.0
  0
LINE
  5
6418
330
640D
100
AcDbEntity
  8
0
  6
________________
 62
   253
370
     9
100
AcDbLine
 10
81.99999999999997
 20
77.50000000016139
 30
0.0
 11
81.99999999999997
 21
78.50000000016139
 31
0.0
  0
LINE
  5
6419
330
640D
100
AcDbEntity
  8
0
  6
________________
 62
   253
370
     9
100
AcDbLine
 10
86.99999999999997
 20
78.50000000016139
 30
0.0
 11
81.99999999999997
 21
78.50000000016139
 31
0.0
  0
ARC
  5
641A
330
640D
100
AcDbEntity
  8
0
  6
________________
 62
     7
370
     9
100
AcDbCircle
 10
85.99999999999997
 20
78.50000000016139
 30
0.0
 40
1.000000000000001
100
AcDbArc
 50
270.0
 51
0.0
  0
LINE
  5
641B
330
640D
100
AcDbEntity
  8
0
  6
________________
 62
   253
370
     9
100
AcDbLine
 10
81.99999999999997
 20
78.50000000016139
 30
0.0
 11
81.99999999999997
 21
85.5000000001614
 31
0.0
  0
LINE
  5
641C
330
640D
100
AcDbEntity
  8
0
  6
________________
 62
     7
370
     9
100
AcDbLine
 10
81.99999999999997
 20
85.5000000001614
 30
0.0
 11
86.99999999999997
 21
85.5000000001614
 31
0.0
  0
LINE
  5
641D
330
640D
100
AcDbEntity
  8
0
  6
________________
 62
     7
370
     9
100
AcDbLine
 10
86.99999999999997
 20
85.5000000001614
 30
0.0
 11
86.99999999999997
 21
85.31662479051684
 31
0.0
  0
ARC
  5
641E
330
640D
100
AcDbEntity
  8
0
  6
________________
 62
   253
370
     9
100
AcDbCircle
 10
-90.77503390582841
 20
82.00000000016259
 30
0.0
 40
5.02502547159339
210
0.0
220
0.0
230
-1.0
100
AcDbArc
 50
318.6984883702304
 51
41.30151162976966
  0
LINE
  5
641F
330
640D
100
AcDbEntity
  8
0
  6
________________
 62
     7
370
     9
100
AcDbLine
 10
86.99999999999997
 20
78.68337520980596
 30
0.0
 11
86.99999999999997
 21
78.50000000016139
 31
0.0
  0
LINE
  5
6420
330
640D
100
AcDbEntity
  8
0
  6
________________
 62
     7
370
     9
100
AcDbLine
 10
56.99999999999997
 20
85.5000000001614
 30
0.0
 11
81.99999999999997
 21
85.5000000001614
 31
0.0
  0
LINE
  5
6421
330
640D
100
AcDbEntity
  8
0
  6
________________
 62
   253
370
     9
100
AcDbLine
 10
56.99999999999997
 20
78.50000000016139
 30
0.0
 11
81.99999999999997
 21
78.50000000016139
 31
0.0
  0
LINE
  5
6422
330
640D
100
AcDbEntity
  8
0
  6
________________
 62
   253
370
     9
100
AcDbLine
 10
56.99999999999997
 20
85.5000000001614
 30
0.0
 11
56.99999999999997
 21
78.50000000016139
 31
0.0
  0
LINE
  5
6423
330
640D
100
AcDbEntity
  8
0
  6
________________
 62
     7
370
     9
100
AcDbLine
 10
81.99999999999997
 20
77.50000000016139
 30
0.0
 11
56.99999999999997
 21
77.50000000016139
 31
0.0
  0
LINE
  5
6424
330
640D
100
AcDbEntity
  8
0
  6
________________
 62
   253
370
     9
100
AcDbLine
 10
56.99999999999997
 20
77.50000000016139
 30
0.0
 11
56.99999999999997
 21
78.50000000016139
 31
0.0
  0
LINE
  5
6425
330
640D
100
AcDbEntity
  8
0
  6
________________
 62
     7
370
     9
100
AcDbLine
 10
56.99999999999997
 20
77.50000000016139
 30
0.0
 11
52.99999999999998
 21
77.50000000016139
 31
0.0
  0
ARC
  5
6426
330
640D
100
AcDbEntity
  8
0
  6
________________
 62
     7
370
     9
100
AcDbCircle
 10
52.99999999999998
 20
78.50000000016139
 30
0.0
 40
1.000000000000001
100
AcDbArc
 50
180.0
 51
270.0
  0
LINE
  5
6427
330
640D
100
AcDbEntity
  8
0
  6
________________
 62
   253
370
     9
100
AcDbLine
 10
56.99999999999997
 20
78.50000000016139
 30
0.0
 11
51.99999999999998
 21
78.50000000016139
 31
0.0
  0
LINE
  5
6428
330
640D
100
AcDbEntity
  8
0
  6
________________
 62
     7
370
     9
100
AcDbLine
 10
51.99999999999998
 20
78.50000000016139
 30
0.0
 11
51.99999999999998
 21
78.683375209806
 31
0.0
  0
ARC
  5
6429
330
640D
100
AcDbEntity
  8
0
  6
________________
 62
   253
370
     9
100
AcDbCircle
 10
-48.22496609417149
 20
82.00000000016023
 30
0.0
 40
5.025025471593399
210
0.0
220
0.0
230
-1.0
100
AcDbArc
 50
138.6984883702311
 51
221.301511629769
  0
LINE
  5
642A
330
640D
100
AcDbEntity
  8
0
  6
________________
 62
     7
370
     9
100
AcDbLine
 10
51.99999999999998
 20
85.3166247905168
 30
0.0
 11
51.99999999999998
 21
85.5000000001614
 31
0.0
  0
LINE
  5
642B
330
640D
100
AcDbEntity
  8
0
  6
________________
 62
     7
370
     9
100
AcDbLine
 10
51.99999999999998
 20
85.5000000001614
 30
0.0
 11
56.99999999999997
 21
85.5000000001614
 31
0.0
  0
ARC
  5
642C
330
640D
100
AcDbEntity
  8
0
  6
________________
 62
     7
370
     9
100
AcDbCircle
 10
-85.99999999999997
 20
85.31662479051684
 30
0.0
 40
1.000000000000001
210
0.0
220
0.0
230
-1.0
100
AcDbArc
 50
180.0
 51
213.5573097619215
  0
ARC
  5
642D
330
640D
100
AcDbEntity
  8
0
  6
________________
 62
     7
370
     9
100
AcDbCircle
 10
91.0000000000001
 20
82.00000000016136
 30
0.0
 40
5.000000000000147
100
AcDbArc
 50
146.4426902380793
 51
213.5573097619207
  0
ARC
  5
642E
330
640D
100
AcDbEntity
  8
0
  6
________________
 62
     7
370
     9
100
AcDbCircle
 10
85.99999999999997
 20
78.68337520980596
 30
0.0
 40
1.000000000000001
100
AcDbArc
 50
0.0
 51
33.55730976192125
  0
ARC
  5
642F
330
640D
100
AcDbEntity
  8
0
  6
________________
 62
     7
370
     9
100
AcDbCircle
 10
47.99999999999979
 20
82.00000000016144
 30
0.0
 40
5.000000000000189
100
AcDbArc
 50
326.44269023808
 51
33.55730976191995
  0
ARC
  5
6430
330
640D
100
AcDbEntity
  8
0
  6
________________
 62
     7
370
     9
100
AcDbCircle
 10
-52.99999999999998
 20
85.3166247905168
 30
0.0
 40
0.9999999999999996
210
0.0
220
0.0
230
-1.0
100
AcDbArc
 50
326.4426902380793
 51
0.0000000000001137
  0
ARC
  5
6431
330
640D
100
AcDbEntity
  8
0
  6
________________
 62
     7
370
     9
100
AcDbCircle
 10
52.99999999999998
 20
78.683375209806
 30
0.0
 40
0.999999999999992
100
AcDbArc
 50
146.4426902380792
 51
180.0
  0
LINE
  5
6432
330
640D
100
AcDbEntity
  8
0
  6
________________
 62
     7
370
     9
100
AcDbLine
 10
52.5000000000017
 20
85.9000000001614
 30
0.0
 11
52.5000000000017
 21
85.5000000001614
 31
0.0
  0
LINE
  5
6433
330
640D
100
AcDbEntity
  8
0
  6
________________
 62
     7
370
     9
100
AcDbLine
 10
57.50000000000124
 20
85.9000000001614
 30
0.0
 11
52.50000000000125
 21
85.9000000001614
 31
0.0
  0
LINE
  5
6434
330
640D
100
AcDbEntity
  8
0
  6
________________
 62
   253
370
     9
100
AcDbLine
 10
57.50000000000124
 20
85.9000000001614
 30
0.0
 11
57.50000000000124
 21
85.5000000001614
 31
0.0
  0
LINE
  5
6435
330
640D
100
AcDbEntity
  8
0
  6
________________
 62
   253
370
     9
100
AcDbLine
 10
81.49999999999908
 20
85.9000000001614
 30
0.0
 11
81.49999999999908
 21
85.5000000001614
 31
0.0
  0
LINE
  5
6436
330
640D
100
AcDbEntity
  8
0
  6
________________
 62
     7
370
     9
100
AcDbLine
 10
86.49999999999864
 20
85.9000000001614
 30
0.0
 11
86.49999999999864
 21
85.5000000001614
 31
0.0
  0
LINE
  5
6437
330
640D
100
AcDbEntity
  8
0
  6
________________
 62
     7
370
     9
100
AcDbLine
 10
86.49999999999908
 20
85.9000000001614
 30
0.0
 11
81.49999999999908
 21
85.9000000001614
 31
0.0
  0
LINE
  5
6438
330
640D
100
AcDbEntity
  8
0
  6
________________
 62
     7
370
     9
100
AcDbLine
 10
81.49999999999908
 20
85.9000000001614
 30
0.0
 11
57.50000000000124
 21
85.9000000001614
 31
0.0
  0
LINE
  5
6439
330
640D
100
AcDbEntity
  8
0
  6
________________
 62
     7
370
     9
100
AcDbLine
 10
52.50000000000657
 20
94.30000000015824
 30
0.0
 11
52.50000000000657
 21
93.90000000015824
 31
0.0
  0
LINE
  5
643A
330
640D
100
AcDbEntity
  8
0
  6
________________
 62
   253
370
     9
100
AcDbLine
 10
57.50000000000468
 20
94.30000000015825
 30
0.0
 11
57.50000000000468
 21
93.90000000015824
 31
0.0
  0
LINE
  5
643B
330
640D
100
AcDbEntity
  8
0
  6
________________
 62
     7
370
     9
100
AcDbLine
 10
57.50000000000468
 20
93.90000000015824
 30
0.0
 11
52.50000000000469
 21
93.90000000015824
 31
0.0
  0
LINE
  5
643C
330
640D
100
AcDbEntity
  8
0
  6
________________
 62
     7
370
     9
100
AcDbLine
 10
81.49999999999562
 20
93.90000000015824
 30
0.0
 11
57.50000000000468
 21
93.90000000015824
 31
0.0
  0
LINE
  5
643D
330
640D
100
AcDbEntity
  8
0
  6
________________
 62
   253
370
     9
100
AcDbLine
 10
81.49999999999562
 20
94.30000000015825
 30
0.0
 11
81.49999999999562
 21
93.90000000015824
 31
0.0
  0
LINE
  5
643E
330
640D
100
AcDbEntity
  8
0
  6
________________
 62
     7
370
     9
100
AcDbLine
 10
86.49999999999375
 20
94.30000000015824
 30
0.0
 11
86.49999999999375
 21
93.90000000015824
 31
0.0
  0
LINE
  5
643F
330
640D
100
AcDbEntity
  8
0
  6
________________
 62
     7
370
     9
100
AcDbLine
 10
86.49999999999564
 20
93.90000000015824
 30
0.0
 11
81.49999999999562
 21
93.90000000015824
 31
0.0
  0
LINE
  5
6440
330
640D
100
AcDbEntity
  8
0
  6
________________
 62
   253
370
     9
100
AcDbLine
 10
81.99999999999999
 20
94.30000000015824
 30
0.0
 11
81.99999999999999
 21
101.3000000001582
 31
0.0
  0
LINE
  5
6441
330
640D
100
AcDbEntity
  8
0
  6
________________
 62
   253
370
     9
100
AcDbLine
 10
81.99999999999999
 20
101.3000000001582
 30
0.0
 11
86.99999999999999
 21
101.3000000001582
 31
0.0
  0
LINE
  5
6442
330
640D
100
AcDbEntity
  8
0
  6
________________
 62
     7
370
     9
100
AcDbLine
 10
86.99999999999999
 20
101.3000000001582
 30
0.0
 11
86.99999999999999
 21
101.1166247905136
 31
0.0
  0
ARC
  5
6443
330
640D
100
AcDbEntity
  8
0
  6
________________
 62
   253
370
     9
100
AcDbCircle
 10
-90.77503390582848
 20
97.80000000015943
 30
0.0
 40
5.025025471593406
210
0.0
220
0.0
230
-1.0
100
AcDbArc
 50
318.6984883702311
 51
41.30151162976887
  0
LINE
  5
6444
330
640D
100
AcDbEntity
  8
0
  6
________________
 62
     7
370
     9
100
AcDbLine
 10
86.99999999999999
 20
94.48337520980284
 30
0.0
 11
86.99999999999999
 21
94.30000000015824
 31
0.0
  0
LINE
  5
6445
330
640D
100
AcDbEntity
  8
0
  6
________________
 62
     7
370
     9
100
AcDbLine
 10
86.99999999999999
 20
94.30000000015824
 30
0.0
 11
81.99999999999999
 21
94.30000000015824
 31
0.0
  0
LINE
  5
6446
330
640D
100
AcDbEntity
  8
0
  6
________________
 62
   253
370
     9
100
AcDbLine
 10
81.99999999999999
 20
101.3000000001582
 30
0.0
 11
56.99999999999999
 21
101.3000000001582
 31
0.0
  0
LINE
  5
6447
330
640D
100
AcDbEntity
  8
0
  6
________________
 62
   253
370
     9
100
AcDbLine
 10
56.99999999999999
 20
101.3000000001582
 30
0.0
 11
56.99999999999999
 21
102.3000000001582
 31
0.0
  0
LINE
  5
6448
330
640D
100
AcDbEntity
  8
0
  6
________________
 62
     7
370
     9
100
AcDbLine
 10
56.99999999999999
 20
102.3000000001582
 30
0.0
 11
81.99999999999999
 21
102.3000000001582
 31
0.0
  0
LINE
  5
6449
330
640D
100
AcDbEntity
  8
0
  6
________________
 62
   253
370
     9
100
AcDbLine
 10
81.99999999999999
 20
101.3000000001582
 30
0.0
 11
81.99999999999999
 21
102.3000000001582
 31
0.0
  0
LINE
  5
644A
330
640D
100
AcDbEntity
  8
0
  6
________________
 62
   253
370
     9
100
AcDbLine
 10
56.99999999999999
 20
101.3000000001582
 30
0.0
 11
56.99999999999999
 21
94.30000000015824
 31
0.0
  0
LINE
  5
644B
330
640D
100
AcDbEntity
  8
0
  6
________________
 62
     7
370
     9
100
AcDbLine
 10
56.99999999999999
 20
94.30000000015824
 30
0.0
 11
81.99999999999999
 21
94.30000000015824
 31
0.0
  0
LINE
  5
644C
330
640D
100
AcDbEntity
  8
0
  6
________________
 62
     7
370
     9
100
AcDbLine
 10
81.99999999999999
 20
102.3000000001582
 30
0.0
 11
85.99999999999999
 21
102.3000000001582
 31
0.0
  0
ARC
  5
644D
330
640D
100
AcDbEntity
  8
0
  6
________________
 62
     7
370
     9
100
AcDbCircle
 10
-85.99999999999999
 20
101.3000000001582
 30
0.0
 40
1.000000000000001
210
0.0
220
0.0
230
-1.0
100
AcDbArc
 50
90.0
 51
180.0
  0
LINE
  5
644E
330
640D
100
AcDbEntity
  8
0
  6
________________
 62
   253
370
     9
100
AcDbLine
 10
51.99999999999999
 20
101.3000000001582
 30
0.0
 11
56.99999999999999
 21
101.3000000001582
 31
0.0
  0
LINE
  5
644F
330
640D
100
AcDbEntity
  8
0
  6
________________
 62
     7
370
     9
100
AcDbLine
 10
51.99999999999999
 20
94.30000000015824
 30
0.0
 11
51.99999999999999
 21
94.48337520980284
 31
0.0
  0
ARC
  5
6450
330
640D
100
AcDbEntity
  8
0
  6
________________
 62
   253
370
     9
100
AcDbCircle
 10
-48.22496609417151
 20
97.80000000015707
 30
0.0
 40
5.025025471593399
210
0.0
220
0.0
230
-1.0
100
AcDbArc
 50
138.6984883702311
 51
221.301511629769
  0
LINE
  5
6451
330
640D
100
AcDbEntity
  8
0
  6
________________
 62
     7
370
     9
100
AcDbLine
 10
51.99999999999999
 20
101.1166247905136
 30
0.0
 11
51.99999999999999
 21
101.3000000001582
 31
0.0
  0
LINE
  5
6452
330
640D
100
AcDbEntity
  8
0
  6
________________
 62
     7
370
     9
100
AcDbLine
 10
56.99999999999999
 20
94.30000000015824
 30
0.0
 11
51.99999999999999
 21
94.30000000015824
 31
0.0
  0
ARC
  5
6453
330
640D
100
AcDbEntity
  8
0
  6
________________
 62
     7
370
     9
100
AcDbCircle
 10
-52.99999999999999
 20
101.3000000001582
 30
0.0
 40
1.000000000000001
210
0.0
220
0.0
230
-1.0
100
AcDbArc
 50
0.0
 51
90.0
  0
LINE
  5
6454
330
640D
100
AcDbEntity
  8
0
  6
________________
 62
     7
370
     9
100
AcDbLine
 10
52.99999999999999
 20
102.3000000001582
 30
0.0
 11
56.99999999999999
 21
102.3000000001582
 31
0.0
  0
ARC
  5
6455
330
640D
100
AcDbEntity
  8
0
  6
________________
 62
     7
370
     9
100
AcDbCircle
 10
91.00000000000017
 20
97.8000000001582
 30
0.0
 40
5.000000000000189
100
AcDbArc
 50
146.44269023808
 51
213.55730976192
  0
ARC
  5
6456
330
640D
100
AcDbEntity
  8
0
  6
________________
 62
     7
370
     9
100
AcDbCircle
 10
-85.99999999999999
 20
94.48337520980284
 30
0.0
 40
0.9999999999999939
210
0.0
220
0.0
230
-1.0
100
AcDbArc
 50
146.4426902380795
 51
180.0
  0
ARC
  5
6457
330
640D
100
AcDbEntity
  8
0
  6
________________
 62
     7
370
     9
100
AcDbCircle
 10
85.99999999999999
 20
101.1166247905136
 30
0.0
 40
0.9999999999999861
100
AcDbArc
 50
326.4426902380794
 51
0.0
  0
ARC
  5
6458
330
640D
100
AcDbEntity
  8
0
  6
________________
 62
     7
370
     9
100
AcDbCircle
 10
-52.99999999999999
 20
94.48337520980284
 30
0.0
 40
1.000000000000001
210
0.0
220
0.0
230
-1.0
100
AcDbArc
 50
0.0
 51
33.55730976192081
  0
ARC
  5
6459
330
640D
100
AcDbEntity
  8
0
  6
________________
 62
     7
370
     9
100
AcDbCircle
 10
47.99999999999982
 20
97.8000000001583
 30
0.0
 40
5.000000000000177
100
AcDbArc
 50
326.4426902380799
 51
33.55730976192012
  0
ARC
  5
645A
330
640D
100
AcDbEntity
  8
0
  6
________________
 62
     7
370
     9
100
AcDbCircle
 10
52.99999999999999
 20
101.1166247905136
 30
0.0
 40
1.000000000000001
100
AcDbArc
 50
180.0
 51
213.5573097619208
  0
LINE
  5
645B
330
640D
100
AcDbEntity
  8
0
  6
________________
 62
     7
370
     9
100
AcDbLine
 10
64.49999999999997
 20
87.30000000015825
 30
0.0
 11
74.49999999999997
 21
87.30000000015825
 31
0.0
  0
LINE
  5
645C
330
640D
100
AcDbEntity
  8
0
  6
________________
 62
   253
370
     9
100
AcDbLine
 10
66.99999999999996
 20
87.30000000015825
 30
0.0
 11
66.99999999999996
 21
85.9000000001614
 31
0.0
  0
LINE
  5
645D
330
640D
100
AcDbEntity
  8
0
  6
________________
 62
   253
370
     9
100
AcDbLine
 10
71.99999999999997
 20
85.9000000001614
 30
0.0
 11
71.99999999999997
 21
87.30000000015825
 31
0.0
  0
LINE
  5
645E
330
640D
100
AcDbEntity
  8
0
  6
________________
 62
     7
370
     9
100
AcDbLine
 10
62.49999999999996
 20
92.40000000015881
 30
0.0
 11
62.49999999999996
 21
87.40000000015881
 31
0.0
  0
LINE
  5
645F
330
640D
100
AcDbEntity
  8
0
  6
________________
 62
     7
370
     9
100
AcDbLine
 10
76.49999999999997
 20
87.40000000015881
 30
0.0
 11
76.49999999999997
 21
92.40000000015881
 31
0.0
  0
LINE
  5
6460
330
640D
100
AcDbEntity
  8
0
  6
________________
 62
     7
370
     9
100
AcDbLine
 10
75.74999999999997
 20
77.40000000016127
 30
0.0
 11
75.74999999999997
 21
77.50000000016139
 31
0.0
  0
LINE
  5
6461
330
640D
100
AcDbEntity
  8
0
  6
________________
 62
     7
370
     9
100
AcDbLine
 10
63.24999999999997
 20
77.50000000016139
 30
0.0
 11
63.24999999999997
 21
77.40000000016127
 31
0.0
  0
LINE
  5
6462
330
640D
100
AcDbEntity
  8
0
  6
________________
 62
     7
370
     9
100
AcDbLine
 10
63.24999999999996
 20
77.40000000016127
 30
0.0
 11
64.08715789032492
 21
75.95000000016127
 31
0.0
  0
LINE
  5
6463
330
640D
100
AcDbEntity
  8
0
  6
________________
 62
     7
370
     9
100
AcDbLine
 10
74.91284210967501
 20
75.95000000016127
 30
0.0
 11
75.74999999999997
 21
77.40000000016127
 31
0.0
  0
ARC
  5
6464
330
640D
100
AcDbEntity
  8
0
  6
________________
 62
     7
370
     9
100
AcDbCircle
 10
74.47982940778279
 20
76.20000000016127
 30
0.0
 40
0.5000000000000004
100
AcDbArc
 50
270.0
 51
330.0
  0
ARC
  5
6465
330
640D
100
AcDbEntity
  8
0
  6
________________
 62
     7
370
     9
100
AcDbCircle
 10
64.52017059221714
 20
76.20000000016127
 30
0.0
 40
0.500000000000002
100
AcDbArc
 50
210.0
 51
270.0
  0
LINE
  5
6466
330
640D
100
AcDbEntity
  8
0
  6
________________
 62
     7
370
     9
100
AcDbLine
 10
66.49999999999996
 20
87.29998501015824
 30
0.0
 11
66.49999999999996
 21
85.9000000001614
 31
0.0
  0
LINE
  5
6467
330
640D
100
AcDbEntity
  8
0
  6
________________
 62
     7
370
     9
100
AcDbLine
 10
72.49999999999997
 20
85.9000000001614
 30
0.0
 11
72.49999999999997
 21
87.29998501015824
 31
0.0
  0
LINE
  5
6468
330
640D
100
AcDbEntity
  8
0
  6
________________
 62
     7
370
     9
100
AcDbLine
 10
74.49999999999997
 20
87.30000000015825
 30
0.0
 11
74.49999999999997
 21
87.40000000015881
 31
0.0
  0
LINE
  5
6469
330
640D
100
AcDbEntity
  8
0
  6
________________
 62
     7
370
     9
100
AcDbLine
 10
74.49999999999997
 20
92.4000000004809
 30
0.0
 11
74.49999999999997
 21
93.90000000015824
 31
0.0
  0
LINE
  5
646A
330
640D
100
AcDbEntity
  8
0
  6
________________
 62
     7
370
     9
100
AcDbLine
 10
64.49999999999997
 20
93.90000000015824
 30
0.0
 11
64.49999999999997
 21
92.4000000004809
 31
0.0
  0
LINE
  5
646B
330
640D
100
AcDbEntity
  8
0
  6
________________
 62
     7
370
     9
100
AcDbLine
 10
64.49999999999997
 20
87.40000000015881
 30
0.0
 11
64.49999999999997
 21
87.30000000015825
 31
0.0
  0
ENDBLK
  5
646C
330
640D
100
AcDbEntity
  8
0
100
AcDbBlockEnd
  0
BLOCK
  5
646F
330
646E
100
AcDbEntity
  8
0
100
AcDbBlockBegin
  2
D_FRAME_VIEW@468
 70
     0
 10
0.0
 20
0.0
 30
0.0
  3
D_FRAME_VIEW@468
  1

  0
LINE
  5
6470
330
646E
100
AcDbEntity
  8
0
  6
________________
 62
     7
370
     9
100
AcDbLine
 10
268.6000000003015
 20
152.0000000000181
 30
0.0
 11
268.599999999381
 21
166.0000000000181
 31
0.0
  0
LINE
  5
6471
330
646E
100
AcDbEntity
  8
0
  6
________________
 62
     7
370
     9
100
AcDbLine
 10
273.6000000003015
 20
152.0000000003469
 30
0.0
 11
273.599999999381
 21
166.0000000003469
 31
0.0
  0
LINE
  5
6472
330
646E
100
AcDbEntity
  8
0
  6
________________
 62
     7
370
     9
100
AcDbLine
 10
268.6000000003014
 20
241.9999999999842
 30
0.0
 11
268.5999999993809
 21
255.9999999999841
 31
0.0
  0
LINE
  5
6473
330
646E
100
AcDbEntity
  8
0
  6
________________
 62
     7
370
     9
100
AcDbLine
 10
273.6000000003014
 20
242.0000000003129
 30
0.0
 11
273.5999999993809
 21
256.0000000003129
 31
0.0
  0
LINE
  5
6474
330
646E
100
AcDbEntity
  8
0
  6
________________
 62
     7
370
     9
100
AcDbLine
 10
283.5999999998388
 20
165.2500000000264
 30
0.0
 11
283.5999999998388
 21
152.7500000000264
 31
0.0
  0
LINE
  5
6475
330
646E
100
AcDbEntity
  8
0
  6
________________
 62
   253
370
     9
100
AcDbLine
 10
285.0499999998387
 20
153.5871578903513
 30
0.0
 11
285.0499999998387
 21
164.4128421097014
 31
0.0
  0
LINE
  5
6476
330
646E
100
AcDbEntity
  8
0
  6
________________
 62
     7
370
     9
100
AcDbLine
 10
285.2999999998388
 20
163.9798294078092
 30
0.0
 11
285.2999999998388
 21
154.0201705922435
 31
0.0
  0
LINE
  5
6477
330
646E
100
AcDbEntity
  8
0
  6
________________
 62
     7
370
     9
100
AcDbLine
 10
283.6000000002398
 20
255.250000000135
 30
0.0
 11
283.5999999994377
 21
242.750000000135
 31
0.0
  0
LINE
  5
6478
330
646E
100
AcDbEntity
  8
0
  6
________________
 62
   253
370
     9
100
AcDbLine
 10
285.0499999994914
 20
243.5871578903669
 30
0.0
 11
285.0500000001861
 21
254.412842109717
 31
0.0
  0
LINE
  5
6479
330
646E
100
AcDbEntity
  8
0
  6
________________
 62
     7
370
     9
100
AcDbLine
 10
285.3000000001583
 20
253.9798294078088
 30
0.0
 11
285.2999999995192
 21
244.0201705922431
 31
0.0
  0
ARC
  5
647A
330
646E
100
AcDbEntity
  8
0
  6
________________
 62
   253
370
     9
100
AcDbCircle
 10
278.9999999998386
 20
258.8799089081409
 30
0.0
 40
2.766461776209593
100
AcDbArc
 50
2.487970595357782
 51
177.5120294046423
  0
LINE
  5
647B
330
646E
100
AcDbEntity
  8
0
  6
________________
 62
   253
370
     9
100
AcDbLine
 10
276.2361460078758
 20
258.999999999982
 30
0.0
 11
275.6833752094832
 21
258.999999999982
 31
0.0
  0
ARC
  5
647C
330
646E
100
AcDbEntity
  8
0
  6
________________
 62
   253
370
     9
100
AcDbCircle
 10
-278.9999999998398
 20
258.9910170831337
 30
0.0
 40
3.316636955230841
210
0.0
220
0.0
230
-1.0
100
AcDbArc
 50
0.1551824511790139
 51
179.8448175488191
  0
LINE
  5
647D
330
646E
100
AcDbEntity
  8
0
  6
________________
 62
   253
370
     9
100
AcDbLine
 10
281.7638539918014
 20
258.999999999982
 30
0.0
 11
282.3166247901941
 21
258.999999999982
 31
0.0
  0
LINE
  5
647E
330
646E
100
AcDbEntity
  8
0
  6
________________
 62
   253
370
     9
100
AcDbLine
 10
281.7638539918015
 20
148.999999999982
 30
0.0
 11
281.7638539918015
 21
258.9999999999819
 31
0.0
  0
ARC
  5
647F
330
646E
100
AcDbEntity
  8
0
  6
________________
 62
   253
370
     9
100
AcDbCircle
 10
278.9999999998386
 20
149.120091091823
 30
0.0
 40
2.766461776209593
100
AcDbArc
 50
182.4879705953578
 51
357.5120294046417
  0
LINE
  5
6480
330
646E
100
AcDbEntity
  8
0
  6
________________
 62
   253
370
     9
100
AcDbLine
 10
276.2361460078758
 20
258.999999999982
 30
0.0
 11
276.2361460078758
 21
148.999999999982
 31
0.0
  0
ARC
  5
6481
330
646E
100
AcDbEntity
  8
0
  6
________________
 62
   253
370
     9
100
AcDbCircle
 10
-278.9999999998374
 20
149.0082655669027
 30
0.0
 40
3.316635089907288
210
0.0
220
0.0
230
-1.0
100
AcDbArc
 50
180.1427900800756
 51
359.8572099199225
  0
LINE
  5
6482
330
646E
100
AcDbEntity
  8
0
  6
________________
 62
   253
370
     9
100
AcDbLine
 10
275.6833752094832
 20
148.999999999982
 30
0.0
 11
276.2361460078758
 21
148.999999999982
 31
0.0
  0
LINE
  5
6483
330
646E
100
AcDbEntity
  8
0
  6
________________
 62
   253
370
     9
100
AcDbLine
 10
282.3166247901941
 20
148.999999999982
 30
0.0
 11
281.7638539918015
 21
148.999999999982
 31
0.0
  0
LINE
  5
6484
330
646E
100
AcDbEntity
  8
0
  6
________________
 62
     7
370
     9
100
AcDbLine
 10
283.4999999998386
 20
262.9999999999819
 30
0.0
 11
283.4999999998386
 21
258.999999999982
 31
0.0
  0
LINE
  5
6485
330
646E
100
AcDbEntity
  8
0
  6
________________
 62
   253
370
     9
100
AcDbLine
 10
282.4999999998386
 20
258.999999999982
 30
0.0
 11
283.4999999998386
 21
258.999999999982
 31
0.0
  0
LINE
  5
6486
330
646E
100
AcDbEntity
  8
0
  6
________________
 62
   253
370
     9
100
AcDbLine
 10
282.4999999998386
 20
263.9999999999819
 30
0.0
 11
282.4999999998386
 21
258.999999999982
 31
0.0
  0
ARC
  5
6487
330
646E
100
AcDbEntity
  8
0
  6
________________
 62
     7
370
     9
100
AcDbCircle
 10
282.4999999998386
 20
262.9999999999819
 30
0.0
 40
1.000000000000001
100
AcDbArc
 50
0.0000000000000035
 51
90.0
  0
LINE
  5
6488
330
646E
100
AcDbEntity
  8
0
  6
________________
 62
     7
370
     9
100
AcDbLine
 10
275.4999999998386
 20
258.999999999982
 30
0.0
 11
275.4999999998386
 21
148.999999999982
 31
0.0
  0
LINE
  5
6489
330
646E
100
AcDbEntity
  8
0
  6
________________
 62
   253
370
     9
100
AcDbLine
 10
275.6833752094832
 20
258.999999999982
 30
0.0
 11
275.4999999998386
 21
258.999999999982
 31
0.0
  0
LINE
  5
648A
330
646E
100
AcDbEntity
  8
0
  6
________________
 62
   253
370
     9
100
AcDbLine
 10
275.6833752094832
 20
148.999999999982
 30
0.0
 11
275.6833752094832
 21
258.9999999999819
 31
0.0
  0
LINE
  5
648B
330
646E
100
AcDbEntity
  8
0
  6
________________
 62
   253
370
     9
100
AcDbLine
 10
275.4999999998386
 20
148.999999999982
 30
0.0
 11
275.6833752094832
 21
148.999999999982
 31
0.0
  0
LINE
  5
648C
330
646E
100
AcDbEntity
  8
0
  6
________________
 62
   253
370
     9
100
AcDbLine
 10
282.4999999998386
 20
258.999999999982
 30
0.0
 11
282.4999999998386
 21
148.999999999982
 31
0.0
  0
LINE
  5
648D
330
646E
100
AcDbEntity
  8
0
  6
________________
 62
   253
370
     9
100
AcDbLine
 10
282.3166247901941
 20
148.999999999982
 30
0.0
 11
282.4999999998387
 21
148.999999999982
 31
0.0
  0
LINE
  5
648E
330
646E
100
AcDbEntity
  8
0
  6
________________
 62
   253
370
     9
100
AcDbLine
 10
282.3166247901941
 20
258.999999999982
 30
0.0
 11
282.3166247901941
 21
148.999999999982
 31
0.0
  0
LINE
  5
648F
330
646E
100
AcDbEntity
  8
0
  6
________________
 62
   253
370
     9
100
AcDbLine
 10
282.4999999998386
 20
258.999999999982
 30
0.0
 11
282.3166247901941
 21
258.999999999982
 31
0.0
  0
LINE
  5
6490
330
646E
100
AcDbEntity
  8
0
  6
________________
 62
     7
370
     9
100
AcDbLine
 10
275.4999999998386
 20
258.999999999982
 30
0.0
 11
275.4999999998386
 21
263.9999999999819
 31
0.0
  0
LINE
  5
6491
330
646E
100
AcDbEntity
  8
0
  6
________________
 62
     7
370
     9
100
AcDbLine
 10
275.4999999998386
 20
263.9999999999819
 30
0.0
 11
282.4999999998386
 21
263.9999999999819
 31
0.0
  0
LINE
  5
6492
330
646E
100
AcDbEntity
  8
0
  6
________________
 62
     7
370
     9
100
AcDbLine
 10
283.4999999998386
 20
258.999999999982
 30
0.0
 11
283.4999999998386
 21
148.999999999982
 31
0.0
  0
LINE
  5
6493
330
646E
100
AcDbEntity
  8
0
  6
________________
 62
   253
370
     9
100
AcDbLine
 10
282.4999999998386
 20
148.999999999982
 30
0.0
 11
283.4999999998386
 21
148.999999999982
 31
0.0
  0
LINE
  5
6494
330
646E
100
AcDbEntity
  8
0
  6
________________
 62
   253
370
     9
100
AcDbLine
 10
282.4999999998386
 20
148.999999999982
 30
0.0
 11
282.4999999998386
 21
143.999999999982
 31
0.0
  0
LINE
  5
6495
330
646E
100
AcDbEntity
  8
0
  6
________________
 62
     7
370
     9
100
AcDbLine
 10
283.4999999998386
 20
148.999999999982
 30
0.0
 11
283.4999999998386
 21
144.999999999982
 31
0.0
  0
ARC
  5
6496
330
646E
100
AcDbEntity
  8
0
  6
________________
 62
     7
370
     9
100
AcDbCircle
 10
282.4999999998386
 20
144.999999999982
 30
0.0
 40
1.000000000000001
100
AcDbArc
 50
270.0
 51
0.0
  0
LINE
  5
6497
330
646E
100
AcDbEntity
  8
0
  6
________________
 62
     7
370
     9
100
AcDbLine
 10
282.4999999998386
 20
143.999999999982
 30
0.0
 11
275.4999999998386
 21
143.999999999982
 31
0.0
  0
LINE
  5
6498
330
646E
100
AcDbEntity
  8
0
  6
________________
 62
     7
370
     9
100
AcDbLine
 10
275.4999999998386
 20
143.999999999982
 30
0.0
 11
275.4999999998386
 21
148.999999999982
 31
0.0
  0
LINE
  5
6499
330
646E
100
AcDbEntity
  8
0
  6
________________
 62
   253
370
     9
100
AcDbLine
 10
275.0999999998386
 20
149.4999999999945
 30
0.0
 11
275.4999999998385
 21
149.4999999999945
 31
0.0
  0
LINE
  5
649A
330
646E
100
AcDbEntity
  8
0
  6
________________
 62
   253
370
     9
100
AcDbLine
 10
275.0999999998386
 20
258.4999999999847
 30
0.0
 11
275.4999999998385
 21
258.4999999999847
 31
0.0
  0
LINE
  5
649B
330
646E
100
AcDbEntity
  8
0
  6
________________
 62
     7
370
     9
100
AcDbLine
 10
275.0999999998386
 20
258.4999999999847
 30
0.0
 11
275.0999999998386
 21
149.4999999999946
 31
0.0
  0
LINE
  5
649C
330
646E
100
AcDbEntity
  8
0
  6
________________
 62
     7
370
     9
100
AcDbLine
 10
275.0999999998386
 20
144.499999999995
 30
0.0
 11
275.4999999998385
 21
144.499999999995
 31
0.0
  0
LINE
  5
649D
330
646E
100
AcDbEntity
  8
0
  6
________________
 62
     7
370
     9
100
AcDbLine
 10
275.0999999998386
 20
149.4999999999945
 30
0.0
 11
275.0999999998386
 21
144.4999999999945
 31
0.0
  0
LINE
  5
649E
330
646E
100
AcDbEntity
  8
0
  6
________________
 62
     7
370
     9
100
AcDbLine
 10
275.0999999998386
 20
263.4999999999842
 30
0.0
 11
275.4999999998385
 21
263.4999999999842
 31
0.0
  0
LINE
  5
649F
330
646E
100
AcDbEntity
  8
0
  6
________________
 62
     7
370
     9
100
AcDbLine
 10
275.0999999998386
 20
263.4999999999847
 30
0.0
 11
275.0999999998386
 21
258.4999999999847
 31
0.0
  0
LINE
  5
64A0
330
646E
100
AcDbEntity
  8
0
  6
________________
 62
   253
370
     9
100
AcDbLine
 10
266.6999999998417
 20
149.5000000000217
 30
0.0
 11
267.0999999998417
 21
149.5000000000217
 31
0.0
  0
LINE
  5
64A1
330
646E
100
AcDbEntity
  8
0
  6
________________
 62
   253
370
     9
100
AcDbLine
 10
266.6999999998417
 20
258.4999999999806
 30
0.0
 11
267.0999999998417
 21
258.4999999999806
 31
0.0
  0
LINE
  5
64A2
330
646E
100
AcDbEntity
  8
0
  6
________________
 62
     7
370
     9
100
AcDbLine
 10
267.0999999998417
 20
258.4999999999806
 30
0.0
 11
267.0999999998418
 21
149.5000000000217
 31
0.0
  0
LINE
  5
64A3
330
646E
100
AcDbEntity
  8
0
  6
________________
 62
     7
370
     9
100
AcDbLine
 10
266.6999999998417
 20
144.5000000000236
 30
0.0
 11
267.0999999998417
 21
144.5000000000236
 31
0.0
  0
LINE
  5
64A4
330
646E
100
AcDbEntity
  8
0
  6
________________
 62
     7
370
     9
100
AcDbLine
 10
267.0999999998418
 20
149.5000000000217
 30
0.0
 11
267.0999999998418
 21
144.5000000000217
 31
0.0
  0
LINE
  5
64A5
330
646E
100
AcDbEntity
  8
0
  6
________________
 62
     7
370
     9
100
AcDbLine
 10
266.6999999998417
 20
263.4999999999787
 30
0.0
 11
267.0999999998417
 21
263.4999999999787
 31
0.0
  0
LINE
  5
64A6
330
646E
100
AcDbEntity
  8
0
  6
________________
 62
     7
370
     9
100
AcDbLine
 10
267.0999999998417
 20
263.4999999999806
 30
0.0
 11
267.0999999998417
 21
258.4999999999806
 31
0.0
  0
ARC
  5
64A7
330
646E
100
AcDbEntity
  8
0
  6
________________
 62
   253
370
     9
100
AcDbCircle
 10
263.1999999998418
 20
149.120091091859
 30
0.0
 40
2.766461776209591
100
AcDbArc
 50
182.4879705953572
 51
357.5120294046424
  0
LINE
  5
64A8
330
646E
100
AcDbEntity
  8
0
  6
________________
 62
   253
370
     9
100
AcDbLine
 10
265.9638539918046
 20
149.000000000018
 30
0.0
 11
266.5166247901971
 21
149.000000000018
 31
0.0
  0
ARC
  5
64A9
330
646E
100
AcDbEntity
  8
0
  6
________________
 62
   253
370
     9
100
AcDbCircle
 10
-263.1999999998405
 20
149.0094086110701
 30
0.0
 40
3.31663813551761
210
0.0
220
0.0
230
-1.0
100
AcDbArc
 50
180.1625364014287
 51
359.8374635985695
  0
LINE
  5
64AA
330
646E
100
AcDbEntity
  8
0
  6
________________
 62
   253
370
     9
100
AcDbLine
 10
260.4361460078789
 20
149.000000000018
 30
0.0
 11
259.8833752094864
 21
149.000000000018
 31
0.0
  0
LINE
  5
64AB
330
646E
100
AcDbEntity
  8
0
  6
________________
 62
   253
370
     9
100
AcDbLine
 10
260.4361460078789
 20
259.000000000018
 30
0.0
 11
260.4361460078789
 21
149.000000000018
 31
0.0
  0
ARC
  5
64AC
330
646E
100
AcDbEntity
  8
0
  6
________________
 62
   253
370
     9
100
AcDbCircle
 10
263.1999999998417
 20
258.879908908177
 30
0.0
 40
2.76646177620959
100
AcDbArc
 50
2.487970595356632
 51
177.5120294046433
  0
LINE
  5
64AD
330
646E
100
AcDbEntity
  8
0
  6
________________
 62
   253
370
     9
100
AcDbLine
 10
265.9638539918046
 20
149.000000000018
 30
0.0
 11
265.9638539918046
 21
259.000000000018
 31
0.0
  0
ARC
  5
64AE
330
646E
100
AcDbEntity
  8
0
  6
________________
 62
   253
370
     9
100
AcDbCircle
 10
-263.1999999998429
 20
258.9910170831696
 30
0.0
 40
3.316636955230869
210
0.0
220
0.0
230
-1.0
100
AcDbArc
 50
0.1551824511799715
 51
179.8448175488181
  0
LINE
  5
64AF
330
646E
100
AcDbEntity
  8
0
  6
________________
 62
   253
370
     9
100
AcDbLine
 10
266.5166247901972
 20
259.000000000018
 30
0.0
 11
265.9638539918046
 21
259.000000000018
 31
0.0
  0
LINE
  5
64B0
330
646E
100
AcDbEntity
  8
0
  6
________________
 62
   253
370
     9
100
AcDbLine
 10
259.8833752094864
 20
259.000000000018
 30
0.0
 11
260.4361460078789
 21
259.000000000018
 31
0.0
  0
LINE
  5
64B1
330
646E
100
AcDbEntity
  8
0
  6
________________
 62
   253
370
     9
100
AcDbLine
 10
266.5166247901972
 20
259.000000000018
 30
0.0
 11
266.5166247901972
 21
149.000000000018
 31
0.0
  0
LINE
  5
64B2
330
646E
100
AcDbEntity
  8
0
  6
________________
 62
   253
370
     9
100
AcDbLine
 10
259.6999999998417
 20
149.000000000018
 30
0.0
 11
259.6999999998417
 21
259.000000000018
 31
0.0
  0
LINE
  5
64B3
330
646E
100
AcDbEntity
  8
0
  6
________________
 62
   253
370
     9
100
AcDbLine
 10
259.8833752094864
 20
259.000000000018
 30
0.0
 11
259.6999999998417
 21
259.000000000018
 31
0.0
  0
LINE
  5
64B4
330
646E
100
AcDbEntity
  8
0
  6
________________
 62
   253
370
     9
100
AcDbLine
 10
259.8833752094864
 20
149.000000000018
 30
0.0
 11
259.8833752094864
 21
259.000000000018
 31
0.0
  0
LINE
  5
64B5
330
646E
100
AcDbEntity
  8
0
  6
________________
 62
   253
370
     9
100
AcDbLine
 10
259.6999999998417
 20
149.000000000018
 30
0.0
 11
259.8833752094864
 21
149.000000000018
 31
0.0
  0
LINE
  5
64B6
330
646E
100
AcDbEntity
  8
0
  6
________________
 62
   253
370
     9
100
AcDbLine
 10
259.6999999998417
 20
259.000000000018
 30
0.0
 11
259.6999999998417
 21
264.000000000018
 31
0.0
  0
LINE
  5
64B7
330
646E
100
AcDbEntity
  8
0
  6
________________
 62
     7
370
     9
100
AcDbLine
 10
259.6999999998417
 20
264.000000000018
 30
0.0
 11
266.6999999998417
 21
264.000000000018
 31
0.0
  0
LINE
  5
64B8
330
646E
100
AcDbEntity
  8
0
  6
________________
 62
   253
370
     9
100
AcDbLine
 10
266.6999999998417
 20
259.000000000018
 30
0.0
 11
266.5166247901971
 21
259.000000000018
 31
0.0
  0
LINE
  5
64B9
330
646E
100
AcDbEntity
  8
0
  6
________________
 62
     7
370
     9
100
AcDbLine
 10
266.6999999998417
 20
264.000000000018
 30
0.0
 11
266.6999999998417
 21
259.000000000018
 31
0.0
  0
LINE
  5
64BA
330
646E
100
AcDbEntity
  8
0
  6
________________
 62
     7
370
     9
100
AcDbLine
 10
258.6999999998418
 20
145.000000000018
 30
0.0
 11
258.6999999998418
 21
149.000000000018
 31
0.0
  0
LINE
  5
64BB
330
646E
100
AcDbEntity
  8
0
  6
________________
 62
   253
370
     9
100
AcDbLine
 10
259.6999999998417
 20
149.000000000018
 30
0.0
 11
258.6999999998417
 21
149.000000000018
 31
0.0
  0
LINE
  5
64BC
330
646E
100
AcDbEntity
  8
0
  6
________________
 62
   253
370
     9
100
AcDbLine
 10
259.6999999998418
 20
144.000000000018
 30
0.0
 11
259.6999999998418
 21
149.000000000018
 31
0.0
  0
ARC
  5
64BD
330
646E
100
AcDbEntity
  8
0
  6
________________
 62
     7
370
     9
100
AcDbCircle
 10
259.6999999998418
 20
145.000000000018
 30
0.0
 40
1.000000000000001
100
AcDbArc
 50
180.0
 51
270.0
  0
LINE
  5
64BE
330
646E
100
AcDbEntity
  8
0
  6
________________
 62
     7
370
     9
100
AcDbLine
 10
266.6999999998417
 20
144.000000000018
 30
0.0
 11
259.6999999998418
 21
144.000000000018
 31
0.0
  0
LINE
  5
64BF
330
646E
100
AcDbEntity
  8
0
  6
________________
 62
   253
370
     9
100
AcDbLine
 10
266.5166247901972
 20
149.000000000018
 30
0.0
 11
266.6999999998417
 21
149.000000000018
 31
0.0
  0
LINE
  5
64C0
330
646E
100
AcDbEntity
  8
0
  6
________________
 62
     7
370
     9
100
AcDbLine
 10
266.6999999998417
 20
149.000000000018
 30
0.0
 11
266.6999999998417
 21
144.000000000018
 31
0.0
  0
LINE
  5
64C1
330
646E
100
AcDbEntity
  8
0
  6
________________
 62
     7
370
     9
100
AcDbLine
 10
266.6999999998417
 20
149.000000000018
 30
0.0
 11
266.6999999998417
 21
259.000000000018
 31
0.0
  0
LINE
  5
64C2
330
646E
100
AcDbEntity
  8
0
  6
________________
 62
     7
370
     9
100
AcDbLine
 10
258.6999999998417
 20
149.000000000018
 30
0.0
 11
258.6999999998417
 21
259.000000000018
 31
0.0
  0
LINE
  5
64C3
330
646E
100
AcDbEntity
  8
0
  6
________________
 62
   253
370
     9
100
AcDbLine
 10
259.6999999998417
 20
259.000000000018
 30
0.0
 11
258.6999999998417
 21
259.000000000018
 31
0.0
  0
LINE
  5
64C4
330
646E
100
AcDbEntity
  8
0
  6
________________
 62
     7
370
     9
100
AcDbLine
 10
258.6999999998417
 20
259.000000000018
 30
0.0
 11
258.6999999998417
 21
263.000000000018
 31
0.0
  0
ARC
  5
64C5
330
646E
100
AcDbEntity
  8
0
  6
________________
 62
     7
370
     9
100
AcDbCircle
 10
259.6999999998417
 20
263.000000000018
 30
0.0
 40
1.000000000000001
100
AcDbArc
 50
90.00000000000001
 51
180.0
  0
LINE
  5
64C6
330
646E
100
AcDbEntity
  8
0
  6
________________
 62
     7
370
     9
100
AcDbLine
 10
273.6999999998417
 20
244.000000000018
 30
0.0
 11
273.6999999998417
 21
254.000000000018
 31
0.0
  0
LINE
  5
64C7
330
646E
100
AcDbEntity
  8
0
  6
________________
 62
     7
370
     9
100
AcDbLine
 10
273.6999999998417
 20
154.0000000000181
 30
0.0
 11
273.6999999998417
 21
164.0000000000181
 31
0.0
  0
LINE
  5
64C8
330
646E
100
AcDbEntity
  8
0
  6
________________
 62
   253
370
     9
100
AcDbLine
 10
273.6999999998417
 20
156.5000000000264
 30
0.0
 11
275.0999999998386
 21
156.5000000000264
 31
0.0
  0
LINE
  5
64C9
330
646E
100
AcDbEntity
  8
0
  6
________________
 62
   253
370
     9
100
AcDbLine
 10
275.0999999998386
 20
161.5000000000264
 30
0.0
 11
273.6999999998417
 21
161.5000000000264
 31
0.0
  0
LINE
  5
64CA
330
646E
100
AcDbEntity
  8
0
  6
________________
 62
   253
370
     9
100
AcDbLine
 10
273.6999999998417
 20
246.5000000000259
 30
0.0
 11
275.0999999998386
 21
246.5000000000259
 31
0.0
  0
LINE
  5
64CB
330
646E
100
AcDbEntity
  8
0
  6
________________
 62
   253
370
     9
100
AcDbLine
 10
275.0999999998386
 20
251.5000000000259
 30
0.0
 11
273.6999999998417
 21
251.5000000000259
 31
0.0
  0
LINE
  5
64CC
330
646E
100
AcDbEntity
  8
0
  6
________________
 62
     7
370
     9
100
AcDbLine
 10
268.6000000003015
 20
152.0000000000181
 30
0.0
 11
273.6000000003015
 21
152.0000000003469
 31
0.0
  0
LINE
  5
64CD
330
646E
100
AcDbEntity
  8
0
  6
________________
 62
     7
370
     9
100
AcDbLine
 10
273.5999999993809
 20
166.0000000003469
 30
0.0
 11
268.599999999381
 21
166.0000000000181
 31
0.0
  0
LINE
  5
64CE
330
646E
100
AcDbEntity
  8
0
  6
________________
 62
     7
370
     9
100
AcDbLine
 10
268.6000000003014
 20
241.9999999999842
 30
0.0
 11
273.6000000003014
 21
242.0000000003129
 31
0.0
  0
LINE
  5
64CF
330
646E
100
AcDbEntity
  8
0
  6
________________
 62
     7
370
     9
100
AcDbLine
 10
273.5999999993809
 20
256.0000000003129
 30
0.0
 11
268.5999999993809
 21
255.9999999999842
 31
0.0
  0
LINE
  5
64D0
330
646E
100
AcDbEntity
  8
0
  6
________________
 62
     7
370
     9
100
AcDbLine
 10
283.5999999998388
 20
152.7500000000264
 30
0.0
 11
285.0499999998387
 21
153.5871578903513
 31
0.0
  0
LINE
  5
64D1
330
646E
100
AcDbEntity
  8
0
  6
________________
 62
     7
370
     9
100
AcDbLine
 10
285.0499999998387
 20
164.4128421097014
 30
0.0
 11
283.5999999998388
 21
165.2500000000264
 31
0.0
  0
LINE
  5
64D2
330
646E
100
AcDbEntity
  8
0
  6
________________
 62
     7
370
     9
100
AcDbLine
 10
283.5999999998388
 20
165.2500000000264
 30
0.0
 11
283.4999999998386
 21
165.2500000000264
 31
0.0
  0
LINE
  5
64D3
330
646E
100
AcDbEntity
  8
0
  6
________________
 62
     7
370
     9
100
AcDbLine
 10
283.4999999998386
 20
152.7500000000264
 30
0.0
 11
283.5999999998388
 21
152.7500000000264
 31
0.0
  0
ARC
  5
64D4
330
646E
100
AcDbEntity
  8
0
  6
________________
 62
     7
370
     9
100
AcDbCircle
 10
284.7999999998387
 20
163.9798294078092
 30
0.0
 40
0.5000000000000004
100
AcDbArc
 50
359.9999999999993
 51
59.99999999999937
  0
ARC
  5
64D5
330
646E
100
AcDbEntity
  8
0
  6
________________
 62
     7
370
     9
100
AcDbCircle
 10
284.7999999998387
 20
154.0201705922435
 30
0.0
 40
0.500000000000002
100
AcDbArc
 50
299.9999999999995
 51
0.0
  0
LINE
  5
64D6
330
646E
100
AcDbEntity
  8
0
  6
________________
 62
     7
370
     9
100
AcDbLine
 10
283.6000000002398
 20
255.250000000135
 30
0.0
 11
283.4999999998386
 21
255.2500000001414
 31
0.0
  0
LINE
  5
64D7
330
646E
100
AcDbEntity
  8
0
  6
________________
 62
     7
370
     9
100
AcDbLine
 10
283.4999999998386
 20
242.7500000001414
 30
0.0
 11
283.5999999994377
 21
242.750000000135
 31
0.0
  0
LINE
  5
64D8
330
646E
100
AcDbEntity
  8
0
  6
________________
 62
     7
370
     9
100
AcDbLine
 10
283.5999999994377
 20
242.750000000135
 30
0.0
 11
285.0499999994914
 21
243.5871578903669
 31
0.0
  0
LINE
  5
64D9
330
646E
100
AcDbEntity
  8
0
  6
________________
 62
     7
370
     9
100
AcDbLine
 10
285.0500000001861
 20
254.412842109717
 30
0.0
 11
283.6000000002398
 21
255.250000000135
 31
0.0
  0
ARC
  5
64DA
330
646E
100
AcDbEntity
  8
0
  6
________________
 62
     7
370
     9
100
AcDbCircle
 10
284.8000000001583
 20
253.9798294078409
 30
0.0
 40
0.5000000000000004
100
AcDbArc
 50
359.9999999963233
 51
59.99999999632371
  0
ARC
  5
64DB
330
646E
100
AcDbEntity
  8
0
  6
________________
 62
     7
370
     9
100
AcDbCircle
 10
284.7999999995192
 20
244.0201705922752
 30
0.0
 40
0.5000000000000036
100
AcDbArc
 50
299.9999999963236
 51
359.9999999963242
  0
LINE
  5
64DC
330
646E
100
AcDbEntity
  8
0
  6
________________
 62
     7
370
     9
100
AcDbLine
 10
273.7000149898417
 20
156.0000000000264
 30
0.0
 11
275.0999999998386
 21
156.0000000000264
 31
0.0
  0
LINE
  5
64DD
330
646E
100
AcDbEntity
  8
0
  6
________________
 62
     7
370
     9
100
AcDbLine
 10
275.0999999998386
 20
162.0000000000264
 30
0.0
 11
273.7000149898417
 21
162.0000000000264
 31
0.0
  0
LINE
  5
64DE
330
646E
100
AcDbEntity
  8
0
  6
________________
 62
     7
370
     9
100
AcDbLine
 10
273.7000149898417
 20
246.0000000000259
 30
0.0
 11
275.0999999998386
 21
246.0000000000259
 31
0.0
  0
LINE
  5
64DF
330
646E
100
AcDbEntity
  8
0
  6
________________
 62
     7
370
     9
100
AcDbLine
 10
275.0999999998386
 20
252.0000000000259
 30
0.0
 11
273.7000149898417
 21
252.0000000000259
 31
0.0
  0
LINE
  5
64E0
330
646E
100
AcDbEntity
  8
0
  6
________________
 62
     7
370
     9
100
AcDbLine
 10
273.6999999998417
 20
254.000000000018
 30
0.0
 11
273.5999999995125
 21
254.000000000018
 31
0.0
  0
LINE
  5
64E1
330
646E
100
AcDbEntity
  8
0
  6
________________
 62
     7
370
     9
100
AcDbLine
 10
268.5999999995124
 20
254.000000000018
 30
0.0
 11
267.0999999998417
 21
254.000000000018
 31
0.0
  0
LINE
  5
64E2
330
646E
100
AcDbEntity
  8
0
  6
________________
 62
     7
370
     9
100
AcDbLine
 10
267.0999999998417
 20
244.000000000018
 30
0.0
 11
268.6000000001699
 21
244.000000000018
 31
0.0
  0
LINE
  5
64E3
330
646E
100
AcDbEntity
  8
0
  6
________________
 62
     7
370
     9
100
AcDbLine
 10
273.6000000001699
 20
244.000000000018
 30
0.0
 11
273.6999999998417
 21
244.000000000018
 31
0.0
  0
LINE
  5
64E4
330
646E
100
AcDbEntity
  8
0
  6
________________
 62
     7
370
     9
100
AcDbLine
 10
273.6999999998417
 20
164.0000000000181
 30
0.0
 11
273.5999999995125
 21
164.0000000000181
 31
0.0
  0
LINE
  5
64E5
330
646E
100
AcDbEntity
  8
0
  6
________________
 62
     7
370
     9
100
AcDbLine
 10
268.5999999995124
 20
164.0000000000181
 30
0.0
 11
267.0999999998417
 21
164.0000000000181
 31
0.0
  0
LINE
  5
64E6
330
646E
100
AcDbEntity
  8
0
  6
________________
 62
     7
370
     9
100
AcDbLine
 10
267.0999999998418
 20
154.0000000000181
 30
0.0
 11
268.60000000017
 21
154.0000000000181
 31
0.0
  0
LINE
  5
64E7
330
646E
100
AcDbEntity
  8
0
  6
________________
 62
     7
370
     9
100
AcDbLine
 10
273.6000000001699
 20
154.0000000000181
 30
0.0
 11
273.6999999998417
 21
154.0000000000181
 31
0.0
  0
ENDBLK
  5
64E8
330
646E
100
AcDbEntity
  8
0
100
AcDbBlockEnd
  0
BLOCK
  5
64EB
330
64EA
100
AcDbEntity
  8
0
100
AcDbBlockBegin
  2
D_FRAME_VIEW@391
 70
     0
 10
0.0
 20
0.0
 30
0.0
  3
D_FRAME_VIEW@391
  1

  0
CIRCLE
  5
64EC
330
64EA
100
AcDbEntity
  8
0
  6
________________
 62
   253
370
     9
100
AcDbCircle
 10
69.49999999999997
 20
159.0000000000101
 30
0.0
 40
4.979829407782827
  0
CIRCLE
  5
64ED
330
64EA
100
AcDbEntity
  8
0
  6
________________
 62
   253
370
     9
100
AcDbCircle
 10
-69.49999999999997
 20
159.0000000000101
 30
0.0
 40
5.412842109675048
210
0.0
220
0.0
230
-1.0
  0
CIRCLE
  5
64EE
330
64EA
100
AcDbEntity
  8
0
  6
________________
 62
     7
370
     9
100
AcDbCircle
 10
69.49999999999997
 20
159.0000000000101
 30
0.0
 40
6.250000000000005
  0
CIRCLE
  5
64EF
330
64EA
100
AcDbEntity
  8
0
  6
________________
 62
   253
370
     9
100
AcDbCircle
 10
69.49999999999996
 20
249.0000000000096
 30
0.0
 40
4.979829407782827
  0
CIRCLE
  5
64F0
330
64EA
100
AcDbEntity
  8
0
  6
________________
 62
   253
370
     9
100
AcDbCircle
 10
-69.49999999999996
 20
249.0000000000257
 30
0.0
 40
5.412842109675048
210
0.0
220
0.0
230
-1.0
  0
CIRCLE
  5
64F1
330
64EA
100
AcDbEntity
  8
0
  6
________________
 62
     7
370
     9
100
AcDbCircle
 10
69.49999999999996
 20
249.0000000001187
 30
0.0
 40
6.250000000000005
  0
ARC
  5
64F2
330
64EA
100
AcDbEntity
  8
0
  6
________________
 62
   253
370
     9
100
AcDbCircle
 10
81.99999999999997
 20
258.9999999999657
 30
0.0
 40
4.000000000000004
100
AcDbArc
 50
0.0
 51
90.00000000000001
  0
LINE
  5
64F3
330
64EA
100
AcDbEntity
  8
0
  6
________________
 62
   253
370
     9
100
AcDbLine
 10
86.00000000000001
 20
148.9999999999657
 30
0.0
 11
85.99999999999997
 21
258.9999999999657
 31
0.0
  0
ARC
  5
64F4
330
64EA
100
AcDbEntity
  8
0
  6
________________
 62
   253
370
     9
100
AcDbCircle
 10
82.00000000000001
 20
148.9999999999657
 30
0.0
 40
4.000000000000004
100
AcDbArc
 50
270.0
 51
0.0000000000000568
  0
LINE
  5
64F5
330
64EA
100
AcDbEntity
  8
0
  6
________________
 62
   253
370
     9
100
AcDbLine
 10
57.00000000000002
 20
144.9999999999657
 30
0.0
 11
82.00000000000003
 21
144.9999999999657
 31
0.0
  0
ARC
  5
64F6
330
64EA
100
AcDbEntity
  8
0
  6
________________
 62
   253
370
     9
100
AcDbCircle
 10
57.00000000000002
 20
148.9999999999657
 30
0.0
 40
4.000000000000004
100
AcDbArc
 50
179.9999999999999
 51
270.0000000000001
  0
LINE
  5
64F7
330
64EA
100
AcDbEntity
  8
0
  6
________________
 62
   253
370
     9
100
AcDbLine
 10
52.99999999999998
 20
258.9999999999657
 30
0.0
 11
53.00000000000003
 21
148.9999999999657
 31
0.0
  0
ARC
  5
64F8
330
64EA
100
AcDbEntity
  8
0
  6
________________
 62
   253
370
     9
100
AcDbCircle
 10
56.99999999999998
 20
258.9999999999657
 30
0.0
 40
4.000000000000004
100
AcDbArc
 50
90.00000000000001
 51
180.0
  0
LINE
  5
64F9
330
64EA
100
AcDbEntity
  8
0
  6
________________
 62
   253
370
     9
100
AcDbLine
 10
81.99999999999997
 20
262.9999999999657
 30
0.0
 11
56.99999999999997
 21
262.9999999999657
 31
0.0
  0
LINE
  5
64FA
330
64EA
100
AcDbEntity
  8
0
  6
________________
 62
     7
370
     9
100
AcDbLine
 10
82.00000000000003
 20
143.9999999999657
 30
0.0
 11
57.00000000000002
 21
143.9999999999657
 31
0.0
  0
LINE
  5
64FB
330
64EA
100
AcDbEntity
  8
0
  6
________________
 62
   253
370
     9
100
AcDbLine
 10
57.00000000000002
 20
143.9999999999657
 30
0.0
 11
57.00000000000002
 21
144.9999999999657
 31
0.0
  0
LINE
  5
64FC
330
64EA
100
AcDbEntity
  8
0
  6
________________
 62
   253
370
     9
100
AcDbLine
 10
82.00000000000003
 20
143.9999999999657
 30
0.0
 11
82.00000000000003
 21
144.9999999999657
 31
0.0
  0
LINE
  5
64FD
330
64EA
100
AcDbEntity
  8
0
  6
________________
 62
     7
370
     9
100
AcDbLine
 10
51.99999999999998
 20
258.9999999999657
 30
0.0
 11
52.00000000000002
 21
148.9999999999657
 31
0.0
  0
LINE
  5
64FE
330
64EA
100
AcDbEntity
  8
0
  6
________________
 62
   253
370
     9
100
AcDbLine
 10
51.99999999999998
 20
258.9999999999657
 30
0.0
 11
52.99999999999998
 21
258.9999999999657
 31
0.0
  0
LINE
  5
64FF
330
64EA
100
AcDbEntity
  8
0
  6
________________
 62
   253
370
     9
100
AcDbLine
 10
52.00000000000002
 20
148.9999999999657
 30
0.0
 11
53.00000000000003
 21
148.9999999999657
 31
0.0
  0
LINE
  5
6500
330
64EA
100
AcDbEntity
  8
0
  6
________________
 62
   253
370
     9
100
AcDbLine
 10
86.00000000000001
 20
148.9999999999657
 30
0.0
 11
87.00000000000001
 21
148.9999999999657
 31
0.0
  0
ARC
  5
6501
330
64EA
100
AcDbEntity
  8
0
  6
________________
 62
     7
370
     9
100
AcDbCircle
 10
82.00000000000001
 20
148.9999999999657
 30
0.0
 40
5.000000000000004
100
AcDbArc
 50
270.0000000000001
 51
0.0000000000001137
  0
LINE
  5
6502
330
64EA
100
AcDbEntity
  8
0
  6
________________
 62
   253
370
     9
100
AcDbLine
 10
85.99999999999997
 20
258.9999999999657
 30
0.0
 11
86.99999999999997
 21
258.9999999999657
 31
0.0
  0
LINE
  5
6503
330
64EA
100
AcDbEntity
  8
0
  6
________________
 62
     7
370
     9
100
AcDbLine
 10
86.99999999999997
 20
258.9999999999657
 30
0.0
 11
87.00000000000001
 21
148.9999999999657
 31
0.0
  0
ARC
  5
6504
330
64EA
100
AcDbEntity
  8
0
  6
________________
 62
     7
370
     9
100
AcDbCircle
 10
57.00000000000002
 20
148.9999999999657
 30
0.0
 40
5.000000000000004
100
AcDbArc
 50
179.9999999999999
 51
270.0000000000001
  0
ARC
  5
6505
330
64EA
100
AcDbEntity
  8
0
  6
________________
 62
     7
370
     9
100
AcDbCircle
 10
56.99999999999998
 20
258.9999999999657
 30
0.0
 40
5.000000000000004
100
AcDbArc
 50
90.00000000000004
 51
180.0
  0
LINE
  5
6506
330
64EA
100
AcDbEntity
  8
0
  6
________________
 62
   253
370
     9
100
AcDbLine
 10
56.99999999999997
 20
262.9999999999657
 30
0.0
 11
56.99999999999997
 21
263.9999999999657
 31
0.0
  0
LINE
  5
6507
330
64EA
100
AcDbEntity
  8
0
  6
________________
 62
   253
370
     9
100
AcDbLine
 10
81.99999999999997
 20
262.9999999999657
 30
0.0
 11
81.99999999999997
 21
263.9999999999657
 31
0.0
  0
ARC
  5
6508
330
64EA
100
AcDbEntity
  8
0
  6
________________
 62
     7
370
     9
100
AcDbCircle
 10
81.99999999999997
 20
258.9999999999657
 30
0.0
 40
5.000000000000004
100
AcDbArc
 50
0.0
 51
90.00000000000004
  0
LINE
  5
6509
330
64EA
100
AcDbEntity
  8
0
  6
________________
 62
     7
370
     9
100
AcDbLine
 10
56.99999999999997
 20
263.9999999999657
 30
0.0
 11
81.99999999999997
 21
263.9999999999657
 31
0.0
  0
ENDBLK
  5
650A
330
64EA
100
AcDbEntity
  8
0
100
AcDbBlockEnd
  0
BLOCK
  5
660A
330
6609
100
AcDbEntity
  8
0
100
AcDbBlockBegin
  2
D_FRAME_VIEW@411
 70
     0
 10
0.0
 20
0.0
 30
0.0
  3
D_FRAME_VIEW@411
  1

  0
CIRCLE
  5
660B
330
6609
100
AcDbEntity
  8
0
  6
________________
 62
     7
370
     9
100
AcDbCircle
 10
-86.49999999999999
 20
268.9999999985155
 30
0.0
 40
4.000000000000004
210
0.0
220
0.0
230
-1.0
  0
CIRCLE
  5
660C
330
6609
100
AcDbEntity
  8
0
  6
________________
 62
     7
370
     9
100
AcDbCircle
 10
86.49999999999999
 20
268.9999999984963
 30
0.0
 40
3.826794919243107
  0
CIRCLE
  5
660D
330
6609
100
AcDbEntity
  8
0
  6
________________
 62
     7
370
     9
100
AcDbCircle
 10
-86.49999999999999
 20
268.9999999984963
 30
0.0
 40
2.500000000000002
210
0.0
220
0.0
230
-1.0
  0
CIRCLE
  5
660E
330
6609
100
AcDbEntity
  8
0
  6
_..__..__..__.._
 62
   253
370
     9
100
AcDbCircle
 10
-86.49999999999999
 20
268.9999999986883
 30
0.0
 40
6.000000000000005
210
0.0
220
0.0
230
-1.0
  0
CIRCLE
  5
6610
330
6609
100
AcDbEntity
  8
0
  6
_..__..__..__.._
 62
   253
370
     9
100
AcDbCircle
 10
-86.49999999999999
 20
269.0
 30
0.0
 40
4.26794919243112
210
0.0
220
0.0
230
-1.0
  0
LINE
  5
6611
330
6609
100
AcDbEntity
  8
0
  6
________________
 62
     7
370
     9
100
AcDbLine
 10
26.5
 20
256.5
 30
0.0
 11
156.5
 21
256.5
 31
0.0
  0
LINE
  5
6612
330
6609
100
AcDbEntity
  8
0
  6
________________
 62
     7
370
     9
100
AcDbLine
 10
156.5
 20
281.5
 30
0.0
 11
26.5
 21
281.5
 31
0.0
  0
CIRCLE
  5
6613
330
6609
100
AcDbEntity
  8
0
  6
________________
 62
     7
370
     9
100
AcDbCircle
 10
56.49999999999999
 20
269.0
 30
0.0
 40
2.149999999999999
  0
CIRCLE
  5
6614
330
6609
100
AcDbEntity
  8
0
  6
________________
 62
     7
370
     9
100
AcDbCircle
 10
126.5
 20
269.0
 30
0.0
 40
2.149999999999985
  0
CIRCLE
  5
6615
330
6609
100
AcDbEntity
  8
0
  6
________________
 62
     7
370
     9
100
AcDbCircle
 10
-86.49999999999999
 20
269.0
 30
0.0
 40
5.000000000000004
210
0.0
220
0.0
230
-1.0
  0
LINE
  5
6616
330
6609
100
AcDbEntity
  8
0
  6
________________
 62
     7
370
     9
100
AcDbLine
 10
156.5
 20
256.5
 30
0.0
 11
156.5
 21
281.5
 31
0.0
  0
LINE
  5
6617
330
6609
100
AcDbEntity
  8
0
  6
________________
 62
     7
370
     9
100
AcDbLine
 10
26.5
 20
281.5
 30
0.0
 11
26.5
 21
256.5
 31
0.0
  0
ARC
  5
6618
330
6609
100
AcDbEntity
  8
0
  6
_..__..__..__.._
 62
   253
370
     9
100
AcDbCircle
 10
-86.49999999999999
 20
269.0
 30
0.0
 40
4.000000000000004
210
0.0
220
0.0
230
-1.0
100
AcDbArc
 50
0.0
 51
90.0
  0
ARC
  5
6619
330
6609
100
AcDbEntity
  8
0
  6
_..__..__..__.._
 62
   253
370
     9
100
AcDbCircle
 10
-86.49999999999999
 20
269.0
 30
0.0
 40
4.000000000000004
210
0.0
220
0.0
230
-1.0
100
AcDbArc
 50
90.0
 51
0.0
  0
CIRCLE
  5
661A
330
6609
100
AcDbEntity
  8
0
  6
_..__..__..__.._
 62
   253
370
     9
100
AcDbCircle
 10
56.49999999999999
 20
269.0
 30
0.0
 40
4.200000000000002
  0
CIRCLE
  5
661B
330
6609
100
AcDbEntity
  8
0
  6
_..__..__..__.._
 62
   253
370
     9
100
AcDbCircle
 10
126.5
 20
269.0
 30
0.0
 40
4.200000000000009
  0
CIRCLE
  5
661C
330
6609
100
AcDbEntity
  8
0
  6
_..__..__..__.._
 62
   253
370
     9
100
AcDbCircle
 10
86.49999999999999
 20
269.0
 30
0.0
 40
4.500000000000004
  0
ENDBLK
  5
661D
330
6609
100
AcDbEntity
  8
0
100
AcDbBlockEnd
  0
BLOCK
  5
6620
330
661F
100
AcDbEntity
  8
0
100
AcDbBlockBegin
  2
D_FRAME_VIEW@403
 70
     0
 10
0.0
 20
0.0
 30
0.0
  3
D_FRAME_VIEW@403
  1

  0
CIRCLE
  5
6621
330
661F
100
AcDbEntity
  8
0
  6
________________
 62
     7
370
     9
100
AcDbCircle
 10
86.49999999999999
 20
153.0
 30
0.0
 40
4.267949192431123
  0
CIRCLE
  5
6622
330
661F
100
AcDbEntity
  8
0
  6
________________
 62
     7
370
     9
100
AcDbCircle
 10
-86.49999999999999
 20
153.000000000192
 30
0.0
 40
6.0
210
0.0
220
0.0
230
-1.0
  0
ARC
  5
6623
330
661F
100
AcDbEntity
  8
0
  6
_..__..__..__.._
 62
   253
370
     9
100
AcDbCircle
 10
-86.49999999999999
 20
153.0000000013245
 30
0.0
 40
3.999999999999998
210
0.0
220
0.0
230
-1.0
100
AcDbArc
 50
90.0
 51
270.0
  0
ARC
  5
6624
330
661F
100
AcDbEntity
  8
0
  6
_..__..__..__.._
 62
   253
370
     9
100
AcDbCircle
 10
-86.49999999999999
 20
153.0000000013245
 30
0.0
 40
4.0
210
0.0
220
0.0
230
-1.0
100
AcDbArc
 50
270.0
 51
90.0
  0
CIRCLE
  5
6625
330
661F
100
AcDbEntity
  8
0
  6
_..__..__..__.._
 62
   253
370
     9
100
AcDbCircle
 10
86.49999999999999
 20
153.0000000014041
 30
0.0
 40
2.5
  0
CIRCLE
  5
6626
330
661F
100
AcDbEntity
  8
0
  6
_..__..__..__.._
 62
   253
370
     9
100
AcDbCircle
 10
-86.49999999999999
 20
153.0000000015037
 30
0.0
 40
3.826794919243112
210
0.0
220
0.0
230
-1.0
  0
CIRCLE
  5
6627
330
661F
100
AcDbEntity
  8
0
  6
_..__..__..__.._
 62
   253
370
     9
100
AcDbCircle
 10
-86.49999999999999
 20
153.0
 30
0.0
 40
4.5
210
0.0
220
0.0
230
-1.0
  0
ARC
  5
6628
330
661F
100
AcDbEntity
  8
0
  6
_..__..__..__.._
 62
   253
370
     9
100
AcDbCircle
 10
86.49999999999999
 20
153.0
 30
0.0
 40
4.0
100
AcDbArc
 50
180.0
 51
270.0
  0
ARC
  5
6629
330
661F
100
AcDbEntity
  8
0
  6
_..__..__..__.._
 62
   253
370
     9
100
AcDbCircle
 10
86.49999999999999
 20
153.0
 30
0.0
 40
4.0
100
AcDbArc
 50
90.0
 51
180.0
  0
CIRCLE
  5
662A
330
661F
100
AcDbEntity
  8
0
  6
________________
 62
     7
370
     9
100
AcDbCircle
 10
126.5
 20
153.0
 30
0.0
 40
4.200000000000002
  0
LINE
  5
662B
330
661F
100
AcDbEntity
  8
0
  6
________________
 62
     7
370
     9
100
AcDbLine
 10
156.5
 20
165.5
 30
0.0
 11
156.5
 21
140.5
 31
0.0
  0
CIRCLE
  5
662C
330
661F
100
AcDbEntity
  8
0
  6
________________
 62
     7
370
     9
100
AcDbCircle
 10
56.49999999999999
 20
153.0
 30
0.0
 40
4.200000000000002
  0
LINE
  5
662D
330
661F
100
AcDbEntity
  8
0
  6
________________
 62
     7
370
     9
100
AcDbLine
 10
26.5
 20
165.5
 30
0.0
 11
156.5
 21
165.5
 31
0.0
  0
LINE
  5
662E
330
661F
100
AcDbEntity
  8
0
  6
________________
 62
     7
370
     9
100
AcDbLine
 10
26.5
 20
140.5
 30
0.0
 11
26.5
 21
165.5
 31
0.0
  0
LINE
  5
662F
330
661F
100
AcDbEntity
  8
0
  6
________________
 62
     7
370
     9
100
AcDbLine
 10
156.5
 20
140.5
 30
0.0
 11
26.5
 21
140.5
 31
0.0
  0
CIRCLE
  5
6630
330
661F
100
AcDbEntity
  8
0
  6
________________
 62
     7
370
     9
100
AcDbCircle
 10
-56.49999999999999
 20
153.0
 30
0.0
 40
2.149999999999999
210
0.0
220
0.0
230
-1.0
  0
CIRCLE
  5
6631
330
661F
100
AcDbEntity
  8
0
  6
________________
 62
     7
370
     9
100
AcDbCircle
 10
-126.5
 20
153.0
 30
0.0
 40
2.149999999999999
210
0.0
220
0.0
230
-1.0
  0
CIRCLE
  5
6632
330
661F
100
AcDbEntity
  8
0
  6
_..__..__..__.._
 62
   253
370
     9
100
AcDbCircle
 10
86.49999999999999
 20
153.0
 30
0.0
 40
4.999999999999999
  0
ENDBLK
  5
6633
330
661F
100
AcDbEntity
  8
0
100
AcDbBlockEnd
  0
BLOCK
  5
6636
330
6635
100
AcDbEntity
  8
0
100
AcDbBlockBegin
  2
D_FRAME_VIEW@409
 70
     0
 10
0.0
 20
0.0
 30
0.0
  3
D_FRAME_VIEW@409
  1

  0
LINE
  5
6637
330
6635
100
AcDbEntity
  8
0
  6
________________
 62
     7
370
     9
100
AcDbLine
 10
82.23205080756887
 20
236.2499999999859
 30
0.0
 11
90.76794919243112
 21
236.2499999999859
 31
0.0
  0
LINE
  5
6638
330
6635
100
AcDbEntity
  8
0
  6
_..__..__..__.._
 62
   253
370
     9
100
AcDbLine
 10
86.49999999999999
 20
233.2499999999859
 30
0.0
 11
80.49999999999999
 21
233.2499999999859
 31
0.0
  0
LINE
  5
6639
330
6635
100
AcDbEntity
  8
0
  6
________________
 62
     7
370
     9
100
AcDbLine
 10
92.5
 20
233.2499999999859
 30
0.0
 11
80.49999999999999
 21
233.2499999999859
 31
0.0
  0
LINE
  5
663A
330
6635
100
AcDbEntity
  8
0
  6
_..__..__..__.._
 62
   253
370
     9
100
AcDbLine
 10
92.5
 20
233.2499999999859
 30
0.0
 11
86.49999999999999
 21
233.2499999999859
 31
0.0
  0
LINE
  5
663B
330
6635
100
AcDbEntity
  8
0
  6
________________
 62
     7
370
     9
100
AcDbLine
 10
82.49999999999999
 20
213.0499999999859
 30
0.0
 11
86.49999999999999
 21
213.0499999999859
 31
0.0
  0
LINE
  5
663C
330
6635
100
AcDbEntity
  8
0
  6
_..__..__..__.._
 62
   253
370
     9
100
AcDbLine
 10
82.49999999999999
 20
213.0499999999859
 30
0.0
 11
90.5
 21
213.0499999999859
 31
0.0
  0
LINE
  5
663D
330
6635
100
AcDbEntity
  8
0
  6
________________
 62
     7
370
     9
100
AcDbLine
 10
86.49999999999999
 20
213.0499999999859
 30
0.0
 11
90.5
 21
213.0499999999859
 31
0.0
  0
LINE
  5
663E
330
6635
100
AcDbEntity
  8
0
  6
________________
 62
     7
370
     9
100
AcDbLine
 10
90.3267949192431
 20
212.7499999999859
 30
0.0
 11
86.49999999999999
 21
212.7499999999859
 31
0.0
  0
LINE
  5
663F
330
6635
100
AcDbEntity
  8
0
  6
________________
 62
     7
370
     9
100
AcDbLine
 10
86.49999999999999
 20
212.7499999999859
 30
0.0
 11
82.67320508075689
 21
212.7499999999859
 31
0.0
  0
LINE
  5
6640
330
6635
100
AcDbEntity
  8
0
  6
_..__..__..__.._
 62
   253
370
     9
100
AcDbLine
 10
83.99999999999999
 20
214.3066243270118
 30
0.0
 11
86.49999999999999
 21
214.3066243270118
 31
0.0
  0
LINE
  5
6641
330
6635
100
AcDbEntity
  8
0
  6
_..__..__..__.._
 62
   253
370
     9
100
AcDbLine
 10
83.99999999999999
 20
214.3066243270118
 30
0.0
 11
89.0
 21
214.3066243270118
 31
0.0
  0
LINE
  5
6642
330
6635
100
AcDbEntity
  8
0
  6
_..__..__..__.._
 62
   253
370
     9
100
AcDbLine
 10
86.49999999999999
 20
214.3066243270118
 30
0.0
 11
89.0
 21
214.3066243270118
 31
0.0
  0
LINE
  5
6643
330
6635
100
AcDbEntity
  8
0
  6
________________
 62
     7
370
     9
100
AcDbLine
 10
156.5
 20
213.2499999999859
 30
0.0
 11
156.5
 21
215.7499999999859
 31
0.0
  0
LINE
  5
6644
330
6635
100
AcDbEntity
  8
0
  6
________________
 62
     7
370
     9
100
AcDbLine
 10
156.5
 20
213.2499999999859
 30
0.0
 11
26.5
 21
213.2499999999859
 31
0.0
  0
LINE
  5
6645
330
6635
100
AcDbEntity
  8
0
  6
________________
 62
     7
370
     9
100
AcDbLine
 10
26.5
 20
213.2499999999859
 30
0.0
 11
26.5
 21
215.7499999999859
 31
0.0
  0
LINE
  5
6646
330
6635
100
AcDbEntity
  8
0
  6
________________
 62
     7
370
     9
100
AcDbLine
 10
156.5
 20
215.7499999999859
 30
0.0
 11
26.5
 21
215.7499999999859
 31
0.0
  0
LINE
  5
6647
330
6635
100
AcDbEntity
  8
0
  6
_..__..__..__.._
 62
   253
370
     9
100
AcDbLine
 10
82.49999999999999
 20
214.0890996311632
 30
0.0
 11
90.5
 21
214.0890996311632
 31
0.0
  0
LINE
  5
6648
330
6635
100
AcDbEntity
  8
0
  6
_..__..__..__.._
 62
   253
370
     9
100
AcDbLine
 10
82.49999999999999
 20
215.2499999999859
 30
0.0
 11
90.5
 21
215.2499999999859
 31
0.0
  0
LINE
  5
6649
330
6635
100
AcDbEntity
  8
0
  6
_..__..__..__.._
 62
   253
370
     9
100
AcDbLine
 10
60.7
 20
215.3499999999859
 30
0.0
 11
52.29999999999999
 21
215.3499999999859
 31
0.0
  0
LINE
  5
664A
330
6635
100
AcDbEntity
  8
0
  6
_..__..__..__.._
 62
   253
370
     9
100
AcDbLine
 10
58.64999999999999
 20
213.2999999999859
 30
0.0
 11
54.34999999999999
 21
213.2999999999859
 31
0.0
  0
LINE
  5
664B
330
6635
100
AcDbEntity
  8
0
  6
_..__..__..__.._
 62
   253
370
     9
100
AcDbLine
 10
130.7
 20
215.3499999999859
 30
0.0
 11
122.3
 21
215.3499999999859
 31
0.0
  0
LINE
  5
664C
330
6635
100
AcDbEntity
  8
0
  6
_..__..__..__.._
 62
   253
370
     9
100
AcDbLine
 10
128.65
 20
213.2999999999859
 30
0.0
 11
124.35
 21
213.2999999999859
 31
0.0
  0
LINE
  5
664D
330
6635
100
AcDbEntity
  8
0
  6
________________
 62
     7
370
     9
100
AcDbLine
 10
92.5
 20
233.2499999999859
 30
0.0
 11
90.76794919243112
 21
236.2499999999859
 31
0.0
  0
LINE
  5
664E
330
6635
100
AcDbEntity
  8
0
  6
________________
 62
     7
370
     9
100
AcDbLine
 10
82.23205080756887
 20
236.2499999999859
 30
0.0
 11
80.49999999999999
 21
233.2499999999859
 31
0.0
  0
LINE
  5
664F
330
6635
100
AcDbEntity
  8
0
  6
________________
 62
     7
370
     9
100
AcDbLine
 10
80.49999999999999
 20
233.2499999999859
 30
0.0
 11
80.49999999999999
 21
215.7499999999859
 31
0.0
  0
LINE
  5
6650
330
6635
100
AcDbEntity
  8
0
  6
________________
 62
     7
370
     9
100
AcDbLine
 10
92.5
 20
215.7499999999859
 30
0.0
 11
92.5
 21
233.2499999999859
 31
0.0
  0
ARC
  5
6651
330
6635
100
AcDbEntity
  8
0
  6
_..__..__..__.._
 62
   253
370
     9
100
AcDbCircle
 10
-82.3
 20
215.5499999999859
 30
0.0
 40
0.2000000000000057
210
0.0
220
0.0
230
-1.0
100
AcDbArc
 50
90.0
 51
180.0
  0
ARC
  5
6652
330
6635
100
AcDbEntity
  8
0
  6
_..__..__..__.._
 62
   253
370
     9
100
AcDbCircle
 10
-90.69999999999999
 20
215.5499999999859
 30
0.0
 40
0.1999999999999919
210
0.0
220
0.0
230
-1.0
100
AcDbArc
 50
0.0
 51
90.0
  0
LINE
  5
6653
330
6635
100
AcDbEntity
  8
0
  6
_..__..__..__.._
 62
   253
370
     9
100
AcDbLine
 10
82.49999999999999
 20
215.5499999999859
 30
0.0
 11
82.49999999999999
 21
215.2499999999859
 31
0.0
  0
LINE
  5
6654
330
6635
100
AcDbEntity
  8
0
  6
_..__..__..__.._
 62
   253
370
     9
100
AcDbLine
 10
82.49999999999999
 20
215.2499999999859
 30
0.0
 11
82.49999999999999
 21
214.0890996311632
 31
0.0
  0
LINE
  5
6655
330
6635
100
AcDbEntity
  8
0
  6
_..__..__..__.._
 62
   253
370
     9
100
AcDbLine
 10
82.49999999999999
 20
214.0890996311632
 30
0.0
 11
82.49999999999999
 21
213.2499999999859
 31
0.0
  0
LINE
  5
6656
330
6635
100
AcDbEntity
  8
0
  6
________________
 62
     7
370
     9
100
AcDbLine
 10
82.49999999999999
 20
213.2499999999859
 30
0.0
 11
82.49999999999999
 21
213.0499999999859
 31
0.0
  0
LINE
  5
6657
330
6635
100
AcDbEntity
  8
0
  6
________________
 62
     7
370
     9
100
AcDbLine
 10
90.5
 20
213.0499999999859
 30
0.0
 11
90.5
 21
213.2499999999859
 31
0.0
  0
LINE
  5
6658
330
6635
100
AcDbEntity
  8
0
  6
_..__..__..__.._
 62
   253
370
     9
100
AcDbLine
 10
90.5
 20
213.2499999999859
 30
0.0
 11
90.5
 21
214.0890996311632
 31
0.0
  0
LINE
  5
6659
330
6635
100
AcDbEntity
  8
0
  6
_..__..__..__.._
 62
   253
370
     9
100
AcDbLine
 10
90.5
 20
214.0890996311632
 30
0.0
 11
90.5
 21
215.2499999999859
 31
0.0
  0
LINE
  5
665A
330
6635
100
AcDbEntity
  8
0
  6
_..__..__..__.._
 62
   253
370
     9
100
AcDbLine
 10
90.5
 20
215.2499999999859
 30
0.0
 11
90.5
 21
215.5499999999859
 31
0.0
  0
LINE
  5
665B
330
6635
100
AcDbEntity
  8
0
  6
________________
 62
     7
370
     9
100
AcDbLine
 10
82.49999999999999
 20
213.0499999999859
 30
0.0
 11
82.67320508075689
 21
212.7499999999859
 31
0.0
  0
LINE
  5
665C
330
6635
100
AcDbEntity
  8
0
  6
________________
 62
     7
370
     9
100
AcDbLine
 10
90.3267949192431
 20
212.7499999999859
 30
0.0
 11
90.5
 21
213.0499999999859
 31
0.0
  0
LINE
  5
665D
330
6635
100
AcDbEntity
  8
0
  6
_..__..__..__.._
 62
   253
370
     9
100
AcDbLine
 10
89.0
 20
214.3066243270118
 30
0.0
 11
86.49999999999999
 21
215.7499999999859
 31
0.0
  0
LINE
  5
665E
330
6635
100
AcDbEntity
  8
0
  6
_..__..__..__.._
 62
   253
370
     9
100
AcDbLine
 10
86.49999999999999
 20
215.7499999999859
 30
0.0
 11
83.99999999999999
 21
214.3066243270118
 31
0.0
  0
LINE
  5
665F
330
6635
100
AcDbEntity
  8
0
  6
_..__..__..__.._
 62
   253
370
     9
100
AcDbLine
 10
89.0
 20
212.7499999999859
 30
0.0
 11
89.0
 21
213.2499999999859
 31
0.0
  0
LINE
  5
6660
330
6635
100
AcDbEntity
  8
0
  6
_..__..__..__.._
 62
   253
370
     9
100
AcDbLine
 10
89.0
 20
213.2499999999859
 30
0.0
 11
89.0
 21
214.3066243270118
 31
0.0
  0
LINE
  5
6661
330
6635
100
AcDbEntity
  8
0
  6
_..__..__..__.._
 62
   253
370
     9
100
AcDbLine
 10
83.99999999999999
 20
214.3066243270118
 30
0.0
 11
83.99999999999999
 21
213.2499999999859
 31
0.0
  0
LINE
  5
6662
330
6635
100
AcDbEntity
  8
0
  6
_..__..__..__.._
 62
   253
370
     9
100
AcDbLine
 10
83.99999999999999
 20
213.2499999999859
 30
0.0
 11
83.99999999999999
 21
212.7499999999859
 31
0.0
  0
LINE
  5
6663
330
6635
100
AcDbEntity
  8
0
  6
_..__..__..__.._
 62
   253
370
     9
100
AcDbLine
 10
91.5
 20
213.2499999999859
 30
0.0
 11
90.5
 21
214.0890996311632
 31
0.0
  0
LINE
  5
6664
330
6635
100
AcDbEntity
  8
0
  6
_..__..__..__.._
 62
   253
370
     9
100
AcDbLine
 10
82.49999999999999
 20
214.0890996311632
 30
0.0
 11
81.49999999999999
 21
213.2499999999859
 31
0.0
  0
LINE
  5
6665
330
6635
100
AcDbEntity
  8
0
  6
_..__..__..__.._
 62
   253
370
     9
100
AcDbLine
 10
81.99999999999999
 20
215.7499999999859
 30
0.0
 11
82.49999999999999
 21
215.2499999999859
 31
0.0
  0
LINE
  5
6666
330
6635
100
AcDbEntity
  8
0
  6
_..__..__..__.._
 62
   253
370
     9
100
AcDbLine
 10
90.5
 20
215.2499999999859
 30
0.0
 11
91.0
 21
215.7499999999859
 31
0.0
  0
LINE
  5
6667
330
6635
100
AcDbEntity
  8
0
  6
_..__..__..__.._
 62
   253
370
     9
100
AcDbLine
 10
60.7
 20
215.3499999999859
 30
0.0
 11
60.7
 21
215.7499999999859
 31
0.0
  0
LINE
  5
6668
330
6635
100
AcDbEntity
  8
0
  6
_..__..__..__.._
 62
   253
370
     9
100
AcDbLine
 10
52.29999999999999
 20
215.7499999999859
 30
0.0
 11
52.29999999999999
 21
215.3499999999859
 31
0.0
  0
LINE
  5
6669
330
6635
100
AcDbEntity
  8
0
  6
_..__..__..__.._
 62
   253
370
     9
100
AcDbLine
 10
52.29999999999999
 20
215.3499999999859
 30
0.0
 11
54.34999999999999
 21
213.2999999999859
 31
0.0
  0
LINE
  5
666A
330
6635
100
AcDbEntity
  8
0
  6
_..__..__..__.._
 62
   253
370
     9
100
AcDbLine
 10
58.64999999999999
 20
213.2999999999859
 30
0.0
 11
60.7
 21
215.3499999999859
 31
0.0
  0
LINE
  5
666B
330
6635
100
AcDbEntity
  8
0
  6
_..__..__..__.._
 62
   253
370
     9
100
AcDbLine
 10
122.3
 20
215.3499999999859
 30
0.0
 11
124.35
 21
213.2999999999859
 31
0.0
  0
LINE
  5
666C
330
6635
100
AcDbEntity
  8
0
  6
_..__..__..__.._
 62
   253
370
     9
100
AcDbLine
 10
128.65
 20
213.2999999999859
 30
0.0
 11
130.7
 21
215.3499999999859
 31
0.0
  0
LINE
  5
666D
330
6635
100
AcDbEntity
  8
0
  6
_..__..__..__.._
 62
   253
370
     9
100
AcDbLine
 10
130.7
 20
215.3499999999859
 30
0.0
 11
130.7
 21
215.7499999999859
 31
0.0
  0
LINE
  5
666E
330
6635
100
AcDbEntity
  8
0
  6
_..__..__..__.._
 62
   253
370
     9
100
AcDbLine
 10
122.3
 20
215.7499999999859
 30
0.0
 11
122.3
 21
215.3499999999859
 31
0.0
  0
LINE
  5
666F
330
6635
100
AcDbEntity
  8
0
  6
_..__..__..__.._
 62
   253
370
     9
100
AcDbLine
 10
54.34999999999999
 20
213.2999999999859
 30
0.0
 11
54.34999999999999
 21
213.2499999999859
 31
0.0
  0
LINE
  5
6670
330
6635
100
AcDbEntity
  8
0
  6
_..__..__..__.._
 62
   253
370
     9
100
AcDbLine
 10
58.64999999999999
 20
213.2499999999859
 30
0.0
 11
58.64999999999999
 21
213.2999999999859
 31
0.0
  0
LINE
  5
6671
330
6635
100
AcDbEntity
  8
0
  6
_..__..__..__.._
 62
   253
370
     9
100
AcDbLine
 10
124.35
 20
213.2999999999859
 30
0.0
 11
124.35
 21
213.2499999999859
 31
0.0
  0
LINE
  5
6672
330
6635
100
AcDbEntity
  8
0
  6
_..__..__..__.._
 62
   253
370
     9
100
AcDbLine
 10
128.65
 20
213.2499999999859
 30
0.0
 11
128.65
 21
213.2999999999859
 31
0.0
  0
ENDBLK
  5
6673
330
6635
100
AcDbEntity
  8
0
100
AcDbBlockEnd
  0
ENDSEC
  0
SECTION
  2
ENTITIES
  0
TEXT
  5
61B5
330
A
100
AcDbEntity
  8
0
  6
Continuous
 62
     7
100
AcDbText
 10
-14.56538495360067
 20
88.79553188083446
 30
0.0
 40
10.0
  1
1027
100
AcDbText
  0
LINE
  5
6675
330
A
100
AcDbEntity
  8
0
  6
CENTER
 62
     1
100
AcDbLine
 10
-12.46191820219894
 20
0.0
 30
0.0
 11
12.46191820219897
 21
0.0
 31
0.0
  0
LINE
  5
6676
330
A
100
AcDbEntity
  8
0
  6
CENTER
 62
     1
100
AcDbLine
 10
0.0000000000000568
 20
-12.46191820219895
 30
0.0
 11
0.0000000000000568
 21
12.46191820219895
 31
0.0
  0
LINE
  5
6677
330
A
100
AcDbEntity
  8
0
  6
CENTER
 62
     1
100
AcDbLine
 10
-39.26005616318474
 20
0.0
 30
0.0
 11
-20.73994383681522
 21
0.0
 31
0.0
  0
LINE
  5
6678
330
A
100
AcDbEntity
  8
0
  6
CENTER
 62
     1
100
AcDbLine
 10
-29.99999999999991
 20
-9.260056163184759
 30
0.0
 11
-29.99999999999991
 21
9.260056163184759
 31
0.0
  0
CIRCLE
  5
668A
330
A
100
AcDbEntity
  8
0
  6
________________
 62
     7
370
     9
100
AcDbCircle
 10
0.0000000000000142
 20
0.0
 30
0.0
 40
4.267949192431123
  0
CIRCLE
  5
668B
330
A
100
AcDbEntity
  8
0
  6
________________
 62
     7
370
     9
100
AcDbCircle
 10
-0.0000000000000142
 20
0.0000000001919602
 30
0.0
 40
6.0
210
0.0
220
0.0
230
-1.0
  0
ARC
  5
668C
330
A
100
AcDbEntity
  8
0
  6
_..__..__..__.._
 62
   253
370
     9
100
AcDbCircle
 10
-0.0000000000000142
 20
0.0000000013245085
 30
0.0
 40
3.999999999999998
210
0.0
220
0.0
230
-1.0
100
AcDbArc
 50
90.0
 51
270.0
  0
ARC
  5
668D
330
A
100
AcDbEntity
  8
0
  6
_..__..__..__.._
 62
   253
370
     9
100
AcDbCircle
 10
-0.0000000000000142
 20
0.0000000013245085
 30
0.0
 40
4.0
210
0.0
220
0.0
230
-1.0
100
AcDbArc
 50
270.0
 51
90.0
  0
CIRCLE
  5
668E
330
A
100
AcDbEntity
  8
0
  6
_..__..__..__.._
 62
   253
370
     9
100
AcDbCircle
 10
0.0000000000000142
 20
0.0000000014040609
 30
0.0
 40
2.5
  0
CIRCLE
  5
668F
330
A
100
AcDbEntity
  8
0
  6
_..__..__..__.._
 62
   253
370
     9
100
AcDbCircle
 10
-0.0000000000000142
 20
0.0000000015036505
 30
0.0
 40
3.826794919243112
210
0.0
220
0.0
230
-1.0
  0
CIRCLE
  5
6690
330
A
100
AcDbEntity
  8
0
  6
_..__..__..__.._
 62
   253
370
     9
100
AcDbCircle
 10
-0.0000000000000142
 20
0.0
 30
0.0
 40
4.5
210
0.0
220
0.0
230
-1.0
  0
ARC
  5
6691
330
A
100
AcDbEntity
  8
0
  6
_..__..__..__.._
 62
   253
370
     9
100
AcDbCircle
 10
0.0000000000000142
 20
0.0
 30
0.0
 40
4.0
100
AcDbArc
 50
180.0
 51
270.0
  0
ARC
  5
6692
330
A
100
AcDbEntity
  8
0
  6
_..__..__..__.._
 62
   253
370
     9
100
AcDbCircle
 10
0.0000000000000142
 20
0.0
 30
0.0
 40
4.0
100
AcDbArc
 50
90.0
 51
180.0
  0
CIRCLE
  5
6693
330
A
100
AcDbEntity
  8
0
  6
________________
 62
     7
370
     9
100
AcDbCircle
 10
40.00000000000003
 20
0.0
 30
0.0
 40
4.200000000000002
  0
LINE
  5
6694
330
A
100
AcDbEntity
  8
0
  6
________________
 62
     7
370
     9
100
AcDbLine
 10
70.00000000000003
 20
12.5
 30
0.0
 11
70.00000000000003
 21
-12.5
 31
0.0
  0
CIRCLE
  5
6695
330
A
100
AcDbEntity
  8
0
  6
________________
 62
     7
370
     9
100
AcDbCircle
 10
-29.99999999999998
 20
0.0
 30
0.0
 40
4.200000000000002
  0
LINE
  5
6696
330
A
100
AcDbEntity
  8
0
  6
________________
 62
     7
370
     9
100
AcDbLine
 10
-59.99999999999997
 20
12.5
 30
0.0
 11
70.00000000000003
 21
12.5
 31
0.0
  0
LINE
  5
6697
330
A
100
AcDbEntity
  8
0
  6
________________
 62
     7
370
     9
100
AcDbLine
 10
-59.99999999999997
 20
-12.50000000000003
 30
0.0
 11
-59.99999999999997
 21
12.49999999999997
 31
0.0
  0
LINE
  5
6698
330
A
100
AcDbEntity
  8
0
  6
________________
 62
     7
370
     9
100
AcDbLine
 10
70.00000000000003
 20
-12.50000000000003
 30
0.0
 11
-59.99999999999997
 21
-12.50000000000003
 31
0.0
  0
CIRCLE
  5
6699
330
A
100
AcDbEntity
  8
0
  6
________________
 62
     7
370
     9
100
AcDbCircle
 10
29.99999999999998
 20
0.0
 30
0.0
 40
2.149999999999999
210
0.0
220
0.0
230
-1.0
  0
CIRCLE
  5
669A
330
A
100
AcDbEntity
  8
0
  6
________________
 62
     7
370
     9
100
AcDbCircle
 10
-40.00000000000003
 20
0.0
 30
0.0
 40
2.149999999999999
210
0.0
220
0.0
230
-1.0
  0
CIRCLE
  5
669B
330
A
100
AcDbEntity
  8
0
  6
_..__..__..__.._
 62
   253
370
     9
100
AcDbCircle
 10
0.0000000000000142
 20
0.0
 30
0.0
 40
4.999999999999999
  0
LINE
  5
669C
330
A
100
AcDbEntity
  8
0
  6
________________
 62
     7
370
     9
100
AcDbLine
 10
-4.267949192431104
 20
73.45922647365556
 30
0.0
 11
4.267949192431146
 21
73.45922647365556
 31
0.0
  0
LINE
  5
669D
330
A
100
AcDbEntity
  8
0
  6
_..__..__..__.._
 62
   253
370
     9
100
AcDbLine
 10
0.0000000000000142
 20
70.45922647365556
 30
0.0
 11
-5.999999999999986
 21
70.45922647365556
 31
0.0
  0
LINE
  5
669E
330
A
100
AcDbEntity
  8
0
  6
________________
 62
     7
370
     9
100
AcDbLine
 10
6.000000000000028
 20
70.45922647365556
 30
0.0
 11
-5.999999999999986
 21
70.45922647365556
 31
0.0
  0
LINE
  5
669F
330
A
100
AcDbEntity
  8
0
  6
_..__..__..__.._
 62
   253
370
     9
100
AcDbLine
 10
6.000000000000028
 20
70.45922647365556
 30
0.0
 11
0.0000000000000142
 21
70.45922647365556
 31
0.0
  0
LINE
  5
66A8
330
A
100
AcDbEntity
  8
0
  6
________________
 62
     7
370
     9
100
AcDbLine
 10
70.00000000000003
 20
50.45922647365556
 30
0.0
 11
70.00000000000003
 21
52.95922647365556
 31
0.0
  0
LINE
  5
66A9
330
A
100
AcDbEntity
  8
0
  6
________________
 62
     7
370
     9
100
AcDbLine
 10
70.00000000000003
 20
50.45922647365556
 30
0.0
 11
-59.99999999999997
 21
50.45922647365556
 31
0.0
  0
LINE
  5
66AA
330
A
100
AcDbEntity
  8
0
  6
________________
 62
     7
370
     9
100
AcDbLine
 10
-59.99999999999997
 20
50.45922647365556
 30
0.0
 11
-59.99999999999997
 21
52.95922647365556
 31
0.0
  0
LINE
  5
66AB
330
A
100
AcDbEntity
  8
0
  6
________________
 62
     7
370
     9
100
AcDbLine
 10
70.00000000000003
 20
52.95922647365556
 30
0.0
 11
-59.99999999999997
 21
52.95922647365556
 31
0.0
  0
LINE
  5
66B2
330
A
100
AcDbEntity
  8
0
  6
________________
 62
     7
370
     9
100
AcDbLine
 10
6.000000000000028
 20
70.45922647365556
 30
0.0
 11
4.267949192431146
 21
73.45922647365556
 31
0.0
  0
LINE
  5
66B3
330
A
100
AcDbEntity
  8
0
  6
________________
 62
     7
370
     9
100
AcDbLine
 10
-4.267949192431104
 20
73.45922647365556
 30
0.0
 11
-5.999999999999986
 21
70.45922647365556
 31
0.0
  0
LINE
  5
66B4
330
A
100
AcDbEntity
  8
0
  6
________________
 62
     7
370
     9
100
AcDbLine
 10
-5.999999999999986
 20
70.45922647365556
 30
0.0
 11
-5.999999999999986
 21
52.95922647365556
 31
0.0
  0
LINE
  5
66B5
330
A
100
AcDbEntity
  8
0
  6
________________
 62
     7
370
     9
100
AcDbLine
 10
6.000000000000028
 20
52.95922647365556
 30
0.0
 11
6.000000000000028
 21
70.45922647365556
 31
0.0
  0
LINE
  5
66D9
330
A
100
AcDbEntity
  8
0
  6
CENTER
 62
     1
100
AcDbLine
 10
30.73994383681521
 20
0.0
 30
0.0
 11
49.26005616318472
 21
0.0
 31
0.0
  0
LINE
  5
66DA
330
A
100
AcDbEntity
  8
0
  6
CENTER
 62
     1
100
AcDbLine
 10
40.00000000000003
 20
-9.260056163184759
 30
0.0
 11
40.00000000000003
 21
9.260056163184759
 31
0.0
  0
LINE
  5
66DB
330
A
100
AcDbEntity
  8
0
  6
CENTER
 62
     1
100
AcDbLine
 10
0.0000000000000568
 20
47.56453185327311
 30
0.0
 11
0.0000000000000568
 21
75.56825310966688
 31
0.0
  0
ENDSEC
  0
SECTION
  2
OBJECTS
  0
DICTIONARY
  5
19
330
0
100
AcDbDictionary
281
     1
  3
ACAD_GROUP
350
1A
  3
ACAD_IMAGE_VARS
350
63A6
  3
ACAD_LAYOUT
350
63B2
  3
ACAD_MLINESTYLE
350
1B
  3
ACAD_PLOTSETTINGS
350
63B7
  3
ACAD_PLOTSTYLENAME
350
63B8
  3
ACAD_SCALELIST
350
3179
  3
ACAD_WIPEOUT_VARS
350
23
  3
ACDB_RECOMPOSE_DATA
350
630A
  3
ACDBVARIABLEDICTIONARY
350
630B
  3
APPDATA
350
63A5
  3
ASE_INDEX_DICTIONARY
350
5E44
  3
DWGPROPS
350
66DC
  0
DICTIONARY
  5
5E41
330
14
100
AcDbDictionary
280
     1
281
     1
  3
ADSK_XREC_LAYER_RECONCILED
360
5E42
  0
DICTIONARY
  5
31A7
330
A
100
AcDbDictionary
280
     1
281
     1
  3
ACAD_SORTENTS
360
31A8
  0
DICTIONARY
  5
1A
102
{ACAD_REACTORS
330
19
102
}
330
19
100
AcDbDictionary
281
     1
  0
RASTERVARIABLES
  5
63A6
102
{ACAD_REACTORS
330
19
102
}
330
19
100
AcDbRasterVariables
 90
        0
 70
     1
 71
     1
 72
     0
  0
DICTIONARY
  5
63B2
102
{ACAD_REACTORS
330
19
102
}
330
19
100
AcDbDictionary
281
     1
  3
Model
350
63B3
  3
Sheet1
350
63B4
  0
DICTIONARY
  5
1B
102
{ACAD_REACTORS
330
19
102
}
330
19
100
AcDbDictionary
281
     1
  3
STANDARD
350
1C
  0
DICTIONARY
  5
63B7
102
{ACAD_REACTORS
330
19
102
}
330
19
100
AcDbDictionary
281
     1
  0
ACDBDICTIONARYWDFLT
  5
63B8
102
{ACAD_REACTORS
330
19
102
}
330
19
100
AcDbDictionary
281
     1
  3
Normal
350
63B9
100
AcDbDictionaryWithDefault
340
63B9
  0
DICTIONARY
  5
3179
102
{ACAD_REACTORS
330
19
102
}
330
19
100
AcDbDictionary
281
     1
  0
WIPEOUTVARIABLES
  5
23
330
19
100
AcDbWipeoutVariables
 70
     1
  0
XRECORD
  5
630A
102
{ACAD_REACTORS
330
19
102
}
330
19
100
AcDbXrecord
280
     1
 90
        1
330
0
  0
DICTIONARY
  5
630B
102
{ACAD_REACTORS
330
19
102
}
330
19
100
AcDbDictionary
281
     1
  3
DIMASSOC
350
6318
  3
INDEXCTL
350
6317
  3
SORTENTS
350
6316
  0
DICTIONARY
  5
63A5
102
{ACAD_REACTORS
330
19
102
}
330
19
100
AcDbDictionary
281
     1
  0
DICTIONARY
  5
5E44
102
{ACAD_REACTORS
330
19
102
}
330
19
100
AcDbDictionary
281
     1
  3
ASEBLOCKHIERARCHYINDEXRECORD
350
5E46
1001
DCO15
1040
1685075681.336
  0
XRECORD
  5
66DC
102
{ACAD_REACTORS
330
19
102
}
330
19
100
AcDbXrecord
280
     1
  1
DWGPROPS COOKIE
  2

  3

  4

  6

  7

  8
renzo.ceresoli
  9

300
=
301
=
302
=
303
=
304
=
305
=
306
=
307
=
308
=
309
=
 40
0.0
 41
2455303.644583322
 42
2455306.337819896
  1

 90
        0
  0
XRECORD
  5
5E42
102
{ACAD_REACTORS
330
5E41
102
}
330
5E41
100
AcDbXrecord
280
     1
290
     1
  0
SORTENTSTABLE
  5
31A8
102
{ACAD_REACTORS
330
31A7
102
}
330
31A7
100
AcDbSortentsTable
330
A
331
0
  5
3F1D
  0
LAYOUT
  5
63B3
102
{ACAD_REACTORS
330
63B2
102
}
330
63B2
100
AcDbPlotSettings
  1

  2
none_device
  4

  6

 40
0.0
 41
0.0
 42
0.0
 43
0.0
 44
0.0
 45
0.0
 46
0.0
 47
0.0
 48
0.0
 49
0.0
140
0.0
141
0.0
142
1.0
143
1.0
 70
   688
 72
     0
 73
     0
 74
     5
  7

 75
    16
147
1.0
148
0.0
149
0.0
100
AcDbLayout
  1
Model
 70
     1
 71
     0
 10
0.0
 20
0.0
 11
0.0
 21
0.0
 12
0.0
 22
0.0
 32
0.0
 14
0.0
 24
0.0
 34
0.0
 15
0.0
 25
0.0
 35
0.0
146
0.0
 13
0.0
 23
0.0
 33
0.0
 16
1.0
 26
0.0
 36
0.0
 17
0.0
 27
1.0
 37
0.0
 76
     0
330
A
331
15
  0
LAYOUT
  5
63B4
102
{ACAD_REACTORS
330
63B2
102
}
330
63B2
100
AcDbPlotSettings
  1

  2
none_device
  4

  6

 40
0.0
 41
0.0
 42
0.0
 43
0.0
 44
0.0
 45
0.0
 46
0.0
 47
0.0
 48
0.0
 49
0.0
140
0.0
141
0.0
142
1.0
143
1.0
 70
   688
 72
     0
 73
     0
 74
     5
  7

 75
    16
147
1.0
148
0.0
149
0.0
100
AcDbLayout
  1
Sheet1
 70
     1
 71
     1
 10
0.0
 20
0.0
 11
0.0
 21
0.0
 12
0.0
 22
0.0
 32
0.0
 14
0.0
 24
0.0
 34
0.0
 15
0.0
 25
0.0
 35
0.0
146
0.0
 13
0.0
 23
0.0
 33
0.0
 16
1.0
 26
0.0
 36
0.0
 17
0.0
 27
1.0
 37
0.0
 76
     0
330
B
  0
MLINESTYLE
  5
1C
102
{ACAD_REACTORS
330
1B
102
}
330
1B
100
AcDbMlineStyle
  2
STANDARD
 70
     0
  3

 62
     0
 51
90.0
 52
90.0
 71
     2
 49
0.5
 62
   256
  6
BYLAYER
 49
-0.5
 62
   256
  6
BYLAYER
  0
ACDBPLACEHOLDER
  5
63B9
102
{ACAD_REACTORS
330
63B8
102
}
330
63B8
  0
DICTIONARYVAR
  5
6318
102
{ACAD_REACTORS
330
630B
102
}
330
630B
100
DictionaryVariables
280
     0
  1
1
  0
DICTIONARYVAR
  5
6317
102
{ACAD_REACTORS
330
630B
102
}
330
630B
100
DictionaryVariables
280
     0
  1
0
  0
DICTIONARYVAR
  5
6316
102
{ACAD_REACTORS
330
630B
102
}
330
630B
100
DictionaryVariables
280
     0
  1
127
  0
XRECORD
  5
5E46
102
{ACAD_REACTORS
330
5E44
102
}
330
5E44
100
AcDbXrecord
280
     1
  0
ENDSEC
  0
EOF
