  0
SECTION
  2
HEADER
  9
$ACADVER
  1
AC1027
  9
$ACADMAINTVER
 70
     8
  9
$DWGCODEPAGE
  3
ANSI_1252
  9
$REQUIREDVERSIONS
160
                 0
  9
$LASTSAVEDBY
  1
raffaele
  9
$INSBASE
 10
0.0
 20
0.0
 30
0.0
  9
$EXTMIN
 10
3.672425294907141
 20
212.0591478067523
 30
0.0
  9
$EXTMAX
 10
401.147989372623
 20
540.0195391148773
 30
0.0
  9
$LIMMIN
 10
0.0
 20
0.0
  9
$LIMMAX
 10
840.0
 20
594.0
  9
$ORTHOMODE
 70
     0
  9
$REGENMODE
 70
     1
  9
$FILLMODE
 70
     1
  9
$QTEXTMODE
 70
     0
  9
$MIRRTEXT
 70
     1
  9
$LTSCALE
 40
1.0
  9
$ATTMODE
 70
     1
  9
$TEXTSIZE
 40
2.8
  9
$TRACEWID
 40
1.0
  9
$TEXTSTYLE
  7
Standard
  9
$CLAYER
  8
0
  9
$CELTYPE
  6
ByLayer
  9
$CECOLOR
 62
   256
  9
$CELTSCALE
 40
1.0
  9
$DISPSILH
 70
     0
  9
$DIMSCALE
 40
1.0
  9
$DIMASZ
 40
3.2
  9
$DIMEXO
 40
0.1
  9
$DIMDLI
 40
3.75
  9
$DIMRND
 40
0.0
  9
$DIMDLE
 40
0.0
  9
$DIMEXE
 40
1.0
  9
$DIMTP
 40
0.0
  9
$DIMTM
 40
0.0
  9
$DIMTXT
 40
3.2
  9
$DIMCEN
 40
2.5
  9
$DIMTSZ
 40
0.0
  9
$DIMTOL
 70
     0
  9
$DIMLIM
 70
     0
  9
$DIMTIH
 70
     1
  9
$DIMTOH
 70
     1
  9
$DIMSE1
 70
     0
  9
$DIMSE2
 70
     0
  9
$DIMTAD
 70
     1
  9
$DIMZIN
 70
     0
  9
$DIMBLK
  1

  9
$DIMASO
 70
     1
  9
$DIMSHO
 70
     1
  9
$DIMPOST
  1

  9
$DIMAPOST
  1

  9
$DIMALT
 70
     0
  9
$DIMALTD
 70
     3
  9
$DIMALTF
 40
0.0393700787
  9
$DIMLFAC
 40
1.0
  9
$DIMTOFL
 70
     1
  9
$DIMTVP
 40
0.0
  9
$DIMTIX
 70
     0
  9
$DIMSOXD
 70
     0
  9
$DIMSAH
 70
     0
  9
$DIMBLK1
  1

  9
$DIMBLK2
  1

  9
$DIMSTYLE
  2
ISO-25
  9
$DIMCLRD
 70
     0
  9
$DIMCLRE
 70
     0
  9
$DIMCLRT
 70
     0
  9
$DIMTFAC
 40
1.0
  9
$DIMGAP
 40
2.0
  9
$DIMJUST
 70
     0
  9
$DIMSD1
 70
     0
  9
$DIMSD2
 70
     0
  9
$DIMTOLJ
 70
     0
  9
$DIMTZIN
 70
     0
  9
$DIMALTZ
 70
     0
  9
$DIMALTTZ
 70
     0
  9
$DIMUPT
 70
     0
  9
$DIMDEC
 70
     2
  9
$DIMTDEC
 70
     2
  9
$DIMALTU
 70
     2
  9
$DIMALTTD
 70
     3
  9
$DIMTXSTY
  7
Standard
  9
$DIMAUNIT
 70
     0
  9
$DIMADEC
 70
     2
  9
$DIMALTRND
 40
0.0
  9
$DIMAZIN
 70
     0
  9
$DIMDSEP
 70
    44
  9
$DIMATFIT
 70
     3
  9
$DIMFRAC
 70
     0
  9
$DIMLDRBLK
  1

  9
$DIMLUNIT
 70
     2
  9
$DIMLWD
 70
    -2
  9
$DIMLWE
 70
    -2
  9
$DIMTMOVE
 70
     0
  9
$DIMFXL
 40
1.0
  9
$DIMFXLON
 70
     0
  9
$DIMJOGANG
 40
0.7853981633974483
  9
$DIMTFILL
 70
     0
  9
$DIMTFILLCLR
 70
     0
  9
$DIMARCSYM
 70
     0
  9
$DIMLTYPE
  6

  9
$DIMLTEX1
  6

  9
$DIMLTEX2
  6

  9
$DIMTXTDIRECTION
 70
     0
  9
$LUNITS
 70
     2
  9
$LUPREC
 70
     2
  9
$SKETCHINC
 40
1.0
  9
$FILLETRAD
 40
10.0
  9
$AUNITS
 70
     0
  9
$AUPREC
 70
     2
  9
$MENU
  1
.
  9
$ELEVATION
 40
0.0
  9
$PELEVATION
 40
0.0
  9
$THICKNESS
 40
0.0
  9
$LIMCHECK
 70
     0
  9
$CHAMFERA
 40
0.0
  9
$CHAMFERB
 40
0.0
  9
$CHAMFERC
 40
0.0
  9
$CHAMFERD
 40
0.0
  9
$SKPOLY
 70
     0
  9
$TDCREATE
 40
2456755.574208206
  9
$TDUCREATE
 40
2456755.490874873
  9
$TDUPDATE
 40
2456755.61601794
  9
$TDUUPDATE
 40
2456755.532684606
  9
$TDINDWG
 40
0.0150071528
  9
$TDUSRTIMER
 40
2456755.532482789
  9
$USRTIMER
 70
     1
  9
$ANGBASE
 50
0.0
  9
$ANGDIR
 70
     0
  9
$PDMODE
 70
     0
  9
$PDSIZE
 40
-1.0
  9
$PLINEWID
 40
0.0
  9
$SPLFRAME
 70
     0
  9
$SPLINETYPE
 70
     6
  9
$SPLINESEGS
 70
     8
  9
$HANDSEED
  5
1020
  9
$SURFTAB1
 70
     6
  9
$SURFTAB2
 70
     6
  9
$SURFTYPE
 70
     6
  9
$SURFU
 70
     6
  9
$SURFV
 70
     6
  9
$UCSBASE
  2

  9
$UCSNAME
  2

  9
$UCSORG
 10
0.0
 20
0.0
 30
0.0
  9
$UCSXDIR
 10
1.0
 20
0.0
 30
0.0
  9
$UCSYDIR
 10
0.0
 20
1.0
 30
0.0
  9
$UCSORTHOREF
  2

  9
$UCSORTHOVIEW
 70
     0
  9
$UCSORGTOP
 10
0.0
 20
0.0
 30
0.0
  9
$UCSORGBOTTOM
 10
0.0
 20
0.0
 30
0.0
  9
$UCSORGLEFT
 10
0.0
 20
0.0
 30
0.0
  9
$UCSORGRIGHT
 10
0.0
 20
0.0
 30
0.0
  9
$UCSORGFRONT
 10
0.0
 20
0.0
 30
0.0
  9
$UCSORGBACK
 10
0.0
 20
0.0
 30
0.0
  9
$PUCSBASE
  2

  9
$PUCSNAME
  2

  9
$PUCSORG
 10
0.0
 20
0.0
 30
0.0
  9
$PUCSXDIR
 10
1.0
 20
0.0
 30
0.0
  9
$PUCSYDIR
 10
0.0
 20
1.0
 30
0.0
  9
$PUCSORTHOREF
  2

  9
$PUCSORTHOVIEW
 70
     0
  9
$PUCSORGTOP
 10
0.0
 20
0.0
 30
0.0
  9
$PUCSORGBOTTOM
 10
0.0
 20
0.0
 30
0.0
  9
$PUCSORGLEFT
 10
0.0
 20
0.0
 30
0.0
  9
$PUCSORGRIGHT
 10
0.0
 20
0.0
 30
0.0
  9
$PUCSORGFRONT
 10
0.0
 20
0.0
 30
0.0
  9
$PUCSORGBACK
 10
0.0
 20
0.0
 30
0.0
  9
$USERI1
 70
     0
  9
$USERI2
 70
     0
  9
$USERI3
 70
     0
  9
$USERI4
 70
     0
  9
$USERI5
 70
     0
  9
$USERR1
 40
0.0
  9
$USERR2
 40
0.0
  9
$USERR3
 40
0.0
  9
$USERR4
 40
0.0
  9
$USERR5
 40
0.0
  9
$WORLDVIEW
 70
     1
  9
$SHADEDGE
 70
     3
  9
$SHADEDIF
 70
    70
  9
$TILEMODE
 70
     1
  9
$MAXACTVP
 70
    64
  9
$PINSBASE
 10
0.0
 20
0.0
 30
0.0
  9
$PLIMCHECK
 70
     0
  9
$PEXTMIN
 10
1.000000000000000E+20
 20
1.000000000000000E+20
 30
1.000000000000000E+20
  9
$PEXTMAX
 10
-1.000000000000000E+20
 20
-1.000000000000000E+20
 30
-1.000000000000000E+20
  9
$PLIMMIN
 10
0.0
 20
0.0
  9
$PLIMMAX
 10
0.0
 20
0.0
  9
$UNITMODE
 70
     0
  9
$VISRETAIN
 70
     1
  9
$PLINEGEN
 70
     0
  9
$PSLTSCALE
 70
     1
  9
$TREEDEPTH
 70
  3020
  9
$CMLSTYLE
  2
Standard
  9
$CMLJUST
 70
     0
  9
$CMLSCALE
 40
20.0
  9
$PROXYGRAPHICS
 70
     1
  9
$MEASUREMENT
 70
     1
  9
$CELWEIGHT
370
    -1
  9
$ENDCAPS
280
     0
  9
$JOINSTYLE
280
     0
  9
$LWDISPLAY
290
     1
  9
$INSUNITS
 70
     4
  9
$HYPERLINKBASE
  1

  9
$STYLESHEET
  1

  9
$XEDIT
290
     1
  9
$CEPSNTYPE
380
     0
  9
$PSTYLEMODE
290
     1
  9
$FINGERPRINTGUID
  2
{7954139C-7555-4AE6-BEAC-62E8D2CB68AF}
  9
$VERSIONGUID
  2
{FAEB1C32-E019-11D5-929B-00C0DF256EC4}
  9
$EXTNAMES
290
     1
  9
$PSVPSCALE
 40
0.0
  9
$OLESTARTUP
290
     0
  9
$SORTENTS
280
   127
  9
$INDEXCTL
280
     0
  9
$HIDETEXT
280
     1
  9
$XCLIPFRAME
280
     2
  9
$HALOGAP
280
     0
  9
$OBSCOLOR
 70
   257
  9
$OBSLTYPE
280
     0
  9
$INTERSECTIONDISPLAY
280
     0
  9
$INTERSECTIONCOLOR
 70
   257
  9
$DIMASSOC
280
     2
  9
$PROJECTNAME
  1

  9
$CAMERADISPLAY
290
     0
  9
$LENSLENGTH
 40
50.0
  9
$CAMERAHEIGHT
 40
0.0
  9
$STEPSPERSEC
 40
2.0
  9
$STEPSIZE
 40
6.0
  9
$3DDWFPREC
 40
2.0
  9
$PSOLWIDTH
 40
0.25
  9
$PSOLHEIGHT
 40
4.0
  9
$LOFTANG1
 40
1.570796326794897
  9
$LOFTANG2
 40
1.570796326794897
  9
$LOFTMAG1
 40
0.0
  9
$LOFTMAG2
 40
0.0
  9
$LOFTPARAM
 70
     7
  9
$LOFTNORMALS
280
     1
  9
$LATITUDE
 40
37.795
  9
$LONGITUDE
 40
-122.394
  9
$NORTHDIRECTION
 40
0.0
  9
$TIMEZONE
 70
 -8000
  9
$LIGHTGLYPHDISPLAY
280
     1
  9
$TILEMODELIGHTSYNCH
280
     1
  9
$SOLIDHIST
280
     1
  9
$SHOWHIST
280
     1
  9
$DWFFRAME
280
     2
  9
$DGNFRAME
280
     2
  9
$REALWORLDSCALE
290
     1
  9
$INTERFERECOLOR
 62
   256
  9
$CSHADOW
280
     0
  9
$SHADOWPLANELOCATION
 40
0.0
  0
ENDSEC
  0
SECTION
  2
CLASSES
  0
CLASS
  1
ACDBDICTIONARYWDFLT
  2
AcDbDictionaryWithDefault
  3
ObjectDBX Classes
 90
        0
 91
        5
280
     0
281
     0
  0
CLASS
  1
VISUALSTYLE
  2
AcDbVisualStyle
  3
ObjectDBX Classes
 90
     4095
 91
        5
280
     0
281
     0
  0
CLASS
  1
MATERIAL
  2
AcDbMaterial
  3
ObjectDBX Classes
 90
     1153
 91
        5
280
     0
281
     0
  0
CLASS
  1
SCALE
  2
AcDbScale
  3
ObjectDBX Classes
 90
     1153
 91
        5
280
     0
281
     0
  0
CLASS
  1
SUN
  2
AcDbSun
  3
SCENEOE
 90
     1153
 91
        5
280
     0
281
     0
  0
CLASS
  1
ACDBPLACEHOLDER
  2
AcDbPlaceHolder
  3
ObjectDBX Classes
 90
        0
 91
        1
280
     0
281
     0
  0
CLASS
  1
LAYOUT
  2
AcDbLayout
  3
ObjectDBX Classes
 90
        0
 91
        1
280
     0
281
     0
  0
CLASS
  1
TABLESTYLE
  2
AcDbTableStyle
  3
ObjectDBX Classes
 90
     4095
 91
        5
280
     0
281
     0
  0
CLASS
  1
RASTERVARIABLES
  2
AcDbRasterVariables
  3
ISM
 90
        0
 91
        5
280
     0
281
     0
  0
CLASS
  1
SORTENTSTABLE
  2
AcDbSortentsTable
  3
ObjectDBX Classes
 90
        0
 91
        4
280
     0
281
     0
  0
CLASS
  1
CELLSTYLEMAP
  2
AcDbCellStyleMap
  3
ObjectDBX Classes
 90
     1152
 91
        4
280
     0
281
     0
  0
CLASS
  1
DICTIONARYVAR
  2
AcDbDictionaryVar
  3
ObjectDBX Classes
 90
        0
 91
        4
280
     0
281
     0
  0
CLASS
  1
DIMASSOC
  2
AcDbDimAssoc
  3
"AcDbDimAssoc|Product Desc:     AcDim ARX App For Dimension|Company:          Autodesk, Inc.|WEB Address:      www.autodesk.com"
 90
        0
 91
        4
280
     0
281
     0
  0
ENDSEC
  0
SECTION
  2
TABLES
  0
TABLE
  2
VPORT
  5
8
330
0
100
AcDbSymbolTable
 70
     1
  0
VPORT
  5
29
330
8
100
AcDbSymbolTableRecord
100
AcDbViewportTableRecord
  2
*Active
 70
     0
 10
0.0
 20
0.0
 11
1.0
 21
1.0
 12
202.410207333765
 22
376.0393434608147
 13
0.0
 23
0.0
 14
10.0
 24
10.0
 15
10.0
 25
10.0
 16
0.0
 26
0.0
 36
1.0
 17
0.0
 27
0.0
 37
0.0
 40
334.5195991342874
 41
1.903581267217631
 42
50.0
 43
0.0
 44
0.0
 50
0.0
 51
0.0
 71
    16
 72
  2000
 73
     1
 74
     3
 75
     0
 76
     0
 77
     0
 78
     0
281
     0
 65
     1
110
0.0
120
0.0
130
0.0
111
1.0
121
0.0
131
0.0
112
0.0
122
1.0
132
0.0
 79
     0
146
0.0
348
843
 60
     3
 61
     5
292
     1
282
     1
141
0.0
142
0.0
 63
   256
361
85E
  0
ENDTAB
  0
TABLE
  2
LTYPE
  5
5
330
0
100
AcDbSymbolTable
 70
     6
  0
LTYPE
  5
14
330
5
100
AcDbSymbolTableRecord
100
AcDbLinetypeTableRecord
  2
ByBlock
 70
     0
  3

 72
    65
 73
     0
 40
0.0
  0
LTYPE
  5
15
330
5
100
AcDbSymbolTableRecord
100
AcDbLinetypeTableRecord
  2
ByLayer
 70
     0
  3

 72
    65
 73
     0
 40
0.0
  0
LTYPE
  5
16
330
5
100
AcDbSymbolTableRecord
100
AcDbLinetypeTableRecord
  2
Continuous
 70
     0
  3
Solid line
 72
    65
 73
     0
 40
0.0
  0
LTYPE
  5
6A
330
5
100
AcDbSymbolTableRecord
100
AcDbLinetypeTableRecord
  2
HIDDEN
 70
     0
  3
Hidden __ __ __ __ __ __ __ __ __ __ __ __ __ __
 72
    65
 73
     2
 40
1.905
 49
1.27
 74
     0
 49
-0.635
 74
     0
  0
LTYPE
  5
6B
330
5
100
AcDbSymbolTableRecord
100
AcDbLinetypeTableRecord
  2
PHANTOM
 70
     0
  3
Phantom ______  __  __  ______  __  __  ______
 72
    65
 73
     6
 40
12.7
 49
6.35
 74
     0
 49
-1.27
 74
     0
 49
1.27
 74
     0
 49
-1.27
 74
     0
 49
1.27
 74
     0
 49
-1.27
 74
     0
  0
LTYPE
  5
6C
330
5
100
AcDbSymbolTableRecord
100
AcDbLinetypeTableRecord
  2
CENTER
 70
     0
  3
Center ____ _ ____ _ ____ _ ____ _ ____ _ ____
 72
    65
 73
     4
 40
10.16
 49
6.35
 74
     0
 49
-1.27
 74
     0
 49
1.27
 74
     0
 49
-1.27
 74
     0
  0
LTYPE
  5
6D
330
5
100
AcDbSymbolTableRecord
100
AcDbLinetypeTableRecord
  2
CENTERX2
 70
     0
  3
Center (2x) ________  __  ________  __  _____
 72
    65
 73
     4
 40
20.32
 49
12.7
 74
     0
 49
-2.54
 74
     0
 49
2.54
 74
     0
 49
-2.54
 74
     0
  0
LTYPE
  5
6E
330
5
100
AcDbSymbolTableRecord
100
AcDbLinetypeTableRecord
  2
DOT2
 70
     0
  3
Dot (.5x) ........................................
 72
    65
 73
     2
 40
0.635
 49
0.0
 74
     0
 49
-0.635
 74
     0
  0
ENDTAB
  0
TABLE
  2
LAYER
  5
2
330
0
100
AcDbSymbolTable
 70
     5
  0
LAYER
  5
10
330
2
100
AcDbSymbolTableRecord
100
AcDbLayerTableRecord
  2
0
 70
     0
 62
     7
  6
Continuous
370
    -3
390
F
347
85A
348
0
  0
LAYER
  5
6F
330
2
100
AcDbSymbolTableRecord
100
AcDbLayerTableRecord
  2
QUOTE
 70
     0
 62
     3
  6
Continuous
370
    -3
390
F
347
85A
348
0
  0
LAYER
  5
70
330
2
100
AcDbSymbolTableRecord
100
AcDbLayerTableRecord
  2
ASSI
 70
     0
 62
     1
  6
CENTERX2
370
    -3
390
F
347
85A
348
0
  0
LAYER
  5
71
330
2
100
AcDbSymbolTableRecord
100
AcDbLayerTableRecord
  2
TRATTEGGIO
 70
     0
 62
     4
  6
Continuous
370
    -3
390
F
347
85A
348
0
  0
LAYER
  5
FB2
330
2
100
AcDbSymbolTableRecord
100
AcDbLayerTableRecord
  2
Defpoints
 70
     0
 62
     7
  6
Continuous
290
     0
370
    -3
390
F
347
85A
348
0
  0
ENDTAB
  0
TABLE
  2
STYLE
  5
3
330
0
100
AcDbSymbolTable
 70
     2
  0
STYLE
  5
11
330
3
100
AcDbSymbolTableRecord
100
AcDbTextStyleTableRecord
  2
Standard
 70
     0
 40
0.0
 41
1.0
 50
0.0
 71
     0
 42
2.8
  3
txt
  4

  0
STYLE
  5
74
330
3
100
AcDbSymbolTableRecord
100
AcDbTextStyleTableRecord
  2
SLDTEXTSTYLE0
 70
     0
 40
0.0
 41
0.75
 50
0.0
 71
     0
 42
2.8
  3
TXT
  4

  0
ENDTAB
  0
TABLE
  2
VIEW
  5
6
330
0
100
AcDbSymbolTable
 70
     0
  0
ENDTAB
  0
TABLE
  2
UCS
  5
7
330
0
100
AcDbSymbolTable
 70
     0
  0
ENDTAB
  0
TABLE
  2
APPID
  5
9
330
0
100
AcDbSymbolTable
 70
     1
  0
APPID
  5
12
330
9
100
AcDbSymbolTableRecord
100
AcDbRegAppTableRecord
  2
ACAD
 70
     0
  0
ENDTAB
  0
TABLE
  2
DIMSTYLE
  5
A
330
0
100
AcDbSymbolTable
 70
     2
100
AcDbDimStyleTable
  0
DIMSTYLE
105
27
330
A
100
AcDbSymbolTableRecord
100
AcDbDimStyleTableRecord
  2
ISO-25
 70
     0
 41
2.5
 42
0.625
 43
3.75
 44
1.25
 73
     0
 74
     0
 77
     1
 78
     8
140
2.5
141
2.5
143
0.0393700787
147
0.625
171
     3
172
     1
178
     0
271
     2
272
     2
274
     3
278
    44
283
     0
284
     8
340
11
  0
DIMSTYLE
105
862
330
A
100
AcDbSymbolTableRecord
100
AcDbDimStyleTableRecord
  2
Standard
 70
     0
 41
1.25
 42
0.0
 44
0.75
 73
     0
 74
     0
 77
     1
140
2.5
146
0.8
147
1.25
176
     7
177
     7
271
     2
178
     7
271
     2
340
11
  0
ENDTAB
  0
TABLE
  2
BLOCK_RECORD
  5
1
330
0
100
AcDbSymbolTable
 70
    12
  0
BLOCK_RECORD
  5
1F
330
1
100
AcDbSymbolTableRecord
100
AcDbBlockTableRecord
  2
*Model_Space
340
22
 70
     0
280
     1
281
     0
  0
BLOCK_RECORD
  5
1B
330
1
100
AcDbSymbolTableRecord
100
AcDbBlockTableRecord
  2
*Paper_Space
340
1E
 70
     0
280
     1
281
     0
  0
BLOCK_RECORD
  5
23
330
1
100
AcDbSymbolTableRecord
100
AcDbBlockTableRecord
  2
*Paper_Space0
340
26
 70
     0
280
     1
281
     0
  0
BLOCK_RECORD
  5
DD
330
1
100
AcDbSymbolTableRecord
100
AcDbBlockTableRecord
  2
SW_CENTERMARKSYMBOL_0
340
0
 70
     0
280
     1
281
     0
  0
BLOCK_RECORD
  5
E9
330
1
100
AcDbSymbolTableRecord
100
AcDbBlockTableRecord
  2
SW_CENTERMARKSYMBOL_1
340
0
102
{BLKREFS
331
F4
102
}
 70
     0
280
     1
281
     0
  0
BLOCK_RECORD
  5
F5
330
1
100
AcDbSymbolTableRecord
100
AcDbBlockTableRecord
  2
SW_CENTERMARKSYMBOL_2
340
0
102
{BLKREFS
331
100
102
}
 70
     0
280
     1
281
     0
  0
BLOCK_RECORD
  5
39B
330
1
100
AcDbSymbolTableRecord
100
AcDbBlockTableRecord
  2
SW_CENTERMARKSYMBOL_3
340
0
 70
     0
280
     1
281
     0
  0
BLOCK_RECORD
  5
3A7
330
1
100
AcDbSymbolTableRecord
100
AcDbBlockTableRecord
  2
SW_CENTERMARKSYMBOL_4
340
0
 70
     0
280
     1
281
     0
  0
BLOCK_RECORD
  5
3B3
330
1
100
AcDbSymbolTableRecord
100
AcDbBlockTableRecord
  2
SW_CENTERMARKSYMBOL_5
340
0
102
{BLKREFS
331
0
102
}
 70
     0
280
     1
281
     0
  0
BLOCK_RECORD
  5
3BF
330
1
100
AcDbSymbolTableRecord
100
AcDbBlockTableRecord
  2
SW_CENTERMARKSYMBOL_6
340
0
102
{BLKREFS
331
0
102
}
 70
     0
280
     1
281
     0
  0
BLOCK_RECORD
  5
3CB
330
1
100
AcDbSymbolTableRecord
100
AcDbBlockTableRecord
  2
SW_CENTERMARKSYMBOL_7
340
0
102
{BLKREFS
331
0
102
}
 70
     0
280
     1
281
     0
  0
BLOCK_RECORD
  5
3D7
330
1
100
AcDbSymbolTableRecord
100
AcDbBlockTableRecord
  2
SW_CENTERMARKSYMBOL_8
340
0
102
{BLKREFS
331
0
102
}
 70
     0
280
     1
281
     0
  0
BLOCK_RECORD
  5
686
330
1
100
AcDbSymbolTableRecord
100
AcDbBlockTableRecord
  2
SW_CENTERMARKSYMBOL_9
340
0
102
{BLKREFS
331
0
102
}
 70
     0
280
     1
281
     0
  0
BLOCK_RECORD
  5
692
330
1
100
AcDbSymbolTableRecord
100
AcDbBlockTableRecord
  2
SW_CENTERMARKSYMBOL_10
340
0
102
{BLKREFS
331
0
102
}
 70
     0
280
     1
281
     0
  0
ENDTAB
  0
ENDSEC
  0
SECTION
  2
BLOCKS
  0
BLOCK
  5
20
330
1F
100
AcDbEntity
  8
0
100
AcDbBlockBegin
  2
*Model_Space
 70
     0
 10
0.0
 20
0.0
 30
0.0
  3
*Model_Space
  1
*Model_Space
  0
ENDBLK
  5
21
330
1F
100
AcDbEntity
  8
0
100
AcDbBlockEnd
  0
BLOCK
  5
1C
330
1B
100
AcDbEntity
 67
     1
  8
0
100
AcDbBlockBegin
  2
*Paper_Space
 70
     0
 10
0.0
 20
0.0
 30
0.0
  3
*Paper_Space
  1
*Paper_Space
  0
ENDBLK
  5
1D
330
1B
100
AcDbEntity
 67
     1
  8
0
100
AcDbBlockEnd
  0
BLOCK
  5
24
330
23
100
AcDbEntity
  8
0
100
AcDbBlockBegin
  2
*Paper_Space0
 70
     0
 10
0.0
 20
0.0
 30
0.0
  3
*Paper_Space0
  1
*Paper_Space0
  0
ENDBLK
  5
25
330
23
100
AcDbEntity
  8
0
100
AcDbBlockEnd
  0
BLOCK
  5
DE
330
DD
100
AcDbEntity
  8
0
100
AcDbBlockBegin
  2
SW_CENTERMARKSYMBOL_0
 70
     0
 10
0.0
 20
0.0
 30
0.0
  3
SW_CENTERMARKSYMBOL_0
  1
SW_CENTERMARKSYMBOL_0
  0
LINE
  5
E0
330
DD
100
AcDbEntity
  8
ASSI
 62
     0
100
AcDbLine
 10
0.0
 20
0.0
 30
0.0
 11
0.0
 21
2.5
 31
0.0
  0
LINE
  5
E1
330
DD
100
AcDbEntity
  8
ASSI
 62
     0
100
AcDbLine
 10
0.0
 20
0.0
 30
0.0
 11
-2.5
 21
0.0
 31
0.0
  0
LINE
  5
E2
330
DD
100
AcDbEntity
  8
ASSI
 62
     0
100
AcDbLine
 10
0.0
 20
0.0
 30
0.0
 11
0.0
 21
-2.5
 31
0.0
  0
LINE
  5
E3
330
DD
100
AcDbEntity
  8
ASSI
 62
     0
100
AcDbLine
 10
0.0
 20
0.0
 30
0.0
 11
2.5
 21
0.0
 31
0.0
  0
LINE
  5
E4
330
DD
100
AcDbEntity
  8
ASSI
 62
     0
100
AcDbLine
 10
0.0
 20
5.0
 30
0.0
 11
0.0
 21
10.4
 31
0.0
  0
LINE
  5
E5
330
DD
100
AcDbEntity
  8
ASSI
 62
     0
100
AcDbLine
 10
-5.0
 20
0.0
 30
0.0
 11
-10.4
 21
0.0
 31
0.0
  0
LINE
  5
E6
330
DD
100
AcDbEntity
  8
ASSI
 62
     0
100
AcDbLine
 10
0.0
 20
-5.0
 30
0.0
 11
0.0
 21
-10.4
 31
0.0
  0
LINE
  5
E7
330
DD
100
AcDbEntity
  8
ASSI
 62
     0
100
AcDbLine
 10
5.0
 20
0.0
 30
0.0
 11
10.4
 21
0.0
 31
0.0
  0
ENDBLK
  5
DF
330
DD
100
AcDbEntity
  8
0
100
AcDbBlockEnd
  0
BLOCK
  5
EA
330
E9
100
AcDbEntity
  8
0
100
AcDbBlockBegin
  2
SW_CENTERMARKSYMBOL_1
 70
     0
 10
0.0
 20
0.0
 30
0.0
  3
SW_CENTERMARKSYMBOL_1
  1
SW_CENTERMARKSYMBOL_1
  0
LINE
  5
EC
330
E9
100
AcDbEntity
  8
ASSI
 62
     0
100
AcDbLine
 10
0.0
 20
0.0
 30
0.0
 11
0.0
 21
2.5
 31
0.0
  0
LINE
  5
ED
330
E9
100
AcDbEntity
  8
ASSI
 62
     0
100
AcDbLine
 10
0.0
 20
0.0
 30
0.0
 11
-2.5
 21
0.0
 31
0.0
  0
LINE
  5
EE
330
E9
100
AcDbEntity
  8
ASSI
 62
     0
100
AcDbLine
 10
0.0
 20
0.0
 30
0.0
 11
0.0
 21
-2.5
 31
0.0
  0
LINE
  5
EF
330
E9
100
AcDbEntity
  8
ASSI
 62
     0
100
AcDbLine
 10
0.0
 20
0.0
 30
0.0
 11
2.5
 21
0.0
 31
0.0
  0
LINE
  5
F0
330
E9
100
AcDbEntity
  8
ASSI
 62
     0
100
AcDbLine
 10
0.0
 20
5.0
 30
0.0
 11
0.0
 21
7.7
 31
0.0
  0
LINE
  5
F1
330
E9
100
AcDbEntity
  8
ASSI
 62
     0
100
AcDbLine
 10
-5.0
 20
0.0
 30
0.0
 11
-7.7
 21
0.0
 31
0.0
  0
LINE
  5
F2
330
E9
100
AcDbEntity
  8
ASSI
 62
     0
100
AcDbLine
 10
0.0
 20
-5.0
 30
0.0
 11
0.0
 21
-7.7
 31
0.0
  0
LINE
  5
F3
330
E9
100
AcDbEntity
  8
ASSI
 62
     0
100
AcDbLine
 10
5.0
 20
0.0
 30
0.0
 11
7.7
 21
0.0
 31
0.0
  0
ENDBLK
  5
EB
330
E9
100
AcDbEntity
  8
0
100
AcDbBlockEnd
  0
BLOCK
  5
F6
330
F5
100
AcDbEntity
  8
0
100
AcDbBlockBegin
  2
SW_CENTERMARKSYMBOL_2
 70
     0
 10
0.0
 20
0.0
 30
0.0
  3
SW_CENTERMARKSYMBOL_2
  1
SW_CENTERMARKSYMBOL_2
  0
LINE
  5
F8
330
F5
100
AcDbEntity
  8
ASSI
 62
     0
100
AcDbLine
 10
0.0
 20
0.0
 30
0.0
 11
0.0
 21
2.5
 31
0.0
  0
LINE
  5
F9
330
F5
100
AcDbEntity
  8
ASSI
 62
     0
100
AcDbLine
 10
0.0
 20
0.0
 30
0.0
 11
-2.5
 21
0.0
 31
0.0
  0
LINE
  5
FA
330
F5
100
AcDbEntity
  8
ASSI
 62
     0
100
AcDbLine
 10
0.0
 20
0.0
 30
0.0
 11
0.0
 21
-2.5
 31
0.0
  0
LINE
  5
FB
330
F5
100
AcDbEntity
  8
ASSI
 62
     0
100
AcDbLine
 10
0.0
 20
0.0
 30
0.0
 11
2.5
 21
0.0
 31
0.0
  0
LINE
  5
FC
330
F5
100
AcDbEntity
  8
ASSI
 62
     0
100
AcDbLine
 10
0.0
 20
5.0
 30
0.0
 11
0.0
 21
7.7
 31
0.0
  0
LINE
  5
FD
330
F5
100
AcDbEntity
  8
ASSI
 62
     0
100
AcDbLine
 10
-5.0
 20
0.0
 30
0.0
 11
-7.7
 21
0.0
 31
0.0
  0
LINE
  5
FE
330
F5
100
AcDbEntity
  8
ASSI
 62
     0
100
AcDbLine
 10
0.0
 20
-5.0
 30
0.0
 11
0.0
 21
-7.7
 31
0.0
  0
LINE
  5
FF
330
F5
100
AcDbEntity
  8
ASSI
 62
     0
100
AcDbLine
 10
5.0
 20
0.0
 30
0.0
 11
7.7
 21
0.0
 31
0.0
  0
ENDBLK
  5
F7
330
F5
100
AcDbEntity
  8
0
100
AcDbBlockEnd
  0
BLOCK
  5
39C
330
39B
100
AcDbEntity
  8
0
100
AcDbBlockBegin
  2
SW_CENTERMARKSYMBOL_3
 70
     0
 10
0.0
 20
0.0
 30
0.0
  3
SW_CENTERMARKSYMBOL_3
  1
SW_CENTERMARKSYMBOL_3
  0
LINE
  5
39E
330
39B
100
AcDbEntity
  8
ASSI
 62
     0
100
AcDbLine
 10
0.0
 20
0.0
 30
0.0
 11
0.0
 21
2.5
 31
0.0
  0
LINE
  5
39F
330
39B
100
AcDbEntity
  8
ASSI
 62
     0
100
AcDbLine
 10
0.0
 20
0.0
 30
0.0
 11
-2.5
 21
0.0
 31
0.0
  0
LINE
  5
3A0
330
39B
100
AcDbEntity
  8
ASSI
 62
     0
100
AcDbLine
 10
0.0
 20
0.0
 30
0.0
 11
0.0
 21
-2.5
 31
0.0
  0
LINE
  5
3A1
330
39B
100
AcDbEntity
  8
ASSI
 62
     0
100
AcDbLine
 10
0.0
 20
0.0
 30
0.0
 11
2.5
 21
0.0
 31
0.0
  0
LINE
  5
3A2
330
39B
100
AcDbEntity
  8
ASSI
 62
     0
100
AcDbLine
 10
0.0
 20
5.0
 30
0.0
 11
0.0
 21
12.0
 31
0.0
  0
LINE
  5
3A3
330
39B
100
AcDbEntity
  8
ASSI
 62
     0
100
AcDbLine
 10
-5.0
 20
0.0
 30
0.0
 11
-12.0
 21
0.0
 31
0.0
  0
LINE
  5
3A4
330
39B
100
AcDbEntity
  8
ASSI
 62
     0
100
AcDbLine
 10
0.0
 20
-5.0
 30
0.0
 11
0.0
 21
-12.0
 31
0.0
  0
LINE
  5
3A5
330
39B
100
AcDbEntity
  8
ASSI
 62
     0
100
AcDbLine
 10
5.0
 20
0.0
 30
0.0
 11
12.0
 21
0.0
 31
0.0
  0
ENDBLK
  5
39D
330
39B
100
AcDbEntity
  8
0
100
AcDbBlockEnd
  0
BLOCK
  5
3A8
330
3A7
100
AcDbEntity
  8
0
100
AcDbBlockBegin
  2
SW_CENTERMARKSYMBOL_4
 70
     0
 10
0.0
 20
0.0
 30
0.0
  3
SW_CENTERMARKSYMBOL_4
  1
SW_CENTERMARKSYMBOL_4
  0
LINE
  5
3AA
330
3A7
100
AcDbEntity
  8
ASSI
 62
     0
100
AcDbLine
 10
0.0
 20
0.0
 30
0.0
 11
0.0
 21
2.5
 31
0.0
  0
LINE
  5
3AB
330
3A7
100
AcDbEntity
  8
ASSI
 62
     0
100
AcDbLine
 10
0.0
 20
0.0
 30
0.0
 11
-2.5
 21
0.0
 31
0.0
  0
LINE
  5
3AC
330
3A7
100
AcDbEntity
  8
ASSI
 62
     0
100
AcDbLine
 10
0.0
 20
0.0
 30
0.0
 11
0.0
 21
-2.5
 31
0.0
  0
LINE
  5
3AD
330
3A7
100
AcDbEntity
  8
ASSI
 62
     0
100
AcDbLine
 10
0.0
 20
0.0
 30
0.0
 11
2.5
 21
0.0
 31
0.0
  0
LINE
  5
3AE
330
3A7
100
AcDbEntity
  8
ASSI
 62
     0
100
AcDbLine
 10
0.0
 20
5.0
 30
0.0
 11
0.0
 21
12.0
 31
0.0
  0
LINE
  5
3AF
330
3A7
100
AcDbEntity
  8
ASSI
 62
     0
100
AcDbLine
 10
-5.0
 20
0.0
 30
0.0
 11
-12.0
 21
0.0
 31
0.0
  0
LINE
  5
3B0
330
3A7
100
AcDbEntity
  8
ASSI
 62
     0
100
AcDbLine
 10
0.0
 20
-5.0
 30
0.0
 11
0.0
 21
-12.0
 31
0.0
  0
LINE
  5
3B1
330
3A7
100
AcDbEntity
  8
ASSI
 62
     0
100
AcDbLine
 10
5.0
 20
0.0
 30
0.0
 11
12.0
 21
0.0
 31
0.0
  0
ENDBLK
  5
3A9
330
3A7
100
AcDbEntity
  8
0
100
AcDbBlockEnd
  0
BLOCK
  5
3B4
330
3B3
100
AcDbEntity
  8
0
100
AcDbBlockBegin
  2
SW_CENTERMARKSYMBOL_5
 70
     0
 10
0.0
 20
0.0
 30
0.0
  3
SW_CENTERMARKSYMBOL_5
  1
SW_CENTERMARKSYMBOL_5
  0
LINE
  5
3B6
330
3B3
100
AcDbEntity
  8
ASSI
 62
     0
100
AcDbLine
 10
0.0
 20
0.0
 30
0.0
 11
0.0
 21
2.5
 31
0.0
  0
LINE
  5
3B7
330
3B3
100
AcDbEntity
  8
ASSI
 62
     0
100
AcDbLine
 10
0.0
 20
0.0
 30
0.0
 11
-2.5
 21
0.0
 31
0.0
  0
LINE
  5
3B8
330
3B3
100
AcDbEntity
  8
ASSI
 62
     0
100
AcDbLine
 10
0.0
 20
0.0
 30
0.0
 11
0.0
 21
-2.5
 31
0.0
  0
LINE
  5
3B9
330
3B3
100
AcDbEntity
  8
ASSI
 62
     0
100
AcDbLine
 10
0.0
 20
0.0
 30
0.0
 11
2.5
 21
0.0
 31
0.0
  0
LINE
  5
3BA
330
3B3
100
AcDbEntity
  8
ASSI
 62
     0
100
AcDbLine
 10
0.0
 20
5.0
 30
0.0
 11
0.0
 21
7.7
 31
0.0
  0
LINE
  5
3BB
330
3B3
100
AcDbEntity
  8
ASSI
 62
     0
100
AcDbLine
 10
-5.0
 20
0.0
 30
0.0
 11
-7.7
 21
0.0
 31
0.0
  0
LINE
  5
3BC
330
3B3
100
AcDbEntity
  8
ASSI
 62
     0
100
AcDbLine
 10
0.0
 20
-5.0
 30
0.0
 11
0.0
 21
-7.7
 31
0.0
  0
LINE
  5
3BD
330
3B3
100
AcDbEntity
  8
ASSI
 62
     0
100
AcDbLine
 10
5.0
 20
0.0
 30
0.0
 11
7.7
 21
0.0
 31
0.0
  0
ENDBLK
  5
3B5
330
3B3
100
AcDbEntity
  8
0
100
AcDbBlockEnd
  0
BLOCK
  5
3C0
330
3BF
100
AcDbEntity
  8
0
100
AcDbBlockBegin
  2
SW_CENTERMARKSYMBOL_6
 70
     0
 10
0.0
 20
0.0
 30
0.0
  3
SW_CENTERMARKSYMBOL_6
  1
SW_CENTERMARKSYMBOL_6
  0
LINE
  5
3C2
330
3BF
100
AcDbEntity
  8
ASSI
 62
     0
100
AcDbLine
 10
0.0
 20
0.0
 30
0.0
 11
0.0
 21
2.5
 31
0.0
  0
LINE
  5
3C3
330
3BF
100
AcDbEntity
  8
ASSI
 62
     0
100
AcDbLine
 10
0.0
 20
0.0
 30
0.0
 11
-2.5
 21
0.0
 31
0.0
  0
LINE
  5
3C4
330
3BF
100
AcDbEntity
  8
ASSI
 62
     0
100
AcDbLine
 10
0.0
 20
0.0
 30
0.0
 11
0.0
 21
-2.5
 31
0.0
  0
LINE
  5
3C5
330
3BF
100
AcDbEntity
  8
ASSI
 62
     0
100
AcDbLine
 10
0.0
 20
0.0
 30
0.0
 11
2.5
 21
0.0
 31
0.0
  0
LINE
  5
3C6
330
3BF
100
AcDbEntity
  8
ASSI
 62
     0
100
AcDbLine
 10
0.0
 20
5.0
 30
0.0
 11
0.0
 21
7.7
 31
0.0
  0
LINE
  5
3C7
330
3BF
100
AcDbEntity
  8
ASSI
 62
     0
100
AcDbLine
 10
-5.0
 20
0.0
 30
0.0
 11
-7.7
 21
0.0
 31
0.0
  0
LINE
  5
3C8
330
3BF
100
AcDbEntity
  8
ASSI
 62
     0
100
AcDbLine
 10
0.0
 20
-5.0
 30
0.0
 11
0.0
 21
-7.7
 31
0.0
  0
LINE
  5
3C9
330
3BF
100
AcDbEntity
  8
ASSI
 62
     0
100
AcDbLine
 10
5.0
 20
0.0
 30
0.0
 11
7.7
 21
0.0
 31
0.0
  0
ENDBLK
  5
3C1
330
3BF
100
AcDbEntity
  8
0
100
AcDbBlockEnd
  0
BLOCK
  5
3CC
330
3CB
100
AcDbEntity
  8
0
100
AcDbBlockBegin
  2
SW_CENTERMARKSYMBOL_7
 70
     0
 10
0.0
 20
0.0
 30
0.0
  3
SW_CENTERMARKSYMBOL_7
  1
SW_CENTERMARKSYMBOL_7
  0
LINE
  5
3CE
330
3CB
100
AcDbEntity
  8
ASSI
 62
     0
100
AcDbLine
 10
0.0
 20
0.0
 30
0.0
 11
0.0
 21
2.5
 31
0.0
  0
LINE
  5
3CF
330
3CB
100
AcDbEntity
  8
ASSI
 62
     0
100
AcDbLine
 10
0.0
 20
0.0
 30
0.0
 11
-2.5
 21
0.0
 31
0.0
  0
LINE
  5
3D0
330
3CB
100
AcDbEntity
  8
ASSI
 62
     0
100
AcDbLine
 10
0.0
 20
0.0
 30
0.0
 11
0.0
 21
-2.5
 31
0.0
  0
LINE
  5
3D1
330
3CB
100
AcDbEntity
  8
ASSI
 62
     0
100
AcDbLine
 10
0.0
 20
0.0
 30
0.0
 11
2.5
 21
0.0
 31
0.0
  0
LINE
  5
3D2
330
3CB
100
AcDbEntity
  8
ASSI
 62
     0
100
AcDbLine
 10
0.0
 20
5.0
 30
0.0
 11
0.0
 21
7.7
 31
0.0
  0
LINE
  5
3D3
330
3CB
100
AcDbEntity
  8
ASSI
 62
     0
100
AcDbLine
 10
-5.0
 20
0.0
 30
0.0
 11
-7.7
 21
0.0
 31
0.0
  0
LINE
  5
3D4
330
3CB
100
AcDbEntity
  8
ASSI
 62
     0
100
AcDbLine
 10
0.0
 20
-5.0
 30
0.0
 11
0.0
 21
-7.7
 31
0.0
  0
LINE
  5
3D5
330
3CB
100
AcDbEntity
  8
ASSI
 62
     0
100
AcDbLine
 10
5.0
 20
0.0
 30
0.0
 11
7.7
 21
0.0
 31
0.0
  0
ENDBLK
  5
3CD
330
3CB
100
AcDbEntity
  8
0
100
AcDbBlockEnd
  0
BLOCK
  5
3D8
330
3D7
100
AcDbEntity
  8
0
100
AcDbBlockBegin
  2
SW_CENTERMARKSYMBOL_8
 70
     0
 10
0.0
 20
0.0
 30
0.0
  3
SW_CENTERMARKSYMBOL_8
  1
SW_CENTERMARKSYMBOL_8
  0
LINE
  5
3DA
330
3D7
100
AcDbEntity
  8
ASSI
 62
     0
100
AcDbLine
 10
0.0
 20
0.0
 30
0.0
 11
0.0
 21
2.5
 31
0.0
  0
LINE
  5
3DB
330
3D7
100
AcDbEntity
  8
ASSI
 62
     0
100
AcDbLine
 10
0.0
 20
0.0
 30
0.0
 11
-2.5
 21
0.0
 31
0.0
  0
LINE
  5
3DC
330
3D7
100
AcDbEntity
  8
ASSI
 62
     0
100
AcDbLine
 10
0.0
 20
0.0
 30
0.0
 11
0.0
 21
-2.5
 31
0.0
  0
LINE
  5
3DD
330
3D7
100
AcDbEntity
  8
ASSI
 62
     0
100
AcDbLine
 10
0.0
 20
0.0
 30
0.0
 11
2.5
 21
0.0
 31
0.0
  0
LINE
  5
3DE
330
3D7
100
AcDbEntity
  8
ASSI
 62
     0
100
AcDbLine
 10
0.0
 20
5.0
 30
0.0
 11
0.0
 21
7.7
 31
0.0
  0
LINE
  5
3DF
330
3D7
100
AcDbEntity
  8
ASSI
 62
     0
100
AcDbLine
 10
-5.0
 20
0.0
 30
0.0
 11
-7.7
 21
0.0
 31
0.0
  0
LINE
  5
3E0
330
3D7
100
AcDbEntity
  8
ASSI
 62
     0
100
AcDbLine
 10
0.0
 20
-5.0
 30
0.0
 11
0.0
 21
-7.7
 31
0.0
  0
LINE
  5
3E1
330
3D7
100
AcDbEntity
  8
ASSI
 62
     0
100
AcDbLine
 10
5.0
 20
0.0
 30
0.0
 11
7.7
 21
0.0
 31
0.0
  0
ENDBLK
  5
3D9
330
3D7
100
AcDbEntity
  8
0
100
AcDbBlockEnd
  0
BLOCK
  5
687
330
686
100
AcDbEntity
  8
0
100
AcDbBlockBegin
  2
SW_CENTERMARKSYMBOL_9
 70
     0
 10
0.0
 20
0.0
 30
0.0
  3
SW_CENTERMARKSYMBOL_9
  1
SW_CENTERMARKSYMBOL_9
  0
LINE
  5
689
330
686
100
AcDbEntity
  8
ASSI
 62
     0
100
AcDbLine
 10
0.0
 20
0.0
 30
0.0
 11
0.0
 21
2.5
 31
0.0
  0
LINE
  5
68A
330
686
100
AcDbEntity
  8
ASSI
 62
     0
100
AcDbLine
 10
0.0
 20
0.0
 30
0.0
 11
-2.5
 21
0.0
 31
0.0
  0
LINE
  5
68B
330
686
100
AcDbEntity
  8
ASSI
 62
     0
100
AcDbLine
 10
0.0
 20
0.0
 30
0.0
 11
0.0
 21
-2.5
 31
0.0
  0
LINE
  5
68C
330
686
100
AcDbEntity
  8
ASSI
 62
     0
100
AcDbLine
 10
0.0
 20
0.0
 30
0.0
 11
2.5
 21
0.0
 31
0.0
  0
LINE
  5
68D
330
686
100
AcDbEntity
  8
ASSI
 62
     0
100
AcDbLine
 10
0.0
 20
5.0
 30
0.0
 11
0.0
 21
7.7
 31
0.0
  0
LINE
  5
68E
330
686
100
AcDbEntity
  8
ASSI
 62
     0
100
AcDbLine
 10
-5.0
 20
0.0
 30
0.0
 11
-7.7
 21
0.0
 31
0.0
  0
LINE
  5
68F
330
686
100
AcDbEntity
  8
ASSI
 62
     0
100
AcDbLine
 10
0.0
 20
-5.0
 30
0.0
 11
0.0
 21
-7.7
 31
0.0
  0
LINE
  5
690
330
686
100
AcDbEntity
  8
ASSI
 62
     0
100
AcDbLine
 10
5.0
 20
0.0
 30
0.0
 11
7.7
 21
0.0
 31
0.0
  0
ENDBLK
  5
688
330
686
100
AcDbEntity
  8
0
100
AcDbBlockEnd
  0
BLOCK
  5
693
330
692
100
AcDbEntity
  8
0
100
AcDbBlockBegin
  2
SW_CENTERMARKSYMBOL_10
 70
     0
 10
0.0
 20
0.0
 30
0.0
  3
SW_CENTERMARKSYMBOL_10
  1
SW_CENTERMARKSYMBOL_10
  0
LINE
  5
695
330
692
100
AcDbEntity
  8
ASSI
 62
     0
100
AcDbLine
 10
0.0
 20
0.0
 30
0.0
 11
0.0
 21
2.5
 31
0.0
  0
LINE
  5
696
330
692
100
AcDbEntity
  8
ASSI
 62
     0
100
AcDbLine
 10
0.0
 20
0.0
 30
0.0
 11
-2.5
 21
0.0
 31
0.0
  0
LINE
  5
697
330
692
100
AcDbEntity
  8
ASSI
 62
     0
100
AcDbLine
 10
0.0
 20
0.0
 30
0.0
 11
0.0
 21
-2.5
 31
0.0
  0
LINE
  5
698
330
692
100
AcDbEntity
  8
ASSI
 62
     0
100
AcDbLine
 10
0.0
 20
0.0
 30
0.0
 11
2.5
 21
0.0
 31
0.0
  0
LINE
  5
699
330
692
100
AcDbEntity
  8
ASSI
 62
     0
100
AcDbLine
 10
0.0
 20
5.0
 30
0.0
 11
0.0
 21
7.7
 31
0.0
  0
LINE
  5
69A
330
692
100
AcDbEntity
  8
ASSI
 62
     0
100
AcDbLine
 10
-5.0
 20
0.0
 30
0.0
 11
-7.7
 21
0.0
 31
0.0
  0
LINE
  5
69B
330
692
100
AcDbEntity
  8
ASSI
 62
     0
100
AcDbLine
 10
0.0
 20
-5.0
 30
0.0
 11
0.0
 21
-7.7
 31
0.0
  0
LINE
  5
69C
330
692
100
AcDbEntity
  8
ASSI
 62
     0
100
AcDbLine
 10
5.0
 20
0.0
 30
0.0
 11
7.7
 21
0.0
 31
0.0
  0
ENDBLK
  5
694
330
692
100
AcDbEntity
  8
0
100
AcDbBlockEnd
  0
ENDSEC
  0
SECTION
  2
ENTITIES
  0
MTEXT
  5
75
330
1F
100
AcDbEntity
  8
0
  6
Continuous
 62
     7
370
     0
100
AcDbMText
 10
246.1979522615701
 20
540.0195391148773
 30
0.0
 40
19.05
 41
0.0
 46
0.0
 71
     1
 72
     1
  1
8060GEH
  7
SLDTEXTSTYLE0
 73
     1
 44
1.0
  0
LINE
  5
78
330
1F
100
AcDbEntity
  8
0
100
AcDbLine
 10
167.1658353754
 20
387.9777251702
 30
0.0
 11
167.1658353754
 21
387.8416952636
 31
0.0
  0
LINE
  5
79
330
1F
100
AcDbEntity
  8
0
100
AcDbLine
 10
185.1658420511
 20
387.8416952636
 30
0.0
 11
185.1658420511
 21
387.9777251702
 31
0.0
  0
LINE
  5
7A
330
1F
100
AcDbEntity
  8
0
100
AcDbLine
 10
167.1658353754
 20
387.8416952636
 30
0.0
 11
168.1658374019
 21
387.4777250883
 31
0.0
  0
LINE
  5
7B
330
1F
100
AcDbEntity
  8
0
100
AcDbLine
 10
184.1658400246
 20
387.4777250883
 30
0.0
 11
185.1658420511
 21
387.8416952636
 31
0.0
  0
LINE
  5
7C
330
1F
100
AcDbEntity
  8
0
100
AcDbLine
 10
185.1658420511
 20
442.9777220782
 30
0.0
 11
185.1658420511
 21
443.1137547788
 31
0.0
  0
LINE
  5
7D
330
1F
100
AcDbEntity
  8
0
100
AcDbLine
 10
167.1658353754
 20
443.1137547788
 30
0.0
 11
167.1658353754
 21
442.9777220782
 31
0.0
  0
LINE
  5
7E
330
1F
100
AcDbEntity
  8
0
100
AcDbLine
 10
185.1658420511
 20
443.1137547788
 30
0.0
 11
184.1658400246
 21
443.4777230915
 31
0.0
  0
LINE
  5
7F
330
1F
100
AcDbEntity
  8
0
100
AcDbLine
 10
168.1658374019
 20
443.4777230915
 30
0.0
 11
167.1658353754
 21
443.1137547788
 31
0.0
  0
ARC
  5
80
330
1F
100
AcDbEntity
  8
0
100
AcDbCircle
 10
185.8463668859
 20
410.0048066911
 30
0.0
 40
1.999999999999995
100
AcDbArc
 50
339.1853868473
 51
20.8146131528
  0
ARC
  5
81
330
1F
100
AcDbEntity
  8
0
100
AcDbCircle
 10
195.7658370395
 20
405.47772482
 30
0.0
 40
4.999999999999993
100
AcDbArc
 50
156.4218215218
 51
203.5781784782
  0
LINE
  5
82
330
1F
100
AcDbEntity
  8
0
100
AcDbLine
 10
191.1832587667
 20
403.4777239856
 30
0.0
 11
191.9658379503
 21
403.4777239856
 31
0.0
  0
LINE
  5
83
330
1F
100
AcDbEntity
  8
0
100
AcDbLine
 10
191.9658379503
 20
407.4777246412
 30
0.0
 11
191.1832587667
 21
407.4777246412
 31
0.0
  0
ARC
  5
84
330
1F
100
AcDbEntity
  8
0
100
AcDbCircle
 10
195.7658370395
 20
425.47772482
 30
0.0
 40
4.999999999999993
100
AcDbArc
 50
156.4218215218
 51
203.5781784782
  0
LINE
  5
85
330
1F
100
AcDbEntity
  8
0
100
AcDbLine
 10
191.1832587667
 20
423.4777235385
 30
0.0
 11
191.9658379503
 21
423.4777235385
 31
0.0
  0
LINE
  5
86
330
1F
100
AcDbEntity
  8
0
100
AcDbLine
 10
191.9658379503
 20
427.4777241942
 30
0.0
 11
191.1832587667
 21
427.4777241942
 31
0.0
  0
LINE
  5
87
330
1F
100
AcDbEntity
  8
0
100
AcDbLine
 10
163.4658397981
 20
456.477727085
 30
0.0
 11
163.4658397981
 21
443.5777247843
 31
0.0
  0
LINE
  5
88
330
1F
100
AcDbEntity
  8
0
100
AcDbLine
 10
163.4658397981
 20
387.3777252581
 30
0.0
 11
163.4658397981
 21
374.47772482
 31
0.0
  0
ARC
  5
89
330
1F
100
AcDbEntity
  8
0
100
AcDbCircle
 10
83.0158370395
 20
402.77772482
 30
0.0
 40
0.3000000000000114
100
AcDbArc
 50
180.0
 51
270.0
  0
ARC
  5
8A
330
1F
100
AcDbEntity
  8
0
100
AcDbCircle
 10
83.0158370395
 20
428.17772482
 30
0.0
 40
0.3000000000000114
100
AcDbArc
 50
90.0
 51
180.0
  0
LINE
  5
8B
330
1F
100
AcDbEntity
  8
0
100
AcDbLine
 10
83.4290915974
 20
428.4777262207
 30
0.0
 11
83.015837694
 21
428.4777262207
 31
0.0
  0
LINE
  5
8C
330
1F
100
AcDbEntity
  8
0
100
AcDbLine
 10
83.015837694
 20
402.4777256843
 30
0.0
 11
83.4335619458
 21
402.4777256843
 31
0.0
  0
LINE
  5
8D
330
1F
100
AcDbEntity
  8
0
100
AcDbLine
 10
195.715834374
 20
379.1777247522
 30
0.0
 11
218.7158362814
 21
379.1777247522
 31
0.0
  0
ARC
  5
8E
330
1F
100
AcDbEntity
  8
0
100
AcDbCircle
 10
195.7158370395
 20
382.67772482
 30
0.0
 40
3.5
100
AcDbArc
 50
180.0
 51
270.0
  0
LINE
  5
8F
330
1F
100
AcDbEntity
  8
0
100
AcDbLine
 10
218.7158362814
 20
451.7777220305
 30
0.0
 11
195.715834374
 21
451.7777220305
 31
0.0
  0
ARC
  5
90
330
1F
100
AcDbEntity
  8
0
100
AcDbCircle
 10
218.7158370395
 20
382.67772482
 30
0.0
 40
3.5
100
AcDbArc
 50
270.0
 51
0.0
  0
LINE
  5
91
330
1F
100
AcDbEntity
  8
0
100
AcDbLine
 10
192.2158347317
 20
448.2777223882
 30
0.0
 11
192.2158347317
 21
382.6777248603
 31
0.0
  0
ARC
  5
92
330
1F
100
AcDbEntity
  8
0
100
AcDbCircle
 10
195.7158370395
 20
448.27772482
 30
0.0
 40
3.5
100
AcDbArc
 50
90.0
 51
180.0
  0
ARC
  5
93
330
1F
100
AcDbEntity
  8
0
100
AcDbCircle
 10
218.7158370395
 20
448.27772482
 30
0.0
 40
3.5
100
AcDbArc
 50
0.0
 51
90.0
  0
LINE
  5
94
330
1F
100
AcDbEntity
  8
0
100
AcDbLine
 10
222.2158359238
 20
382.6777248603
 30
0.0
 11
222.2158359238
 21
448.2777223882
 31
0.0
  0
LINE
  5
95
330
1F
100
AcDbEntity
  8
0
100
AcDbLine
 10
167.1658353754
 20
387.8416952636
 30
0.0
 11
185.1658420511
 21
387.8416952636
 31
0.0
  0
LINE
  5
96
330
1F
100
AcDbEntity
  8
0
100
AcDbLine
 10
168.1658374019
 20
387.4777250883
 30
0.0
 11
184.1658400246
 21
387.4777250883
 31
0.0
  0
LINE
  5
97
330
1F
100
AcDbEntity
  8
0
100
AcDbLine
 10
181.844283814
 20
443.1137547788
 30
0.0
 11
167.1658353754
 21
443.1137547788
 31
0.0
  0
LINE
  5
98
330
1F
100
AcDbEntity
  8
0
100
AcDbLine
 10
185.1658420511
 20
443.1137547788
 30
0.0
 11
181.844283814
 21
443.1137547788
 31
0.0
  0
LINE
  5
99
330
1F
100
AcDbEntity
  8
0
100
AcDbLine
 10
181.2133537479
 20
443.4777230915
 30
0.0
 11
168.1658374019
 21
443.4777230915
 31
0.0
  0
LINE
  5
9A
330
1F
100
AcDbEntity
  8
0
100
AcDbLine
 10
184.1658400246
 20
443.4777230915
 30
0.0
 11
181.2133537479
 21
443.4777230915
 31
0.0
  0
LINE
  5
9B
330
1F
100
AcDbEntity
  8
0
100
AcDbLine
 10
191.1832587667
 20
403.4777239856
 30
0.0
 11
191.1832587667
 21
407.4777246412
 31
0.0
  0
LINE
  5
9C
330
1F
100
AcDbEntity
  8
0
100
AcDbLine
 10
191.1832587667
 20
423.4777235385
 30
0.0
 11
191.1832587667
 21
427.4777241942
 31
0.0
  0
ARC
  5
9D
330
1F
100
AcDbEntity
  8
0
100
AcDbCircle
 10
219.4658370395
 20
448.97772482
 30
0.0
 40
3.0
100
AcDbArc
 50
0.0
 51
90.0
  0
LINE
  5
9E
330
1F
100
AcDbEntity
  8
0
100
AcDbLine
 10
219.4658415266
 20
451.9777254161
 30
0.0
 11
194.96584403
 21
451.9777254161
 31
0.0
  0
ARC
  5
9F
330
1F
100
AcDbEntity
  8
0
100
AcDbCircle
 10
194.9658370395
 20
448.97772482
 30
0.0
 40
3.0
100
AcDbArc
 50
90.0
 51
180.0
  0
LINE
  5
A0
330
1F
100
AcDbEntity
  8
0
100
AcDbLine
 10
191.9658379503
 20
448.977726787
 30
0.0
 11
191.9658379503
 21
443.5777247843
 31
0.0
  0
LINE
  5
A1
330
1F
100
AcDbEntity
  8
0
100
AcDbLine
 10
177.2158341356
 20
443.5777247843
 30
0.0
 11
191.9658379503
 21
443.5777247843
 31
0.0
  0
LINE
  5
A2
330
1F
100
AcDbEntity
  8
0
100
AcDbLine
 10
163.4658397981
 20
443.5777247843
 30
0.0
 11
177.2158341356
 21
443.5777247843
 31
0.0
  0
LINE
  5
A3
330
1F
100
AcDbEntity
  8
0
100
AcDbLine
 10
163.4658397981
 20
456.477727085
 30
0.0
 11
167.5204755612
 21
456.477727085
 31
0.0
  0
SPLINE
  5
A4
330
1F
100
AcDbEntity
  8
0
100
AcDbSpline
210
0.0
220
0.0
230
1.0
 70
     8
 71
     3
 72
    14
 73
    10
 74
     0
 42
0.000000001
 43
0.00000001
 40
0.0
 40
0.0
 40
0.0
 40
0.0
 40
0.0020249790017347
 40
0.2060703617529409
 40
0.4100198720381125
 40
0.5871809881761089
 40
0.7640524807253557
 40
0.8821280678691517
 40
1.0
 40
1.0
 40
1.0
 40
1.0
 10
177.215834135612
 20
452.4777264293619
 30
0.0
 10
177.2089547876589
 20
452.4814367916753
 30
0.0
 10
176.5088834683403
 20
452.8590188325236
 30
0.0
 10
175.1146190223249
 20
453.611955030482
 30
0.0
 10
173.1416437361542
 20
454.6276619084921
 30
0.0
 10
171.296685515689
 20
455.4910160774828
 30
0.0
 10
169.7834473407873
 20
456.0646549091377
 30
0.0
 10
168.5183426488659
 20
456.4111410557359
 30
0.0
 10
167.8529064695936
 20
456.4555445173429
 30
0.0
 10
167.5204755612216
 20
456.477727085013
 30
0.0
  0
LINE
  5
A5
330
1F
100
AcDbEntity
  8
0
100
AcDbLine
 10
167.5204755612
 20
456.477727085
 30
0.0
 11
221.4658306785
 21
456.477727085
 31
0.0
  0
SPLINE
  5
A6
330
1F
100
AcDbEntity
  8
0
100
AcDbSpline
210
0.0
220
0.0
230
1.0
 70
     8
 71
     3
 72
    14
 73
    10
 74
     0
 42
0.000000001
 43
0.00000001
 40
0.0
 40
0.0
 40
0.0
 40
0.0
 40
0.1178719180434356
 40
0.2359475465364073
 40
0.412818934900099
 40
0.5899801993543227
 40
0.7939297160243542
 40
0.9979749446599947
 40
1.0
 40
1.0
 40
1.0
 40
1.0
 10
167.5204755612216
 20
374.4777248200364
 30
0.0
 10
167.8529065362721
 20
374.4999062867827
 30
0.0
 10
168.5183430054315
 20
374.5443075550766
 30
0.0
 10
169.7834464676786
 20
374.8907997270621
 30
0.0
 10
171.2966865711637
 20
375.4644311531213
 30
0.0
 10
173.1416454399371
 20
376.3277876086767
 30
0.0
 10
175.1146059080971
 20
377.343521095122
 30
0.0
 10
176.5089102778092
 20
378.0963828949228
 30
0.0
 10
177.2089547891647
 20
378.474014024047
 30
0.0
 10
177.215834135612
 20
378.4777250100263
 30
0.0
  0
LINE
  5
A7
330
1F
100
AcDbEntity
  8
0
100
AcDbLine
 10
163.4658397981
 20
374.47772482
 30
0.0
 11
167.5204755612
 21
374.47772482
 31
0.0
  0
LINE
  5
A8
330
1F
100
AcDbEntity
  8
0
100
AcDbLine
 10
177.2158341356
 20
387.3777252581
 30
0.0
 11
163.4658397981
 21
387.3777252581
 31
0.0
  0
LINE
  5
A9
330
1F
100
AcDbEntity
  8
0
100
AcDbLine
 10
221.4658306785
 20
374.47772482
 30
0.0
 11
167.5204755612
 21
374.47772482
 31
0.0
  0
LINE
  5
AA
330
1F
100
AcDbEntity
  8
0
100
AcDbLine
 10
191.9658379503
 20
387.3777252581
 30
0.0
 11
191.9658379503
 21
381.9777246524
 31
0.0
  0
ARC
  5
AB
330
1F
100
AcDbEntity
  8
0
100
AcDbCircle
 10
194.9658370395
 20
381.97772482
 30
0.0
 40
3.0
100
AcDbArc
 50
180.0
 51
270.0
  0
LINE
  5
AC
330
1F
100
AcDbEntity
  8
0
100
AcDbLine
 10
194.96584403
 20
378.9777246263
 30
0.0
 11
219.4658415266
 21
378.9777246263
 31
0.0
  0
ARC
  5
AD
330
1F
100
AcDbEntity
  8
0
100
AcDbCircle
 10
219.4658370395
 20
381.97772482
 30
0.0
 40
3.0
100
AcDbArc
 50
270.0
 51
0.0
  0
LINE
  5
AE
330
1F
100
AcDbEntity
  8
0
100
AcDbLine
 10
191.9658379503
 20
387.3777252581
 30
0.0
 11
177.2158341356
 21
387.3777252581
 31
0.0
  0
LINE
  5
AF
330
1F
100
AcDbEntity
  8
0
100
AcDbLine
 10
225.4658387848
 20
452.4777264294
 30
0.0
 11
225.4658387848
 21
378.47772501
 31
0.0
  0
LINE
  5
B0
330
1F
100
AcDbEntity
  8
0
100
AcDbLine
 10
222.4658327051
 20
381.9777246524
 30
0.0
 11
222.4658327051
 21
448.977726787
 31
0.0
  0
ARC
  5
B1
330
1F
100
AcDbEntity
  8
0
100
AcDbCircle
 10
221.4658370395
 20
378.47772482
 30
0.0
 40
4.0
100
AcDbArc
 50
270.0
 51
0.0
  0
ARC
  5
B2
330
1F
100
AcDbEntity
  8
0
100
AcDbCircle
 10
221.4658370395
 20
452.47772482
 30
0.0
 40
4.0
100
AcDbArc
 50
0.0
 51
90.0
  0
LINE
  5
B3
330
1F
100
AcDbEntity
  8
0
100
AcDbLine
 10
191.9658379503
 20
387.3777252581
 30
0.0
 11
191.9658379503
 21
411.9777263102
 31
0.0
  0
LINE
  5
B4
330
1F
100
AcDbEntity
  8
0
100
AcDbLine
 10
191.9658379503
 20
418.9777255949
 30
0.0
 11
192.2158347317
 21
418.4561253485
 31
0.0
  0
LINE
  5
B5
330
1F
100
AcDbEntity
  8
0
100
AcDbLine
 10
192.2158347317
 20
412.4993228313
 30
0.0
 11
191.9658379503
 21
411.9777263102
 31
0.0
  0
LINE
  5
B6
330
1F
100
AcDbEntity
  8
0
100
AcDbLine
 10
191.9658379503
 20
418.9777255949
 30
0.0
 11
191.9658379503
 21
443.5777247843
 31
0.0
  0
LINE
  5
B7
330
1F
100
AcDbEntity
  8
0
100
AcDbLine
 10
191.9658379503
 20
418.9777255949
 30
0.0
 11
191.9658379503
 21
411.9777263102
 31
0.0
  0
LINE
  5
B8
330
1F
100
AcDbEntity
  8
0
100
AcDbLine
 10
82.715836341
 20
416.1529944238
 30
0.0
 11
82.715836341
 21
428.1777248677
 31
0.0
  0
LINE
  5
B9
330
1F
100
AcDbEntity
  8
0
100
AcDbLine
 10
82.715836341
 20
402.7777251747
 30
0.0
 11
82.715836341
 21
416.1529944238
 31
0.0
  0
SPLINE
  5
BA
330
1F
100
AcDbEntity
  8
0
100
AcDbSpline
210
0.0
220
0.0
230
1.0
 70
     8
 71
     3
 72
    11
 73
     7
 74
     0
 42
0.000000001
 43
0.00000001
 40
0.0
 40
0.0
 40
0.0
 40
0.0
 40
0.4310350432041803
 40
0.7083093124874962
 40
0.8903885492865333
 40
1.0
 40
1.0
 40
1.0
 40
1.0
 10
183.0730782695613
 20
442.9777220782228
 30
0.0
 10
182.8750493464418
 20
442.9539168966718
 30
0.0
 10
182.5496332750601
 20
442.9147984258098
 30
0.0
 10
182.1686629763569
 20
442.6663362070153
 30
0.0
 10
181.9599550727237
 20
442.4352519951395
 30
0.0
 10
181.89389026236
 20
442.279409754407
 30
0.0
 10
181.8690644450984
 20
442.2208473977037
 30
0.0
  0
LINE
  5
BB
330
1F
100
AcDbEntity
  8
0
100
AcDbLine
 10
187.7158330627
 20
442.9777220782
 30
0.0
 11
183.0730782696
 21
442.9777220782
 31
0.0
  0
LINE
  5
BC
330
1F
100
AcDbEntity
  8
0
100
AcDbLine
 10
187.7158330627
 20
442.9777220782
 30
0.0
 11
187.7158330627
 21
387.9777251702
 31
0.0
  0
LINE
  5
BD
330
1F
100
AcDbEntity
  8
0
100
AcDbLine
 10
187.7158330627
 20
387.9777251702
 30
0.0
 11
183.0730782696
 21
387.9777251702
 31
0.0
  0
SPLINE
  5
BE
330
1F
100
AcDbEntity
  8
0
100
AcDbSpline
210
0.0
220
0.0
230
1.0
 70
     8
 71
     3
 72
    11
 73
     7
 74
     0
 42
0.000000001
 43
0.00000001
 40
0.0
 40
0.0
 40
0.0
 40
0.0
 40
0.181315186646701
 40
0.4281015677592757
 40
0.8057868619343266
 40
1.0
 40
1.0
 40
1.0
 40
1.0
 10
181.8690644450984
 20
388.7346054386683
 30
0.0
 10
181.9145186066532
 20
388.6401314981709
 30
0.0
 10
182.0218399964532
 20
388.4170699731695
 30
0.0
 10
182.3559453949078
 20
388.1502009482811
 30
0.0
 10
182.7252068588418
 20
387.9986355117479
 30
0.0
 10
182.9848911164915
 20
387.9830260470113
 30
0.0
 10
183.0730782695613
 20
387.9777251702138
 30
0.0
  0
SPLINE
  5
BF
330
1F
100
AcDbEntity
  8
0
100
AcDbSpline
210
0.0
220
0.0
230
1.0
 70
     8
 71
     3
 72
    21
 73
    17
 74
     0
 42
0.000000001
 43
0.00000001
 40
0.0
 40
0.0
 40
0.0
 40
0.0
 40
0.1169499555286139
 40
0.2339051846015879
 40
0.293411881693524
 40
0.3530693015272744
 40
0.4124514468230198
 40
0.4715815573075285
 40
0.5115238654679968
 40
0.5514859793758388
 40
0.5932831865831197
 40
0.6351118935936166
 40
0.725981531567406
 40
0.8168792739813734
 40
0.9084409423834519
 40
1.0
 40
1.0
 40
1.0
 40
1.0
 10
181.8690644450984
 20
442.2208473977037
 30
0.0
 10
181.1636049608322
 20
440.1888103146965
 30
0.0
 10
179.7526541814978
 20
436.1246445194237
 30
0.0
 10
177.9295690512086
 20
430.9682754280858
 30
0.0
 10
176.4420221316064
 20
426.8078861859763
 30
0.0
 10
175.360511511269
 20
423.6356122691004
 30
0.0
 10
174.4814824750744
 20
420.4005637915148
 30
0.0
 10
173.9784315588476
 20
417.4509978529484
 30
0.0
 10
173.9032045550511
 20
414.8267908596815
 30
0.0
 10
174.1373242191955
 20
412.541602945494
 30
0.0
 10
174.6154691379299
 20
410.2627360806563
 30
0.0
 10
175.4919815397624
 20
407.1003209722041
 30
0.0
 10
176.8024542284015
 20
403.1123618147445
 30
0.0
 10
178.5189441936784
 20
398.3038597769356
 30
0.0
 10
180.2234041216518
 20
393.5066229513293
 30
0.0
 10
181.3205162178585
 20
390.3252628238118
 30
0.0
 10
181.8690644450984
 20
388.7346054386683
 30
0.0
  0
SPLINE
  5
C0
330
1F
100
AcDbEntity
  8
0
100
AcDbSpline
210
0.0
220
0.0
230
1.0
 70
     8
 71
     3
 72
    19
 73
    15
 74
     0
 42
0.000000001
 43
0.00000001
 40
0.0
 40
0.0
 40
0.0
 40
0.0
 40
0.082431780875646
 40
0.1649186738087662
 40
0.2473453228296584
 40
0.3320168301105629
 40
0.416755035797074
 40
0.501424329875573
 40
0.5833721080000047
 40
0.665382145212171
 40
0.7473317978276979
 40
0.831531234288081
 40
0.9157949313833267
 40
1.0
 40
1.0
 40
1.0
 40
1.0
 10
85.73376479228355
 20
388.7346054386683
 30
0.0
 10
85.42388406555298
 20
390.159166609528
 30
0.0
 10
84.80391543272192
 20
393.0092413811998
 30
0.0
 10
84.06502518281766
 20
397.3675087794707
 30
0.0
 10
83.46707780883189
 20
401.8131498568937
 30
0.0
 10
83.03525347839569
 20
406.3430035836224
 30
0.0
 10
82.77257331468991
 20
410.9418120501197
 30
0.0
 10
82.68696363751451
 20
415.505974414523
 30
0.0
 10
82.77463139742586
 20
420.02028823407
 30
0.0
 10
83.02636183718954
 20
424.4713696797043
 30
0.0
 10
83.44400030353883
 20
428.9365407211341
 30
0.0
 10
84.035325298467
 20
433.3995517330509
 30
0.0
 10
84.78485352129267
 20
437.8537096530417
 30
0.0
 10
85.41753442795935
 20
440.7654725884169
 30
0.0
 10
85.73376479228355
 20
442.2208473977037
 30
0.0
  0
LINE
  5
C1
330
1F
100
AcDbEntity
  8
0
100
AcDbLine
 10
174.9347718306
 20
387.9777251702
 30
0.0
 11
85.909374977
 21
387.9777251702
 31
0.0
  0
LINE
  5
C2
330
1F
100
AcDbEntity
  8
0
100
AcDbLine
 10
183.0730782696
 20
387.9777251702
 30
0.0
 11
177.3968981453
 21
387.9777251702
 31
0.0
  0
SPLINE
  5
C3
330
1F
100
AcDbEntity
  8
0
100
AcDbSpline
210
0.0
220
0.0
230
1.0
 70
     8
 71
     3
 72
     9
 73
     5
 74
     0
 42
0.000000001
 43
0.00000001
 40
0.0
 40
0.0
 40
0.0
 40
0.0
 40
0.8151073168378157
 40
1.0
 40
1.0
 40
1.0
 40
1.0
 10
177.3968981452785
 20
387.9777251702138
 30
0.0
 10
176.7263661401441
 20
387.9786462964641
 30
0.0
 10
175.9037358051157
 20
387.9797763639183
 30
0.0
 10
175.0859706283645
 20
387.9780452419917
 30
0.0
 10
174.9347718306384
 20
387.9777251702138
 30
0.0
  0
SPLINE
  5
C4
330
1F
100
AcDbEntity
  8
0
100
AcDbSpline
210
0.0
220
0.0
230
1.0
 70
     8
 71
     3
 72
    11
 73
     7
 74
     0
 42
0.000000001
 43
0.00000001
 40
0.0
 40
0.0
 40
0.0
 40
0.0
 40
0.2468773651829011
 40
0.493649686911298
 40
0.743380109066996
 40
1.0
 40
1.0
 40
1.0
 40
1.0
 10
85.90937497695305
 20
387.9777251702138
 30
0.0
 10
85.90686805780162
 20
387.9883506497596
 30
0.0
 10
85.90185528616381
 20
388.0095970878329
 30
0.0
 10
85.86294598635178
 20
388.1754530882577
 30
0.0
 10
85.80615631878707
 20
388.4191745113014
 30
0.0
 10
85.75811319480032
 20
388.628512370091
 30
0.0
 10
85.73376479228355
 20
388.7346054386683
 30
0.0
  0
LINE
  5
C5
330
1F
100
AcDbEntity
  8
0
100
AcDbLine
 10
85.909374977
 20
442.9777220782
 30
0.0
 11
174.9347718306
 21
442.9777220782
 31
0.0
  0
SPLINE
  5
C6
330
1F
100
AcDbEntity
  8
0
100
AcDbSpline
210
0.0
220
0.0
230
1.0
 70
     8
 71
     3
 72
     9
 73
     5
 74
     0
 42
0.000000001
 43
0.00000001
 40
0.0
 40
0.0
 40
0.0
 40
0.0
 40
0.8151043073005348
 40
1.0
 40
1.0
 40
1.0
 40
1.0
 10
174.9347718306384
 20
442.9777220782228
 30
0.0
 10
175.6053013008114
 20
442.9768069329646
 30
0.0
 10
176.4279315631807
 20
442.9756841990397
 30
0.0
 10
177.2456968635931
 20
442.9774040796973
 30
0.0
 10
177.3968981452785
 20
442.9777220782228
 30
0.0
  0
LINE
  5
C7
330
1F
100
AcDbEntity
  8
0
100
AcDbLine
 10
177.3968981453
 20
442.9777220782
 30
0.0
 11
183.0730782696
 21
442.9777220782
 31
0.0
  0
SPLINE
  5
C8
330
1F
100
AcDbEntity
  8
0
100
AcDbSpline
210
0.0
220
0.0
230
1.0
 70
     8
 71
     3
 72
    11
 73
     7
 74
     0
 42
0.000000001
 43
0.00000001
 40
0.0
 40
0.0
 40
0.0
 40
0.0
 40
0.2605075460127252
 40
0.521187895191889
 40
0.777343865180172
 40
1.0
 40
1.0
 40
1.0
 40
1.0
 10
85.73376479228355
 20
442.2208473977037
 30
0.0
 10
85.7584737741838
 20
442.3285020867315
 30
0.0
 10
85.80790812825931
 20
442.5438828756596
 30
0.0
 10
85.86599759767022
 20
442.7930413699673
 30
0.0
 10
85.90293093311362
 20
442.9503981419851
 30
0.0
 10
85.90732954451171
 20
442.9690490668347
 30
0.0
 10
85.90937497695305
 20
442.9777220782228
 30
0.0
  0
LINE
  5
C9
330
1F
100
AcDbEntity
  8
0
100
AcDbLine
 10
180.2158402153
 20
443.4777230915
 30
0.0
 11
180.2158402153
 21
443.5777247843
 31
0.0
  0
LINE
  5
CA
330
1F
100
AcDbEntity
  8
0
100
AcDbLine
 10
172.215838904
 20
443.4777230915
 30
0.0
 11
172.215838904
 21
443.5777247843
 31
0.0
  0
LINE
  5
CB
330
1F
100
AcDbEntity
  8
0
100
AcDbLine
 10
172.215838904
 20
387.4777250883
 30
0.0
 11
172.215838904
 21
387.3777252581
 31
0.0
  0
LINE
  5
CC
330
1F
100
AcDbEntity
  8
0
100
AcDbLine
 10
180.2158402153
 20
387.4777250883
 30
0.0
 11
180.2158402153
 21
387.3777252581
 31
0.0
  0
LINE
  5
CD
330
1F
100
AcDbEntity
  8
0
  6
Continuous
 62
     8
370
     0
100
AcDbLine
 10
177.2158341356
 20
452.4777264294
 30
0.0
 11
177.2158341356
 21
443.5777247843
 31
0.0
  0
LINE
  5
CE
330
1F
100
AcDbEntity
  8
0
  6
Continuous
 62
     8
370
     0
100
AcDbLine
 10
222.4658327051
 20
452.4777264294
 30
0.0
 11
177.2158341356
 21
452.4777264294
 31
0.0
  0
LINE
  5
CF
330
1F
100
AcDbEntity
  8
0
  6
Continuous
 62
     8
370
     0
100
AcDbLine
 10
222.4658327051
 20
452.4777264294
 30
0.0
 11
222.4658327051
 21
448.977726787
 31
0.0
  0
ELLIPSE
  5
D0
330
1F
100
AcDbEntity
  8
0
  6
Continuous
 62
     8
370
     0
100
AcDbEllipse
 10
221.4658370395
 20
452.47772482
 30
0.0
 11
0.0
 21
4.0
 31
0.0
210
0.0
220
0.0
230
1.0
 40
0.25
 41
4.712388980384693
 42
6.283185307179586
  0
LINE
  5
D1
330
1F
100
AcDbEntity
  8
0
  6
Continuous
 62
     8
370
     0
100
AcDbLine
 10
177.2158341356
 20
387.3777252581
 30
0.0
 11
177.2158341356
 21
378.47772501
 31
0.0
  0
LINE
  5
D2
330
1F
100
AcDbEntity
  8
0
  6
Continuous
 62
     8
370
     0
100
AcDbLine
 10
177.2158341356
 20
378.47772501
 30
0.0
 11
222.4658327051
 21
378.47772501
 31
0.0
  0
ELLIPSE
  5
D3
330
1F
100
AcDbEntity
  8
0
  6
Continuous
 62
     8
370
     0
100
AcDbEllipse
 10
221.4658370395
 20
378.47772482
 30
0.0
 11
0.0
 21
4.0
 31
0.0
210
0.0
220
0.0
230
1.0
 40
0.25
 41
3.141592653589793
 42
4.712388980384693
  0
LINE
  5
D4
330
1F
100
AcDbEntity
  8
0
  6
Continuous
 62
     8
370
     0
100
AcDbLine
 10
222.4658327051
 20
381.9777246524
 30
0.0
 11
222.4658327051
 21
378.47772501
 31
0.0
  0
LINE
  5
D5
330
1F
100
AcDbEntity
  8
0
  6
Continuous
 62
     8
370
     0
100
AcDbLine
 10
222.4658327051
 20
378.47772501
 30
0.0
 11
225.4658387848
 21
378.47772501
 31
0.0
  0
LINE
  5
D6
330
1F
100
AcDbEntity
  8
0
  6
Continuous
 62
     8
370
     0
100
AcDbLine
 10
225.4658387848
 20
452.4777264294
 30
0.0
 11
222.4658327051
 21
452.4777264294
 31
0.0
  0
LINE
  5
D7
330
1F
100
AcDbEntity
  8
0
  6
Continuous
 62
     8
370
     0
100
AcDbLine
 10
83.015837694
 20
407.1678549942
 30
0.0
 11
83.015837694
 21
402.4777256843
 31
0.0
  0
LINE
  5
D8
330
1F
100
AcDbEntity
  8
0
  6
Continuous
 62
     8
370
     0
100
AcDbLine
 10
83.015837694
 20
428.4777262207
 30
0.0
 11
83.015837694
 21
423.8423586782
 31
0.0
  0
LINE
  5
D9
330
1F
100
AcDbEntity
  8
0
  6
Continuous
 62
     8
370
     0
100
AcDbLine
 10
181.8690644451
 20
442.2208473977
 30
0.0
 11
85.7337647923
 21
442.2208473977
 31
0.0
  0
LINE
  5
DA
330
1F
100
AcDbEntity
  8
0
  6
Continuous
 62
     8
370
     0
100
AcDbLine
 10
85.7337647923
 20
388.7346054387
 30
0.0
 11
181.8690644451
 21
388.7346054387
 31
0.0
  0
CIRCLE
  5
DB
330
1F
100
AcDbEntity
  8
0
  6
HIDDEN
 62
     1
370
     0
100
AcDbCircle
 10
214.9658370395
 20
445.47772482
 30
0.0
 40
2.649999999999977
  0
CIRCLE
  5
DC
330
1F
100
AcDbEntity
  8
0
  6
HIDDEN
 62
     1
370
     0
100
AcDbCircle
 10
214.9658370395
 20
445.47772482
 30
0.0
 40
5.200000000000035
  0
INSERT
  5
F4
330
1F
100
AcDbEntity
  8
ASSI
100
AcDbBlockReference
  2
SW_CENTERMARKSYMBOL_1
 10
214.9658370395
 20
385.47772482
 30
0.0
  0
INSERT
  5
100
330
1F
100
AcDbEntity
  8
ASSI
100
AcDbBlockReference
  2
SW_CENTERMARKSYMBOL_2
 10
214.9658370395
 20
445.47772482
 30
0.0
  0
LINE
  5
101
330
1F
100
AcDbEntity
  8
0
100
AcDbLine
 10
218.4658395
 20
343.8609416785
 30
0.0
 11
217.4658374735
 21
344.860943705
 31
0.0
  0
LINE
  5
102
330
1F
100
AcDbEntity
  8
0
100
AcDbLine
 10
212.4658422418
 20
344.860943705
 30
0.0
 11
211.4658402153
 21
343.8609416785
 31
0.0
  0
LINE
  5
103
330
1F
100
AcDbEntity
  8
0
100
AcDbLine
 10
218.4658395
 20
301.8609422447
 30
0.0
 11
218.4658395
 21
343.8609416785
 31
0.0
  0
LINE
  5
104
330
1F
100
AcDbEntity
  8
0
100
AcDbLine
 10
218.4658395
 20
290.8609423043
 30
0.0
 11
218.4658395
 21
296.8609423565
 31
0.0
  0
LINE
  5
105
330
1F
100
AcDbEntity
  8
0
100
AcDbLine
 10
211.4658402153
 20
296.8609423565
 30
0.0
 11
211.4658402153
 21
290.8609423043
 31
0.0
  0
LINE
  5
106
330
1F
100
AcDbEntity
  8
0
100
AcDbLine
 10
211.4658402153
 20
343.8609416785
 30
0.0
 11
211.4658402153
 21
301.8609422447
 31
0.0
  0
LINE
  5
107
330
1F
100
AcDbEntity
  8
0
100
AcDbLine
 10
99.2158362516
 20
311.8609420212
 30
0.0
 11
99.2158362516
 21
304.8609427365
 31
0.0
  0
LINE
  5
108
330
1F
100
AcDbEntity
  8
0
100
AcDbLine
 10
118.215833778
 20
304.8609427365
 30
0.0
 11
118.215833778
 21
311.8609420212
 31
0.0
  0
LINE
  5
109
330
1F
100
AcDbEntity
  8
0
100
AcDbLine
 10
144.2158343144
 20
311.8609420212
 30
0.0
 11
144.2158343144
 21
304.8609427365
 31
0.0
  0
LINE
  5
10A
330
1F
100
AcDbEntity
  8
0
100
AcDbLine
 10
163.2158355661
 20
304.8609427365
 30
0.0
 11
163.2158355661
 21
311.8609420212
 31
0.0
  0
LINE
  5
10B
330
1F
100
AcDbEntity
  8
0
100
AcDbLine
 10
83.2158373543
 20
304.8609427365
 30
0.0
 11
83.2158373543
 21
303.8609425725
 31
0.0
  0
LINE
  5
10C
330
1F
100
AcDbEntity
  8
0
100
AcDbLine
 10
82.715836341
 20
325.3609414401
 30
0.0
 11
82.715836341
 21
314.8609425129
 31
0.0
  0
LINE
  5
10D
330
1F
100
AcDbEntity
  8
0
100
AcDbLine
 10
178.7158297249
 20
325.3609414401
 30
0.0
 11
82.715836341
 21
325.3609414401
 31
0.0
  0
ARC
  5
10E
330
1F
100
AcDbEntity
  8
0
100
AcDbCircle
 10
83.0158370395
 20
276.1609423043
 30
0.0
 40
0.2999999999999972
100
AcDbArc
 50
180.0
 51
212.0538242487
  0
ARC
  5
10F
330
1F
100
AcDbEntity
  8
0
100
AcDbCircle
 10
83.0158370395
 20
301.5609423043
 30
0.0
 40
0.3000000000000246
100
AcDbArc
 50
148.0155462373
 51
180.0
  0
LINE
  5
110
330
1F
100
AcDbEntity
  8
0
100
AcDbLine
 10
82.715836341
 20
275.5437723549
 30
0.0
 11
82.715836341
 21
273.8609413805
 31
0.0
  0
LINE
  5
111
330
1F
100
AcDbEntity
  8
0
100
AcDbLine
 10
82.715836341
 20
303.8609425725
 30
0.0
 11
82.715836341
 21
302.1795486288
 31
0.0
  0
LINE
  5
112
330
1F
100
AcDbEntity
  8
0
100
AcDbLine
 10
82.715836341
 20
273.8609413805
 30
0.0
 11
173.9691169806
 21
273.8609413805
 31
0.0
  0
LINE
  5
113
330
1F
100
AcDbEntity
  8
0
100
AcDbLine
 10
116.615836496
 20
311.8609420212
 30
0.0
 11
116.615836496
 21
312.8609421851
 31
0.0
  0
LINE
  5
114
330
1F
100
AcDbEntity
  8
0
100
AcDbLine
 10
100.8158372589
 20
312.8609421851
 30
0.0
 11
100.8158372589
 21
311.8609420212
 31
0.0
  0
LINE
  5
115
330
1F
100
AcDbEntity
  8
0
100
AcDbLine
 10
161.6158382841
 20
311.8609420212
 30
0.0
 11
161.6158382841
 21
312.8609421851
 31
0.0
  0
LINE
  5
116
330
1F
100
AcDbEntity
  8
0
100
AcDbLine
 10
145.815839047
 20
312.8609421851
 30
0.0
 11
145.815839047
 21
311.8609420212
 31
0.0
  0
LINE
  5
117
330
1F
100
AcDbEntity
  8
0
100
AcDbLine
 10
212.4658422418
 20
344.860943705
 30
0.0
 11
217.4658374735
 21
344.860943705
 31
0.0
  0
LINE
  5
118
330
1F
100
AcDbEntity
  8
0
100
AcDbLine
 10
218.4658395
 20
343.8609416785
 30
0.0
 11
211.4658402153
 21
343.8609416785
 31
0.0
  0
LINE
  5
119
330
1F
100
AcDbEntity
  8
0
100
AcDbLine
 10
217.8453402468
 20
296.8609423565
 30
0.0
 11
214.5606474825
 21
296.8609423565
 31
0.0
  0
LINE
  5
11A
330
1F
100
AcDbEntity
  8
0
100
AcDbLine
 10
217.8453402468
 20
296.8609423565
 30
0.0
 11
217.8453402468
 21
301.8609422447
 31
0.0
  0
LINE
  5
11B
330
1F
100
AcDbEntity
  8
0
100
AcDbLine
 10
217.8453402468
 20
301.8609422447
 30
0.0
 11
214.5606474825
 21
301.8609422447
 31
0.0
  0
LINE
  5
11C
330
1F
100
AcDbEntity
  8
0
100
AcDbLine
 10
214.5606474825
 20
301.8609422447
 30
0.0
 11
214.5606474825
 21
296.8609423565
 31
0.0
  0
LINE
  5
11D
330
1F
100
AcDbEntity
  8
0
100
AcDbLine
 10
212.9762517162
 20
296.8609423565
 30
0.0
 11
211.4658402153
 21
296.8609423565
 31
0.0
  0
LINE
  5
11E
330
1F
100
AcDbEntity
  8
0
100
AcDbLine
 10
212.9762517162
 20
296.8609423565
 30
0.0
 11
212.9762517162
 21
301.8609422447
 31
0.0
  0
LINE
  5
11F
330
1F
100
AcDbEntity
  8
0
100
AcDbLine
 10
212.9762517162
 20
301.8609422447
 30
0.0
 11
211.4658402153
 21
301.8609422447
 31
0.0
  0
LINE
  5
120
330
1F
100
AcDbEntity
  8
0
100
AcDbLine
 10
211.4893691488
 20
301.8609422447
 30
0.0
 11
211.4893691488
 21
296.8609423565
 31
0.0
  0
LINE
  5
121
330
1F
100
AcDbEntity
  8
0
100
AcDbLine
 10
218.4658395
 20
296.8609423565
 30
0.0
 11
218.4423105665
 21
296.8609423565
 31
0.0
  0
LINE
  5
122
330
1F
100
AcDbEntity
  8
0
100
AcDbLine
 10
218.4658395
 20
301.8609422447
 30
0.0
 11
218.4423105665
 21
301.8609422447
 31
0.0
  0
LINE
  5
123
330
1F
100
AcDbEntity
  8
0
100
AcDbLine
 10
218.4423105665
 20
301.8609422447
 30
0.0
 11
218.4423105665
 21
296.8609423565
 31
0.0
  0
LINE
  5
124
330
1F
100
AcDbEntity
  8
0
100
AcDbLine
 10
99.2158362516
 20
311.8609420212
 30
0.0
 11
118.215833778
 21
311.8609420212
 31
0.0
  0
LINE
  5
125
330
1F
100
AcDbEntity
  8
0
100
AcDbLine
 10
144.2158343144
 20
311.8609420212
 30
0.0
 11
163.2158355661
 21
311.8609420212
 31
0.0
  0
LINE
  5
126
330
1F
100
AcDbEntity
  8
0
100
AcDbLine
 10
85.3316532322
 20
304.8609427365
 30
0.0
 11
90.2434969195
 21
304.8609427365
 31
0.0
  0
LINE
  5
127
330
1F
100
AcDbEntity
  8
0
100
AcDbLine
 10
90.2434969195
 20
304.8609427365
 30
0.0
 11
182.2158442684
 21
304.8609427365
 31
0.0
  0
LINE
  5
128
330
1F
100
AcDbEntity
  8
0
100
AcDbLine
 10
187.2158395
 20
304.8609427365
 30
0.0
 11
187.2158395
 21
303.8609425725
 31
0.0
  0
LINE
  5
129
330
1F
100
AcDbEntity
  8
0
100
AcDbLine
 10
182.2158442684
 20
304.8609427365
 30
0.0
 11
187.2158395
 21
304.8609427365
 31
0.0
  0
LINE
  5
12A
330
1F
100
AcDbEntity
  8
0
100
AcDbLine
 10
83.2158373543
 20
304.8609427365
 30
0.0
 11
85.3316532322
 21
304.8609427365
 31
0.0
  0
LINE
  5
12B
330
1F
100
AcDbEntity
  8
0
100
AcDbLine
 10
90.7158376523
 20
312.8609421851
 30
0.0
 11
90.7158376523
 21
314.8609425129
 31
0.0
  0
LINE
  5
12C
330
1F
100
AcDbEntity
  8
0
100
AcDbLine
 10
100.7158355661
 20
312.8609421851
 30
0.0
 11
90.7158376523
 21
312.8609421851
 31
0.0
  0
LINE
  5
12D
330
1F
100
AcDbEntity
  8
0
100
AcDbLine
 10
100.7158355661
 20
312.8609421851
 30
0.0
 11
157.7158393212
 21
312.8609421851
 31
0.0
  0
LINE
  5
12E
330
1F
100
AcDbEntity
  8
0
100
AcDbLine
 10
167.7158372351
 20
314.8609425129
 30
0.0
 11
167.7158372351
 21
312.8609421851
 31
0.0
  0
LINE
  5
12F
330
1F
100
AcDbEntity
  8
0
100
AcDbLine
 10
167.7158372351
 20
312.8609421851
 30
0.0
 11
157.7158393212
 21
312.8609421851
 31
0.0
  0
LINE
  5
130
330
1F
100
AcDbEntity
  8
0
100
AcDbLine
 10
82.715836341
 20
314.8609425129
 30
0.0
 11
85.909374977
 21
314.8609425129
 31
0.0
  0
SPLINE
  5
131
330
1F
100
AcDbEntity
  8
0
100
AcDbSpline
210
0.0
220
0.0
230
1.0
 70
     8
 71
     3
 72
    12
 73
     8
 74
     0
 42
0.000000001
 43
0.00000001
 40
0.0
 40
0.0
 40
0.0
 40
0.0
 40
0.2438883716964496
 40
0.4879576668295725
 40
0.7318361978348575
 40
0.9828400667099705
 40
1.0
 40
1.0
 40
1.0
 40
1.0
 10
83.92315449794151
 20
323.831266462997
 30
0.0
 10
83.74259780250962
 20
324.0605523850529
 30
0.0
 10
83.38135046947542
 20
324.5192943200827
 30
0.0
 10
83.01097129700752
 20
324.9880123044413
 30
0.0
 10
82.78672015191313
 20
325.2713727266779
 30
0.0
 10
82.69427362174785
 20
325.388250598289
 30
0.0
 10
82.71953929283896
 20
325.3563411487905
 30
0.0
 10
82.72115605553009
 20
325.354299247459
 30
0.0
  0
SPLINE
  5
132
330
1F
100
AcDbEntity
  8
0
100
AcDbSpline
210
0.0
220
0.0
230
1.0
 70
     8
 71
     3
 72
    11
 73
     7
 74
     0
 42
0.000000001
 43
0.00000001
 40
0.0
 40
0.0
 40
0.0
 40
0.0
 40
0.2475240242216185
 40
0.4950438880499861
 40
0.7475245779547081
 40
1.0
 40
1.0
 40
1.0
 40
1.0
 10
85.90937497695306
 20
320.3609424831424
 30
0.0
 10
85.72002872623675
 20
320.7479191504785
 30
0.0
 10
85.34133940734314
 20
321.521865980832
 30
0.0
 10
84.82026777451374
 20
322.4710951581509
 30
0.0
 10
84.3375582280885
 20
323.2707764988276
 30
0.0
 10
84.0612881139452
 20
323.6444377743241
 30
0.0
 10
83.92315449794151
 20
323.831266462997
 30
0.0
  0
LINE
  5
133
330
1F
100
AcDbEntity
  8
0
100
AcDbLine
 10
85.909374977
 20
314.8609425129
 30
0.0
 11
85.909374977
 21
320.3609424831
 31
0.0
  0
LINE
  5
134
330
1F
100
AcDbEntity
  8
0
100
AcDbLine
 10
178.7158297249
 20
323.831266463
 30
0.0
 11
178.7158297249
 21
320.3609424831
 31
0.0
  0
LINE
  5
135
330
1F
100
AcDbEntity
  8
0
100
AcDbLine
 10
85.909374977
 20
320.3609424831
 30
0.0
 11
178.7158297249
 21
320.3609424831
 31
0.0
  0
LINE
  5
136
330
1F
100
AcDbEntity
  8
0
100
AcDbLine
 10
178.7158297249
 20
320.3609424831
 30
0.0
 11
178.7158297249
 21
314.8609425129
 31
0.0
  0
LINE
  5
137
330
1F
100
AcDbEntity
  8
0
100
AcDbLine
 10
85.909374977
 20
314.8609425129
 30
0.0
 11
178.7158297249
 21
314.8609425129
 31
0.0
  0
LINE
  5
138
330
1F
100
AcDbEntity
  8
0
100
AcDbLine
 10
178.7158297249
 20
325.3609414401
 30
0.0
 11
178.7158297249
 21
323.831266463
 31
0.0
  0
ARC
  5
139
330
1F
100
AcDbEntity
  8
0
100
AcDbCircle
 10
177.2158370395
 20
290.1109423043
 30
0.0
 40
13.75000000000006
100
AcDbArc
 50
90.0
 51
225.1609972527
  0
LINE
  5
13A
330
1F
100
AcDbEntity
  8
0
100
AcDbLine
 10
195.9658311554
 20
303.8609425725
 30
0.0
 11
177.2158341356
 21
303.8609425725
 31
0.0
  0
LINE
  5
13B
330
1F
100
AcDbEntity
  8
0
100
AcDbLine
 10
195.9658311554
 20
290.8609423043
 30
0.0
 11
195.9658311554
 21
303.8609425725
 31
0.0
  0
LINE
  5
13C
330
1F
100
AcDbEntity
  8
0
100
AcDbLine
 10
221.4658306785
 20
290.8609423043
 30
0.0
 11
195.9658311554
 21
290.8609423043
 31
0.0
  0
LINE
  5
13D
330
1F
100
AcDbEntity
  8
0
100
AcDbLine
 10
222.4658327051
 20
276.3609427216
 30
0.0
 11
177.2158341356
 21
276.3609427216
 31
0.0
  0
SPLINE
  5
13E
330
1F
100
AcDbEntity
  8
0
100
AcDbSpline
210
0.0
220
0.0
230
1.0
 70
     8
 71
     3
 72
    14
 73
    10
 74
     0
 42
0.000000001
 43
0.00000001
 40
0.0
 40
0.0
 40
0.0
 40
0.0
 40
0.0020249790017347
 40
0.2060703617529409
 40
0.4100198720381125
 40
0.5871809881761089
 40
0.7640524807253557
 40
0.8821280678691517
 40
1.0
 40
1.0
 40
1.0
 40
1.0
 10
177.215834135612
 20
276.360942721561
 30
0.0
 10
177.2089547876589
 20
276.3609459593712
 30
0.0
 10
176.5088834683403
 20
276.3612754525221
 30
0.0
 10
175.1146190223249
 20
276.4688259056343
 30
0.0
 10
173.1416437361542
 20
276.9275418408188
 30
0.0
 10
171.296685515689
 20
277.6510876147785
 30
0.0
 10
169.7834473407873
 20
278.5050366606025
 30
0.0
 10
168.5183426488659
 20
279.4259284498473
 30
0.0
 10
167.8529064695936
 20
280.0494505088434
 30
0.0
 10
167.5204755612216
 20
280.3609424458895
 30
0.0
  0
LINE
  5
13F
330
1F
100
AcDbEntity
  8
0
100
AcDbLine
 10
225.4658387848
 20
290.8609423043
 30
0.0
 11
225.4658387848
 21
279.360942282
 31
0.0
  0
LINE
  5
140
330
1F
100
AcDbEntity
  8
0
100
AcDbLine
 10
221.4658306785
 20
290.8609423043
 30
0.0
 11
225.4658387848
 21
290.8609423043
 31
0.0
  0
ARC
  5
141
330
1F
100
AcDbEntity
  8
0
100
AcDbCircle
 10
222.4658370395
 20
279.3609423043
 30
0.0
 40
3.0
100
AcDbArc
 50
270.0
 51
0.0
  0
LINE
  5
142
330
1F
100
AcDbEntity
  8
0
100
AcDbLine
 10
82.715836341
 20
276.16094213
 30
0.0
 11
82.715836341
 21
301.5609427543
 31
0.0
  0
LINE
  5
143
330
1F
100
AcDbEntity
  8
0
100
AcDbLine
 10
85.909374977
 20
303.8609425725
 30
0.0
 11
82.715836341
 21
303.8609425725
 31
0.0
  0
LINE
  5
144
330
1F
100
AcDbEntity
  8
0
100
AcDbLine
 10
85.909374977
 20
303.8609425725
 30
0.0
 11
85.909374977
 21
278.1313347818
 31
0.0
  0
SPLINE
  5
145
330
1F
100
AcDbEntity
  8
0
100
AcDbSpline
210
0.0
220
0.0
230
1.0
 70
     8
 71
     3
 72
    11
 73
     7
 74
     0
 42
0.000000001
 43
0.00000001
 40
0.0
 40
0.0
 40
0.0
 40
0.0
 40
0.2605075460127252
 40
0.521187895191889
 40
0.777343865180172
 40
1.0
 40
1.0
 40
1.0
 40
1.0
 10
85.73376479228355
 20
277.1613381059919
 30
0.0
 10
85.7584737741838
 20
277.1999022656453
 30
0.0
 10
85.80790812825931
 20
277.2770561658193
 30
0.0
 10
85.86599759767022
 20
277.522260324972
 30
0.0
 10
85.90293093311362
 20
277.8181368433113
 30
0.0
 10
85.90732954451171
 20
278.0319212396632
 30
0.0
 10
85.90937497695305
 20
278.1313347818408
 30
0.0
  0
SPLINE
  5
146
330
1F
100
AcDbEntity
  8
0
100
AcDbSpline
210
0.0
220
0.0
230
1.0
 70
     8
 71
     3
 72
    14
 73
    10
 74
     0
 42
0.000000001
 43
0.00000001
 40
0.0
 40
0.0
 40
0.0
 40
0.0
 40
0.0028500958085318
 40
0.1667454160215855
 40
0.3307652542307822
 40
0.4946643234206271
 40
0.6630629538200874
 40
0.8315901053041816
 40
1.0
 40
1.0
 40
1.0
 40
1.0
 10
82.71731155594209
 20
273.8625488432203
 30
0.0
 10
82.71682083143739
 20
273.8620139650587
 30
0.0
 10
82.68811089774306
 20
273.8307208129823
 30
0.0
 10
82.78756658888027
 20
273.93914655917
 30
0.0
 10
83.02290081192592
 20
274.1959440535956
 30
0.0
 10
83.44495542618411
 20
274.6567409851654
 30
0.0
 10
84.03506746755609
 20
275.3014879610223
 30
0.0
 10
84.78491794717344
 20
276.1215604568128
 30
0.0
 10
85.41755589827
 20
276.814825976915
 30
0.0
 10
85.73376479228357
 20
277.1613381059919
 30
0.0
  0
SPLINE
  5
147
330
1F
100
AcDbEntity
  8
0
100
AcDbSpline
210
0.0
220
0.0
230
1.0
 70
     8
 71
     3
 72
    23
 73
    19
 74
     0
 42
0.000000001
 43
0.00000001
 40
0.0
 40
0.0
 40
0.0
 40
0.0
 40
0.0626669370152459
 40
0.1251858025839837
 40
0.1878343524603661
 40
0.2503607019991224
 40
0.3128429168428052
 40
0.3753334846378802
 40
0.4376411001308004
 40
0.5000606212101629
 40
0.5623289979569194
 40
0.6247430180368106
 40
0.6871685847742078
 40
0.7495658685580424
 40
0.812140676649467
 40
0.8746122457405954
 40
0.9373768171466578
 40
1.0
 40
1.0
 40
1.0
 40
1.0
 10
82.71583634098388
 20
302.1795486288224
 30
0.0
 10
82.72146052028704
 20
302.1313093885593
 30
0.0
 10
82.73269558990226
 20
302.0349448892556
 30
0.0
 10
82.81887471347903
 20
301.2358066075045
 30
0.0
 10
82.94231156608389
 20
300.0104037164422
 30
0.0
 10
83.08885487879952
 20
298.336691870789
 30
0.0
 10
83.23597493647259
 20
296.3106198576922
 30
0.0
 10
83.36001192813045
 20
293.9907305847275
 30
0.0
 10
83.44417524825734
 20
291.4769020939963
 30
0.0
 10
83.47261231371768
 20
288.8605780627679
 30
0.0
 10
83.44414792182447
 20
286.2427675674203
 30
0.0
 10
83.35994758315026
 20
283.7307561302408
 30
0.0
 10
83.2361086694249
 20
281.410465028206
 30
0.0
 10
83.08891862613238
 20
279.3865739075041
 30
0.0
 10
82.94254545440695
 20
277.71444227582
 30
0.0
 10
82.8190083368226
 20
276.4867540504872
 30
0.0
 10
82.73265661585242
 20
275.6882488479108
 30
0.0
 10
82.72154571467222
 20
275.5918949693648
 30
0.0
 10
82.71599652846672
 20
275.5437723549161
 30
0.0
  0
LINE
  5
148
330
1F
100
AcDbEntity
  8
0
100
AcDbLine
 10
177.2158341356
 20
303.8609425725
 30
0.0
 11
85.909374977
 21
303.8609425725
 31
0.0
  0
SPLINE
  5
149
330
1F
100
AcDbEntity
  8
0
100
AcDbSpline
210
0.0
220
0.0
230
1.0
 70
     8
 71
     3
 72
    14
 73
    10
 74
     0
 42
0.000000001
 43
0.00000001
 40
0.0
 40
0.0
 40
0.0
 40
0.0
 40
0.1103009328546785
 40
0.3819222729646742
 40
0.5201229240834556
 40
0.6586736195178371
 40
0.7965850067357002
 40
0.933911058575872
 40
1.0
 40
1.0
 40
1.0
 40
1.0
 10
180.6058632083736
 20
276.360942721561
 30
0.0
 10
180.318812078281
 20
276.1724151418696
 30
0.0
 10
179.3248837657577
 20
275.5196293504099
 30
0.0
 10
177.9284824936931
 20
274.9290957638624
 30
0.0
 10
176.4429144078524
 20
274.4289252052157
 30
0.0
 10
175.3575464876374
 20
274.1467538040069
 30
0.0
 10
174.4923732309523
 20
273.9559893861542
 30
0.0
 10
173.983324458729
 20
273.8678309098473
 30
0.0
 10
173.9726010009632
 20
273.8663016115297
 30
0.0
 10
173.9691169806323
 20
273.8658047469411
 30
0.0
  0
LINE
  5
14A
330
1F
100
AcDbEntity
  8
0
  6
Continuous
 62
     8
370
     0
100
AcDbLine
 10
85.3316532322
 20
303.8609425725
 30
0.0
 11
85.3316532322
 21
304.8609427365
 31
0.0
  0
LINE
  5
14B
330
1F
100
AcDbEntity
  8
0
  6
Continuous
 62
     8
370
     0
100
AcDbLine
 10
90.2434969195
 20
304.8609427365
 30
0.0
 11
90.2434969195
 21
303.8609425725
 31
0.0
  0
LINE
  5
14C
330
1F
100
AcDbEntity
  8
0
  6
Continuous
 62
     8
370
     0
100
AcDbLine
 10
182.2158442684
 20
303.8609425725
 30
0.0
 11
182.2158442684
 21
304.8609427365
 31
0.0
  0
LINE
  5
14D
330
1F
100
AcDbEntity
  8
0
  6
Continuous
 62
     8
370
     0
100
AcDbLine
 10
100.7158355661
 20
314.8609425129
 30
0.0
 11
100.7158355661
 21
312.8609421851
 31
0.0
  0
LINE
  5
14E
330
1F
100
AcDbEntity
  8
0
  6
Continuous
 62
     8
370
     0
100
AcDbLine
 10
157.7158393212
 20
312.8609421851
 30
0.0
 11
157.7158393212
 21
314.8609425129
 31
0.0
  0
LINE
  5
14F
330
1F
100
AcDbEntity
  8
0
  6
Continuous
 62
     8
370
     0
100
AcDbLine
 10
83.9231544979
 20
323.831266463
 30
0.0
 11
178.7158297249
 21
323.831266463
 31
0.0
  0
LINE
  5
150
330
1F
100
AcDbEntity
  8
0
  6
Continuous
 62
     8
370
     0
100
AcDbLine
 10
221.4658306785
 20
280.3609424459
 30
0.0
 11
221.4658306785
 21
290.8609423043
 31
0.0
  0
LINE
  5
151
330
1F
100
AcDbEntity
  8
0
  6
Continuous
 62
     8
370
     0
100
AcDbLine
 10
167.5204755612
 20
280.3609424459
 30
0.0
 11
221.4658306785
 21
280.3609424459
 31
0.0
  0
LWPOLYLINE
  5
152
330
1F
100
AcDbEntity
  8
0
  6
Continuous
 62
     8
370
     0
100
AcDbPolyline
 90
        9
 70
   128
 43
0.0
 10
221.4658306785
 20
280.3609424459
 10
221.6609315821
 20
279.5805807414
 10
221.8485223003
 20
278.8302085551
 10
222.0214055725
 20
278.1386614965
 10
222.1729503818
 20
277.5325148555
 10
222.297300572
 20
277.0350638034
 10
222.3897175737
 20
276.6654237362
 10
222.4466251083
 20
276.4378010484
 10
222.4658327051
 20
276.3609427216
  0
LWPOLYLINE
  5
153
330
1F
100
AcDbEntity
  8
0
  6
Continuous
 62
     8
370
     0
100
AcDbPolyline
 90
        9
 70
   128
 43
0.0
 10
221.4658306785
 20
280.3609424459
 10
222.2462044903
 20
280.1658517869
 10
222.9965673633
 20
279.978259206
 10
223.6881153532
 20
279.8053722086
 10
224.2942647882
 20
279.6538357811
 10
224.7917102524
 20
279.5294725524
 10
225.1613484569
 20
279.4370630013
 10
225.3889785953
 20
279.3801573293
 10
225.4658387848
 20
279.360942282
  0
LINE
  5
154
330
1F
100
AcDbEntity
  8
0
  6
Continuous
 62
     8
370
     0
100
AcDbLine
 10
83.015837694
 20
299.1775299611
 30
0.0
 11
83.015837694
 21
278.5598837959
 31
0.0
  0
LINE
  5
155
330
1F
100
AcDbEntity
  8
0
  6
Continuous
 62
     8
370
     0
100
AcDbLine
 10
85.909374977
 20
278.1313347818
 30
0.0
 11
170.5371038862
 21
278.1313347818
 31
0.0
  0
LINE
  5
156
330
1F
100
AcDbEntity
  8
0
  6
Continuous
 62
     8
370
     0
100
AcDbLine
 10
172.6611973592
 20
277.161338106
 30
0.0
 11
85.7337647923
 21
277.161338106
 31
0.0
  0
LINE
  5
157
330
1F
100
AcDbEntity
  8
ASSI
100
AcDbLine
 10
108.7158370395
 20
302.8609423043
 30
0.0
 11
108.7158370395
 21
313.8609423043
 31
0.0
  0
LINE
  5
158
330
1F
100
AcDbEntity
  8
ASSI
100
AcDbLine
 10
153.7158370395
 20
302.8609423043
 30
0.0
 11
153.7158370395
 21
313.8609423043
 31
0.0
  0
LINE
  5
159
330
1F
100
AcDbEntity
  8
0
100
AcDbLine
 10
211.4658402153
 20
466.6949236315
 30
0.0
 11
212.4658422418
 21
465.694921605
 31
0.0
  0
LINE
  5
15A
330
1F
100
AcDbEntity
  8
0
100
AcDbLine
 10
217.4658374735
 20
465.694921605
 30
0.0
 11
218.4658395
 21
466.6949236315
 31
0.0
  0
LINE
  5
15B
330
1F
100
AcDbEntity
  8
0
100
AcDbLine
 10
211.4658402153
 20
508.6949230653
 30
0.0
 11
211.4658402153
 21
466.6949236315
 31
0.0
  0
LINE
  5
15C
330
1F
100
AcDbEntity
  8
0
100
AcDbLine
 10
211.4658402153
 20
519.6949230021
 30
0.0
 11
211.4658402153
 21
513.6949229535
 31
0.0
  0
LINE
  5
15D
330
1F
100
AcDbEntity
  8
0
100
AcDbLine
 10
218.4658395
 20
513.6949229535
 30
0.0
 11
218.4658395
 21
519.6949230056
 31
0.0
  0
LINE
  5
15E
330
1F
100
AcDbEntity
  8
0
100
AcDbLine
 10
218.4658395
 20
466.6949236315
 30
0.0
 11
218.4658395
 21
508.6949230653
 31
0.0
  0
LINE
  5
15F
330
1F
100
AcDbEntity
  8
0
100
AcDbLine
 10
163.2158355661
 20
498.6949232888
 30
0.0
 11
163.2158355661
 21
505.6949225736
 31
0.0
  0
LINE
  5
160
330
1F
100
AcDbEntity
  8
0
100
AcDbLine
 10
144.2158343144
 20
505.6949225736
 30
0.0
 11
144.2158343144
 21
498.6949232888
 31
0.0
  0
LINE
  5
161
330
1F
100
AcDbEntity
  8
0
100
AcDbLine
 10
118.215833778
 20
498.6949232888
 30
0.0
 11
118.215833778
 21
505.6949225736
 31
0.0
  0
LINE
  5
162
330
1F
100
AcDbEntity
  8
0
100
AcDbLine
 10
99.2158362516
 20
505.6949225736
 30
0.0
 11
99.2158362516
 21
498.6949232888
 31
0.0
  0
LINE
  5
163
330
1F
100
AcDbEntity
  8
0
100
AcDbLine
 10
83.2158373543
 20
506.6949227375
 30
0.0
 11
83.2158373543
 21
505.6949225736
 31
0.0
  0
LINE
  5
164
330
1F
100
AcDbEntity
  8
0
100
AcDbLine
 10
82.715836341
 20
495.6949227971
 30
0.0
 11
82.715836341
 21
485.19492387
 31
0.0
  0
LINE
  5
165
330
1F
100
AcDbEntity
  8
0
100
AcDbLine
 10
82.715836341
 20
485.19492387
 30
0.0
 11
178.7158297249
 21
485.19492387
 31
0.0
  0
ARC
  5
166
330
1F
100
AcDbEntity
  8
0
100
AcDbCircle
 10
83.0158370395
 20
508.9949230057
 30
0.0
 40
0.3000000000000468
100
AcDbArc
 50
180.0
 51
212.079778868
  0
ARC
  5
167
330
1F
100
AcDbEntity
  8
0
100
AcDbCircle
 10
83.0158370395
 20
534.3949230057
 30
0.0
 40
0.2999999999999972
100
AcDbArc
 50
147.9990199794
 51
180.0
  0
LINE
  5
168
330
1F
100
AcDbEntity
  8
0
100
AcDbLine
 10
82.715836341
 20
508.3763166812
 30
0.0
 11
82.715836341
 21
506.6949227375
 31
0.0
  0
LINE
  5
169
330
1F
100
AcDbEntity
  8
0
100
AcDbLine
 10
82.715836341
 20
536.6949239296
 30
0.0
 11
82.715836341
 21
535.0120929551
 31
0.0
  0
LINE
  5
16A
330
1F
100
AcDbEntity
  8
0
100
AcDbLine
 10
173.9691169806
 20
536.6949239296
 30
0.0
 11
82.715836341
 21
536.6949239296
 31
0.0
  0
LINE
  5
16B
330
1F
100
AcDbEntity
  8
0
100
AcDbLine
 10
145.815839047
 20
498.6949232888
 30
0.0
 11
145.815839047
 21
497.6949231249
 31
0.0
  0
LINE
  5
16C
330
1F
100
AcDbEntity
  8
0
100
AcDbLine
 10
161.6158382841
 20
497.6949231249
 30
0.0
 11
161.6158382841
 21
498.6949232888
 31
0.0
  0
LINE
  5
16D
330
1F
100
AcDbEntity
  8
0
100
AcDbLine
 10
100.8158372589
 20
498.6949232888
 30
0.0
 11
100.8158372589
 21
497.6949231249
 31
0.0
  0
LINE
  5
16E
330
1F
100
AcDbEntity
  8
0
100
AcDbLine
 10
116.615836496
 20
497.6949231249
 30
0.0
 11
116.615836496
 21
498.6949232888
 31
0.0
  0
LINE
  5
16F
330
1F
100
AcDbEntity
  8
0
100
AcDbLine
 10
222.2158359238
 20
533.2525070307
 30
0.0
 11
222.2158359238
 21
531.194923028
 31
0.0
  0
LINE
  5
170
330
1F
100
AcDbEntity
  8
0
100
AcDbLine
 10
210.0010262676
 20
534.1949225885
 30
0.0
 11
221.5473549314
 21
534.1949225885
 31
0.0
  0
LINE
  5
171
330
1F
100
AcDbEntity
  8
0
100
AcDbLine
 10
208.7307916828
 20
531.194923028
 30
0.0
 11
222.2158359238
 21
531.194923028
 31
0.0
  0
LINE
  5
172
330
1F
100
AcDbEntity
  8
0
100
AcDbLine
 10
195.9658311554
 20
519.6949230057
 30
0.0
 11
195.9658311554
 21
506.6949227375
 31
0.0
  0
LINE
  5
173
330
1F
100
AcDbEntity
  8
0
100
AcDbLine
 10
195.9658311554
 20
506.6949227375
 30
0.0
 11
177.2158341356
 21
506.6949227375
 31
0.0
  0
ARC
  5
174
330
1F
100
AcDbEntity
  8
0
100
AcDbCircle
 10
177.2158370395
 20
520.4449230057
 30
0.0
 40
13.75000000000001
100
AcDbArc
 50
134.8390027473
 51
270.0
  0
SPLINE
  5
175
330
1F
100
AcDbEntity
  8
0
100
AcDbSpline
210
0.0
220
0.0
230
1.0
 70
     8
 71
     3
 72
    13
 73
     9
 74
     0
 42
0.000000001
 43
0.00000001
 40
0.0
 40
0.0
 40
0.0
 40
0.0
 40
0.2332318633026474
 40
0.4623728957113767
 40
0.6404594046817297
 40
0.8096707439792745
 40
0.9701408611658716
 40
1.0
 40
1.0
 40
1.0
 40
1.0
 10
208.419789547523
 20
530.1949228641319
 30
0.0
 10
208.2153096973852
 20
529.381828585172
 30
0.0
 10
207.8099365245945
 20
527.7699015057183
 30
0.0
 10
207.5903705973071
 20
525.4709190269907
 30
0.0
 10
207.6554324192194
 20
523.3964898459365
 30
0.0
 10
207.9885648860877
 20
521.5964898109605
 30
0.0
 10
208.4559745369944
 20
520.3794653472071
 30
0.0
 10
208.7981524340409
 20
519.7877518855544
 30
0.0
 10
208.8518338151775
 20
519.6949229911903
 30
0.0
  0
LINE
  5
176
330
1F
100
AcDbEntity
  8
0
100
AcDbLine
 10
208.8518338152
 20
519.6949229912
 30
0.0
 11
195.9658311554
 21
519.6949230057
 31
0.0
  0
SPLINE
  5
177
330
1F
100
AcDbEntity
  8
0
100
AcDbSpline
210
0.0
220
0.0
230
1.0
 70
     8
 71
     3
 72
    14
 73
    10
 74
     0
 42
0.000000001
 43
0.00000001
 40
0.0
 40
0.0
 40
0.0
 40
0.0
 40
0.1163545795585166
 40
0.2359508553392611
 40
0.4105768359246088
 40
0.5899819142411983
 40
0.7919483299546793
 40
0.9979749531348077
 40
1.0
 40
1.0
 40
1.0
 40
1.0
 10
167.5204755612216
 20
530.1949228641319
 30
0.0
 10
167.8483026783929
 20
530.5027316596477
 30
0.0
 10
168.5130903386075
 20
531.1269249561944
 30
0.0
 10
169.7721058632962
 20
532.0427261324332
 30
0.0
 10
171.2883420702113
 20
532.9018207641653
 30
0.0
 10
173.1279068889592
 20
533.6238326090232
 30
0.0
 10
175.1074106274237
 20
534.0860915107471
 30
0.0
 10
176.5021770708911
 20
534.1945865748751
 30
0.0
 10
177.2089547963735
 20
534.1949193494377
 30
0.0
 10
177.215834135612
 20
534.1949225884604
 30
0.0
  0
LINE
  5
178
330
1F
100
AcDbEntity
  8
0
100
AcDbLine
 10
177.2158341356
 20
534.1949225885
 30
0.0
 11
210.0010262676
 21
534.1949225885
 31
0.0
  0
SPLINE
  5
179
330
1F
100
AcDbEntity
  8
0
100
AcDbSpline
210
0.0
220
0.0
230
1.0
 70
     8
 71
     3
 72
    12
 73
     8
 74
     0
 42
0.000000001
 43
0.00000001
 40
0.0
 40
0.0
 40
0.0
 40
0.0
 40
0.1921938962019617
 40
0.3839509041480165
 40
0.5870090301845269
 40
0.809513239233289
 40
0.9999999999999999
 40
0.9999999999999999
 40
0.9999999999999999
 40
0.9999999999999999
 10
210.0010262676082
 20
534.1949225884604
 30
0.0
 10
209.9806923526305
 20
534.1565438663162
 30
0.0
 10
209.9400707449995
 20
534.0798736631596
 30
0.0
 10
209.6445510732663
 20
533.4896731821586
 30
0.0
 10
209.2434813094281
 20
532.5905138405383
 30
0.0
 10
208.7992868851035
 20
531.4456339717011
 30
0.0
 10
208.5395772627807
 20
530.5897077840426
 30
0.0
 10
208.419789547523
 20
530.1949228641319
 30
0.0
  0
LINE
  5
17A
330
1F
100
AcDbEntity
  8
0
100
AcDbLine
 10
225.4658387848
 20
531.194923028
 30
0.0
 11
225.4658387848
 21
519.6949230057
 31
0.0
  0
SPLINE
  5
17B
330
1F
100
AcDbEntity
  8
0
100
AcDbSpline
210
0.0
220
0.0
230
1.0
 70
     8
 71
     3
 72
    14
 73
    10
 74
     0
 42
0.000000001
 43
0.00000001
 40
0.0
 40
0.0
 40
0.0
 40
0.0
 40
0.1433505149147825
 40
0.2901224932371713
 40
0.4206736303464497
 40
0.5512018649669875
 40
0.686142566447575
 40
0.8209984019696007
 40
1.0
 40
1.0
 40
1.0
 40
1.0
 10
221.7523353048167
 20
519.6949230056929
 30
0.0
 10
222.0068387057177
 20
520.1724989986639
 30
0.0
 10
222.5219199473208
 20
521.1390496795127
 30
0.0
 10
222.9904181982548
 20
522.6531831224486
 30
0.0
 10
223.3373983221888
 20
524.1439475134218
 30
0.0
 10
223.5605871978675
 20
525.6186075549218
 30
0.0
 10
223.6613880743907
 20
527.1262278484485
 30
0.0
 10
223.6314304148392
 20
528.8272982491476
 30
0.0
 10
223.405493038974
 20
529.9864987457923
 30
0.0
 10
223.2766346879802
 20
530.6476229351687
 30
0.0
  0
LINE
  5
17C
330
1F
100
AcDbEntity
  8
0
100
AcDbLine
 10
225.4658387848
 20
519.6949230057
 30
0.0
 11
221.7523353048
 21
519.6949230057
 31
0.0
  0
ARC
  5
17D
330
1F
100
AcDbEntity
  8
0
100
AcDbCircle
 10
222.4658370395
 20
531.1949230057
 30
0.0
 40
3.0
100
AcDbArc
 50
0.0
 51
90.0
  0
SPLINE
  5
17E
330
1F
100
AcDbEntity
  8
0
100
AcDbSpline
210
0.0
220
0.0
230
1.0
 70
     8
 71
     3
 72
    10
 73
     6
 74
     0
 42
0.000000001
 43
0.00000001
 40
0.0
 40
0.0
 40
0.0
 40
0.0
 40
0.3530091617030522
 40
0.7059448833006651
 40
1.0
 40
1.0
 40
1.0
 40
1.0
 10
223.2766346879802
 20
530.6476229351687
 30
0.0
 10
223.1790985898128
 20
530.9963357057251
 30
0.0
 10
222.98404668491
 20
531.6936887005547
 30
0.0
 10
222.5897871545644
 20
532.5998652328204
 30
0.0
 10
222.3396843043617
 20
533.0369813739753
 30
0.0
 10
222.2260134168468
 20
533.2356491607355
 30
0.0
  0
LINE
  5
17F
330
1F
100
AcDbEntity
  8
0
100
AcDbLine
 10
221.5473549314
 20
534.1949225885
 30
0.0
 11
222.4658327051
 21
534.1949225885
 31
0.0
  0
SPLINE
  5
180
330
1F
100
AcDbEntity
  8
0
100
AcDbSpline
210
0.0
220
0.0
230
1.0
 70
     8
 71
     3
 72
    11
 73
     7
 74
     0
 42
0.000000001
 43
0.00000001
 40
0.0
 40
0.0
 40
0.0
 40
0.0
 40
0.2561547061907106
 40
0.5205313119887791
 40
0.8989404733616981
 40
1.0
 40
1.0
 40
1.0
 40
1.0
 10
222.2260134168468
 20
533.2356491607355
 30
0.0
 10
222.1362899493589
 20
533.3781734930201
 30
0.0
 10
221.9539631245188
 20
533.667796817837
 30
0.0
 10
221.6912373999748
 20
534.0198787851693
 30
0.0
 10
221.5580027650689
 20
534.1820940849772
 30
0.0
 10
221.5492085278653
 20
534.1926893766081
 30
0.0
 10
221.5473549314342
 20
534.1949225884604
 30
0.0
  0
LINE
  5
181
330
1F
100
AcDbEntity
  8
0
100
AcDbLine
 10
217.615832562
 20
519.6949230057
 30
0.0
 11
217.615832562
 21
528.6449227032
 31
0.0
  0
LINE
  5
182
330
1F
100
AcDbEntity
  8
0
100
AcDbLine
 10
217.615832562
 20
528.6449227032
 30
0.0
 11
220.1658384748
 21
531.194923028
 31
0.0
  0
LINE
  5
183
330
1F
100
AcDbEntity
  8
0
100
AcDbLine
 10
222.4658327051
 20
531.194923028
 30
0.0
 11
222.4658327051
 21
532.8096845668
 31
0.0
  0
LINE
  5
184
330
1F
100
AcDbEntity
  8
0
100
AcDbLine
 10
220.1658384748
 20
531.194923028
 30
0.0
 11
222.4658327051
 21
531.194923028
 31
0.0
  0
LINE
  5
185
330
1F
100
AcDbEntity
  8
0
100
AcDbLine
 10
221.7523353048
 20
519.6949230051
 30
0.0
 11
217.615832562
 21
519.6949230057
 31
0.0
  0
LINE
  5
186
330
1F
100
AcDbEntity
  8
0
100
AcDbLine
 10
212.3158322521
 20
528.6449227032
 30
0.0
 11
212.3158322521
 21
519.6949230057
 31
0.0
  0
LINE
  5
187
330
1F
100
AcDbEntity
  8
0
100
AcDbLine
 10
217.615832562
 20
528.6449227032
 30
0.0
 11
212.3158322521
 21
528.6449227032
 31
0.0
  0
LINE
  5
188
330
1F
100
AcDbEntity
  8
0
100
AcDbLine
 10
217.615832562
 20
519.6949230057
 30
0.0
 11
212.3158322521
 21
519.6949230057
 31
0.0
  0
LINE
  5
189
330
1F
100
AcDbEntity
  8
0
100
AcDbLine
 10
209.7658412405
 20
531.194923028
 30
0.0
 11
212.3158322521
 21
528.6449227032
 31
0.0
  0
LINE
  5
18A
330
1F
100
AcDbEntity
  8
0
100
AcDbLine
 10
208.7307916828
 20
531.194923028
 30
0.0
 11
209.7658412405
 21
531.194923028
 31
0.0
  0
LINE
  5
18B
330
1F
100
AcDbEntity
  8
0
100
AcDbLine
 10
212.3158322521
 20
519.6949230057
 30
0.0
 11
208.8518338152
 21
519.6949229912
 31
0.0
  0
LINE
  5
18C
330
1F
100
AcDbEntity
  8
0
100
AcDbLine
 10
211.4893691488
 20
508.6949230653
 30
0.0
 11
211.4893691488
 21
513.6949229535
 31
0.0
  0
LINE
  5
18D
330
1F
100
AcDbEntity
  8
0
100
AcDbLine
 10
218.4423105665
 20
508.6949230653
 30
0.0
 11
218.4423105665
 21
513.6949229535
 31
0.0
  0
LINE
  5
18E
330
1F
100
AcDbEntity
  8
0
100
AcDbLine
 10
212.4942289539
 20
465.694921605
 30
0.0
 11
212.4658422418
 21
465.694921605
 31
0.0
  0
LINE
  5
18F
330
1F
100
AcDbEntity
  8
0
100
AcDbLine
 10
217.4658374735
 20
465.694921605
 30
0.0
 11
212.4942289539
 21
465.694921605
 31
0.0
  0
LINE
  5
190
330
1F
100
AcDbEntity
  8
0
100
AcDbLine
 10
211.4658402153
 20
466.6949236315
 30
0.0
 11
218.4658395
 21
466.6949236315
 31
0.0
  0
LINE
  5
191
330
1F
100
AcDbEntity
  8
0
100
AcDbLine
 10
218.2026700922
 20
513.6949229535
 30
0.0
 11
218.4658395
 21
513.6949229535
 31
0.0
  0
LINE
  5
192
330
1F
100
AcDbEntity
  8
0
100
AcDbLine
 10
218.2026700922
 20
513.6949229535
 30
0.0
 11
218.2026700922
 21
508.6949230653
 31
0.0
  0
LINE
  5
193
330
1F
100
AcDbEntity
  8
0
100
AcDbLine
 10
218.2026700922
 20
508.6949230653
 30
0.0
 11
218.4658395
 21
508.6949230653
 31
0.0
  0
LINE
  5
194
330
1F
100
AcDbEntity
  8
0
100
AcDbLine
 10
211.4658402153
 20
513.6949229535
 30
0.0
 11
212.270800943
 21
513.6949229535
 31
0.0
  0
LINE
  5
195
330
1F
100
AcDbEntity
  8
0
100
AcDbLine
 10
211.728994722
 20
513.6949229535
 30
0.0
 11
211.728994722
 21
508.6949230653
 31
0.0
  0
LINE
  5
196
330
1F
100
AcDbEntity
  8
0
100
AcDbLine
 10
211.4658402153
 20
508.6949230653
 30
0.0
 11
212.270800943
 21
508.6949230653
 31
0.0
  0
LINE
  5
197
330
1F
100
AcDbEntity
  8
0
100
AcDbLine
 10
212.270800943
 20
508.6949230653
 30
0.0
 11
212.270800943
 21
513.6949229535
 31
0.0
  0
LINE
  5
198
330
1F
100
AcDbEntity
  8
0
100
AcDbLine
 10
213.634331698
 20
513.6949229535
 30
0.0
 11
217.1989427753
 21
513.6949229535
 31
0.0
  0
LINE
  5
199
330
1F
100
AcDbEntity
  8
0
100
AcDbLine
 10
213.634331698
 20
513.6949229535
 30
0.0
 11
213.634331698
 21
508.6949230653
 31
0.0
  0
LINE
  5
19A
330
1F
100
AcDbEntity
  8
0
100
AcDbLine
 10
213.634331698
 20
508.6949230653
 30
0.0
 11
217.1989427753
 21
508.6949230653
 31
0.0
  0
LINE
  5
19B
330
1F
100
AcDbEntity
  8
0
100
AcDbLine
 10
217.1989427753
 20
508.6949230653
 30
0.0
 11
217.1989427753
 21
513.6949229535
 31
0.0
  0
LINE
  5
19C
330
1F
100
AcDbEntity
  8
0
100
AcDbLine
 10
146.3835360356
 20
498.6949232888
 30
0.0
 11
144.2158343144
 21
498.6949232888
 31
0.0
  0
LINE
  5
19D
330
1F
100
AcDbEntity
  8
0
100
AcDbLine
 10
163.2158355661
 20
498.6949232888
 30
0.0
 11
146.3835360356
 21
498.6949232888
 31
0.0
  0
LINE
  5
19E
330
1F
100
AcDbEntity
  8
0
100
AcDbLine
 10
110.3059658655
 20
498.6949232888
 30
0.0
 11
99.2158362516
 21
498.6949232888
 31
0.0
  0
LINE
  5
19F
330
1F
100
AcDbEntity
  8
0
100
AcDbLine
 10
118.215833778
 20
498.6949232888
 30
0.0
 11
110.3059658655
 21
498.6949232888
 31
0.0
  0
LINE
  5
1A0
330
1F
100
AcDbEntity
  8
0
100
AcDbLine
 10
187.2158395
 20
506.6949227375
 30
0.0
 11
187.2158395
 21
505.6949225736
 31
0.0
  0
LINE
  5
1A1
330
1F
100
AcDbEntity
  8
0
100
AcDbLine
 10
187.2158395
 20
505.6949225736
 30
0.0
 11
182.2158442684
 21
505.6949225736
 31
0.0
  0
LINE
  5
1A2
330
1F
100
AcDbEntity
  8
0
100
AcDbLine
 10
182.2158442684
 20
505.6949225736
 30
0.0
 11
90.2434969195
 21
505.6949225736
 31
0.0
  0
LINE
  5
1A3
330
1F
100
AcDbEntity
  8
0
100
AcDbLine
 10
90.2434969195
 20
505.6949225736
 30
0.0
 11
85.3316532322
 21
505.6949225736
 31
0.0
  0
LINE
  5
1A4
330
1F
100
AcDbEntity
  8
0
100
AcDbLine
 10
85.3316532322
 20
505.6949225736
 30
0.0
 11
83.2158373543
 21
505.6949225736
 31
0.0
  0
LINE
  5
1A5
330
1F
100
AcDbEntity
  8
0
100
AcDbLine
 10
167.7158372351
 20
497.6949231249
 30
0.0
 11
167.7158372351
 21
495.6949227971
 31
0.0
  0
LINE
  5
1A6
330
1F
100
AcDbEntity
  8
0
100
AcDbLine
 10
157.7158393212
 20
497.6949231249
 30
0.0
 11
167.7158372351
 21
497.6949231249
 31
0.0
  0
LINE
  5
1A7
330
1F
100
AcDbEntity
  8
0
100
AcDbLine
 10
157.7158393212
 20
497.6949231249
 30
0.0
 11
100.7158355661
 21
497.6949231249
 31
0.0
  0
LINE
  5
1A8
330
1F
100
AcDbEntity
  8
0
100
AcDbLine
 10
90.7158376523
 20
495.6949227971
 30
0.0
 11
90.7158376523
 21
497.6949231249
 31
0.0
  0
LINE
  5
1A9
330
1F
100
AcDbEntity
  8
0
100
AcDbLine
 10
90.7158376523
 20
497.6949231249
 30
0.0
 11
100.7158355661
 21
497.6949231249
 31
0.0
  0
LINE
  5
1AA
330
1F
100
AcDbEntity
  8
0
100
AcDbLine
 10
85.909374977
 20
490.1949228269
 30
0.0
 11
178.7158297249
 21
490.1949228269
 31
0.0
  0
SPLINE
  5
1AB
330
1F
100
AcDbEntity
  8
0
100
AcDbSpline
210
0.0
220
0.0
230
1.0
 70
     8
 71
     3
 72
    11
 73
     7
 74
     0
 42
0.000000001
 43
0.00000001
 40
0.0
 40
0.0
 40
0.0
 40
0.0
 40
0.2474822424433552
 40
0.4949698833387626
 40
0.7474822321198938
 40
1.0
 40
1.0
 40
1.0
 40
1.0
 10
83.92315449794151
 20
486.7245988470243
 30
0.0
 10
84.05844190252431
 20
486.9073686663205
 30
0.0
 10
84.3290196627807
 20
487.272912291761
 30
0.0
 10
84.8068823986479
 20
488.0615049924291
 30
0.0
 10
85.33008051646648
 20
489.0115501163306
 30
0.0
 10
85.71627544213493
 20
489.8004624349542
 30
0.0
 10
85.90937497695305
 20
490.1949228268789
 30
0.0
  0
LINE
  5
1AC
330
1F
100
AcDbEntity
  8
0
100
AcDbLine
 10
178.7158297249
 20
490.1949228269
 30
0.0
 11
178.7158297249
 21
486.724598847
 31
0.0
  0
LINE
  5
1AD
330
1F
100
AcDbEntity
  8
0
100
AcDbLine
 10
85.909374977
 20
495.6949227971
 30
0.0
 11
178.7158297249
 21
495.6949227971
 31
0.0
  0
LINE
  5
1AE
330
1F
100
AcDbEntity
  8
0
100
AcDbLine
 10
85.909374977
 20
495.6949227971
 30
0.0
 11
85.909374977
 21
490.1949228269
 31
0.0
  0
LINE
  5
1AF
330
1F
100
AcDbEntity
  8
0
100
AcDbLine
 10
178.7158297249
 20
495.6949227971
 30
0.0
 11
178.7158297249
 21
490.1949228269
 31
0.0
  0
SPLINE
  5
1B0
330
1F
100
AcDbEntity
  8
0
100
AcDbSpline
210
0.0
220
0.0
230
1.0
 70
     8
 71
     3
 72
    11
 73
     7
 74
     0
 42
0.000000001
 43
0.00000001
 40
0.0
 40
0.0
 40
0.0
 40
0.0
 40
0.234056932527146
 40
0.4850661618461566
 40
0.7420980536672105
 40
1.0
 40
1.0
 40
1.0
 40
1.0
 10
82.7211560555301
 20
485.2015660625623
 30
0.0
 10
82.73197243797014
 20
485.2152148454904
 30
0.0
 10
82.75438861278117
 20
485.2435009666377
 30
0.0
 10
82.98292957212148
 20
485.5325011629611
 30
0.0
 10
83.3517210140188
 20
485.9990643013082
 30
0.0
 10
83.73246223101796
 20
486.482481730778
 30
0.0
 10
83.92315449794151
 20
486.7245988470243
 30
0.0
  0
LINE
  5
1B1
330
1F
100
AcDbEntity
  8
0
100
AcDbLine
 10
85.909374977
 20
495.6949227971
 30
0.0
 11
82.715836341
 21
495.6949227971
 31
0.0
  0
LINE
  5
1B2
330
1F
100
AcDbEntity
  8
0
100
AcDbLine
 10
178.7158297249
 20
486.724598847
 30
0.0
 11
178.7158297249
 21
485.19492387
 31
0.0
  0
LINE
  5
1B3
330
1F
100
AcDbEntity
  8
0
100
AcDbLine
 10
82.715836341
 20
508.9949225557
 30
0.0
 11
82.715836341
 21
534.39492318
 31
0.0
  0
CIRCLE
  5
1B4
330
1F
100
AcDbEntity
  8
0
100
AcDbCircle
 10
152.7158370395
 20
514.6949230057
 30
0.0
 40
3.995000000000006
  0
LINE
  5
1B5
330
1F
100
AcDbEntity
  8
0
100
AcDbLine
 10
150.9944843002
 20
514.5026878935
 30
0.0
 11
152.021643693
 21
513.1080728505
 31
0.0
  0
LINE
  5
1B6
330
1F
100
AcDbEntity
  8
0
100
AcDbLine
 10
152.021643693
 20
513.1080728505
 30
0.0
 11
153.7429960318
 21
513.3003076088
 31
0.0
  0
LINE
  5
1B7
330
1F
100
AcDbEntity
  8
0
100
AcDbLine
 10
153.7429960318
 20
513.3003076088
 30
0.0
 11
154.4371889778
 21
514.8871578757
 31
0.0
  0
LINE
  5
1B8
330
1F
100
AcDbEntity
  8
0
100
AcDbLine
 10
154.4371889778
 20
514.8871578757
 30
0.0
 11
153.410029585
 21
516.2817733844
 31
0.0
  0
LINE
  5
1B9
330
1F
100
AcDbEntity
  8
0
100
AcDbLine
 10
153.410029585
 20
516.2817733844
 30
0.0
 11
151.6886846968
 21
516.0895383932
 31
0.0
  0
LINE
  5
1BA
330
1F
100
AcDbEntity
  8
0
100
AcDbLine
 10
151.6886846968
 20
516.0895383932
 30
0.0
 11
150.9944843002
 21
514.5026878935
 31
0.0
  0
CIRCLE
  5
1BB
330
1F
100
AcDbEntity
  8
0
100
AcDbCircle
 10
152.7158370395
 20
514.6949230057
 30
0.0
 40
3.599999999964008
  0
CIRCLE
  5
1BC
330
1F
100
AcDbEntity
  8
0
100
AcDbCircle
 10
152.7158370395
 20
514.6949230057
 30
0.0
 40
3.89999999999999
  0
ARC
  5
1BD
330
1F
100
AcDbEntity
  8
0
100
AcDbCircle
 10
152.7158370395
 20
514.6949230057
 30
0.0
 40
1.499999999999976
100
AcDbArc
 50
336.3722114304001
 51
36.3722114304
  0
ARC
  5
1BE
330
1F
100
AcDbEntity
  8
0
100
AcDbCircle
 10
152.7158370395
 20
514.6949230057
 30
0.0
 40
1.499999999999976
100
AcDbArc
 50
276.3722114304
 51
336.3722114304001
  0
ARC
  5
1BF
330
1F
100
AcDbEntity
  8
0
100
AcDbCircle
 10
152.7158370395
 20
514.6949230057
 30
0.0
 40
1.499999999998889
100
AcDbArc
 50
216.3722114304
 51
276.3722114304
  0
ARC
  5
1C0
330
1F
100
AcDbEntity
  8
0
100
AcDbCircle
 10
152.7158370395
 20
514.6949230057
 30
0.0
 40
1.49999999999893
100
AcDbArc
 50
36.3722114304
 51
96.37221143039999
  0
ARC
  5
1C1
330
1F
100
AcDbEntity
  8
0
100
AcDbCircle
 10
152.7158370395
 20
514.6949230057
 30
0.0
 40
1.499999999998934
100
AcDbArc
 50
96.37221143039999
 51
156.3722114304
  0
ARC
  5
1C2
330
1F
100
AcDbEntity
  8
0
100
AcDbCircle
 10
152.7158370395
 20
514.6949230057
 30
0.0
 40
1.499999999998934
100
AcDbArc
 50
156.3722114304
 51
216.3722114304
  0
LINE
  5
1C3
330
1F
100
AcDbEntity
  8
0
100
AcDbLine
 10
85.909374977
 20
506.6949227375
 30
0.0
 11
177.2158341356
 21
506.6949227375
 31
0.0
  0
LINE
  5
1C4
330
1F
100
AcDbEntity
  8
0
100
AcDbLine
 10
85.909374977
 20
506.6949227375
 30
0.0
 11
85.909374977
 21
532.4245305282
 31
0.0
  0
CIRCLE
  5
1C5
330
1F
100
AcDbEntity
  8
0
100
AcDbCircle
 10
152.7158370395
 20
514.6949230057
 30
0.0
 40
4.499999999999943
  0
SPLINE
  5
1C6
330
1F
100
AcDbEntity
  8
0
100
AcDbSpline
210
0.0
220
0.0
230
1.0
 70
     8
 71
     3
 72
    11
 73
     7
 74
     0
 42
0.000000001
 43
0.00000001
 40
0.0
 40
0.0
 40
0.0
 40
0.0
 40
0.2468773651829011
 40
0.493649686911298
 40
0.743380109066996
 40
1.0
 40
1.0
 40
1.0
 40
1.0
 10
85.90937497695305
 20
532.4245305281805
 30
0.0
 10
85.90686805780162
 20
532.5348872137496
 30
0.0
 10
85.90185528616381
 20
532.7555536293984
 30
0.0
 10
85.86294598635178
 20
533.0482141406962
 30
0.0
 10
85.80615631878707
 20
533.2821323748836
 30
0.0
 10
85.75811319480032
 20
533.356723960017
 30
0.0
 10
85.73376479228355
 20
533.3945272040295
 30
0.0
  0
CIRCLE
  5
1C7
330
1F
100
AcDbEntity
  8
0
100
AcDbCircle
 10
152.7158370395
 20
514.6949230057
 30
0.0
 40
4.0
  0
SPLINE
  5
1C8
330
1F
100
AcDbEntity
  8
0
100
AcDbSpline
210
0.0
220
0.0
230
1.0
 70
     8
 71
     3
 72
    13
 73
     9
 74
     0
 42
0.000000001
 43
0.00000001
 40
0.0
 40
0.0
 40
0.0
 40
0.0
 40
0.1648637991817967
 40
0.3298378226372827
 40
0.4946913580947906
 40
0.6640346165382494
 40
0.8335112719850345
 40
0.9999999999999999
 40
0.9999999999999999
 40
0.9999999999999999
 40
0.9999999999999999
 10
85.73376479228355
 20
533.3945272040295
 30
0.0
 10
85.42387130090601
 20
533.734120717034
 30
0.0
 10
84.80387713024692
 20
534.4135347877217
 30
0.0
 10
84.06517846556729
 20
535.2214563784278
 30
0.0
 10
83.46649687627843
 20
535.875596376535
 30
0.0
 10
83.0374889657739
 20
536.3440090662324
 30
0.0
 10
82.76576577417124
 20
536.6404931717083
 30
0.0
 10
82.73336691498018
 20
536.6758134092906
 30
0.0
 10
82.71731155594208
 20
536.6933164668011
 30
0.0
  0
LWPOLYLINE
  5
1C9
330
1F
100
AcDbEntity
  8
0
100
AcDbPolyline
 90
       19
 70
   128
 43
0.0
 10
82.7159965285
 20
535.0120929551
 10
82.715836341
 20
535.0135206726
 10
82.7444093176
 20
534.7590349165
 10
82.8255051621
 20
533.9946556386
 10
82.9467074819
 20
532.76474639
 10
83.0892743417
 20
531.1078518179
 10
83.2326384135
 20
529.0882946473
 10
83.3534793802
 20
526.7898184729
 10
83.4349701055
 20
524.2868462127
 10
83.4631295749
 20
521.6878310793
 10
83.4346795328
 20
519.0894823653
 10
83.3528870591
 20
516.5862292533
 10
83.2318561025
 20
514.2887784649
 10
83.0884100743
 20
512.2710704353
 10
82.9459028192
 20
510.6166215163
 10
82.8249091156
 20
509.3894186911
 10
82.7441597231
 20
508.6291120869
 10
82.715836341
 20
508.3763166812
 10
82.715836341
 20
508.3763166812
  0
LINE
  5
1CA
330
1F
100
AcDbEntity
  8
0
100
AcDbLine
 10
82.715836341
 20
506.6949227375
 30
0.0
 11
85.909374977
 21
506.6949227375
 31
0.0
  0
SPLINE
  5
1CB
330
1F
100
AcDbEntity
  8
0
100
AcDbSpline
210
0.0
220
0.0
230
1.0
 70
     8
 71
     3
 72
    15
 73
    11
 74
     0
 42
0.000000001
 43
0.00000001
 40
0.0
 40
0.0
 40
0.0
 40
0.0
 40
0.0265607740502919
 40
0.1189742329970518
 40
0.2156313943586106
 40
0.3123613998589465
 40
0.5224998719568854
 40
0.7327033363256192
 40
0.9444421473276037
 40
1.0
 40
1.0
 40
1.0
 40
1.0
 10
173.9691169806323
 20
536.6900605630802
 30
0.0
 10
173.9608570630789
 20
536.6914169673869
 30
0.0
 10
173.9238582409186
 20
536.6974927376834
 30
0.0
 10
174.1510099953429
 20
536.6614529640364
 30
0.0
 10
174.6118315867838
 20
536.5798822806095
 30
0.0
 10
175.4942317174731
 20
536.3952494602295
 30
0.0
 10
176.8021507880349
 20
536.0372204009291
 30
0.0
 10
178.5173429540403
 20
535.3713548683791
 30
0.0
 10
179.808029950707
 20
534.7565806431904
 30
0.0
 10
180.5030388301841
 20
534.2915745288143
 30
0.0
 10
180.6474970527492
 20
534.1949225884604
 30
0.0
  0
LINE
  5
1CC
330
1F
100
AcDbEntity
  8
0
  6
Continuous
 62
     8
370
     0
100
AcDbLine
 10
208.4197895475
 20
530.1949228641
 30
0.0
 11
167.5204755612
 21
530.1949228641
 31
0.0
  0
LWPOLYLINE
  5
1CD
330
1F
100
AcDbEntity
  8
0
  6
Continuous
 62
     8
370
     0
100
AcDbPolyline
 90
        7
 70
   128
 43
0.0
 10
225.4658387848
 20
531.194923028
 10
225.3986792513
 20
531.178134076
 10
225.1994656273
 20
531.12833067
 10
224.8748885341
 20
531.0471845341
 10
224.4358258196
 20
530.9374216494
 10
223.8970445343
 20
530.8027263281
 10
223.276634688
 20
530.6476229352
  0
LWPOLYLINE
  5
1CE
330
1F
100
AcDbEntity
  8
0
  6
Continuous
 62
     8
370
     0
100
AcDbPolyline
 90
        5
 70
   128
 43
0.0
 10
222.4658327051
 20
534.1949225885
 10
222.4502460905
 20
534.1325686794
 10
222.4039630838
 20
533.94744876
 10
222.3284439989
 20
533.6453360987
 10
222.2260134168
 20
533.2356491607
  0
LINE
  5
1CF
330
1F
100
AcDbEntity
  8
0
  6
Continuous
 62
     8
370
     0
100
AcDbLine
 10
182.2158442684
 20
505.6949225736
 30
0.0
 11
182.2158442684
 21
506.6949227375
 31
0.0
  0
LINE
  5
1D0
330
1F
100
AcDbEntity
  8
0
  6
Continuous
 62
     8
370
     0
100
AcDbLine
 10
90.2434969195
 20
506.6949227375
 30
0.0
 11
90.2434969195
 21
505.6949225736
 31
0.0
  0
LINE
  5
1D1
330
1F
100
AcDbEntity
  8
0
  6
Continuous
 62
     8
370
     0
100
AcDbLine
 10
85.3316532322
 20
505.6949225736
 30
0.0
 11
85.3316532322
 21
506.6949227375
 31
0.0
  0
LINE
  5
1D2
330
1F
100
AcDbEntity
  8
0
  6
Continuous
 62
     8
370
     0
100
AcDbLine
 10
157.7158393212
 20
495.6949227971
 30
0.0
 11
157.7158393212
 21
497.6949231249
 31
0.0
  0
LINE
  5
1D3
330
1F
100
AcDbEntity
  8
0
  6
Continuous
 62
     8
370
     0
100
AcDbLine
 10
100.7158355661
 20
497.6949231249
 30
0.0
 11
100.7158355661
 21
495.6949227971
 31
0.0
  0
LINE
  5
1D4
330
1F
100
AcDbEntity
  8
0
  6
Continuous
 62
     8
370
     0
100
AcDbLine
 10
83.9231544979
 20
486.724598847
 30
0.0
 11
178.7158297249
 21
486.724598847
 31
0.0
  0
LINE
  5
1D5
330
1F
100
AcDbEntity
  8
0
  6
Continuous
 62
     8
370
     0
100
AcDbLine
 10
83.015837694
 20
532.0105939653
 30
0.0
 11
83.015837694
 21
511.4040873495
 31
0.0
  0
LINE
  5
1D6
330
1F
100
AcDbEntity
  8
0
  6
Continuous
 62
     8
370
     0
100
AcDbLine
 10
170.5347047993
 20
532.4245305282
 30
0.0
 11
85.909374977
 21
532.4245305282
 31
0.0
  0
LINE
  5
1D7
330
1F
100
AcDbEntity
  8
0
  6
Continuous
 62
     8
370
     0
100
AcDbLine
 10
85.7337647923
 20
533.394527204
 30
0.0
 11
172.6619722195
 21
533.394527204
 31
0.0
  0
HATCH
  5
1D8
330
1F
100
AcDbEntity
  8
TRATTEGGIO
 62
     4
100
AcDbHatch
 10
0.0
 20
0.0
 30
0.0
210
0.0
220
0.0
230
1.0
  2
ANSI38
 70
     0
 71
     0
 91
        1
 92
        0
 93
        6
 72
     4
 94
        3
 73
     1
 74
     0
 95
        9
 96
        5
 40
0.2199675403087764
 40
0.2199675403087764
 40
0.2199675403087764
 40
0.2199675403087764
 40
0.3828401526290768
 40
0.4483273309967153
 40
0.4483273309967153
 40
0.4483273309967153
 40
0.4483273309967153
 10
222.4658370589976
 20
532.8096845460032
 42
1.0
 10
223.9018966570467
 20
530.0767798911021
 42
1.0
 10
223.8969235412615
 20
525.0559018511931
 42
1.0
 10
222.389265002796
 20
520.7433723458709
 42
1.0
 10
221.7523415738789
 20
519.6949230050819
 42
1.0
 97
        0
 72
     4
 94
        3
 73
     1
 74
     0
 95
       14
 96
       10
 40
0.0
 40
0.0
 40
0.0
 40
0.0
 40
0.0032768654029336
 40
0.0032768654029336
 40
0.0032768654029336
 40
0.0092971435329046
 40
0.0092971435329046
 40
0.0092971435329046
 40
0.0113064439010685
 40
0.0113064439010685
 40
0.0113064439010685
 40
0.0113064439010685
 10
221.7523415742501
 20
519.6949230056929
 42
1.0
 10
222.3190590286129
 20
520.6278052244646
 42
1.0
 10
222.7034742656012
 20
521.6678657813966
 42
1.0
 10
222.9880618526158
 20
522.7159060681698
 42
1.0
 10
223.5072175203424
 20
524.6277816372758
 42
1.0
 10
223.7568008314733
 20
526.6707845170553
 42
1.0
 10
223.5965302389311
 20
528.6543600331997
 42
1.0
 10
223.5421869552736
 20
529.3269351152545
 42
1.0
 10
223.4385978369329
 20
529.9968638802734
 42
1.0
 10
223.2766351601169
 20
530.6476225358485
 42
1.0
 97
        0
 72
     4
 94
        3
 73
     1
 74
     0
 95
       14
 96
       10
 40
0.0
 40
0.0
 40
0.0
 40
0.0
 40
0.001079119640285
 40
0.001079119640285
 40
0.001079119640285
 40
0.0021578729775945
 40
0.0021578729775945
 40
0.0021578729775945
 40
0.003052614814385
 40
0.003052614814385
 40
0.003052614814385
 40
0.003052614814385
 10
223.2766351601169
 20
530.6476225358485
 42
1.0
 10
223.1904063766375
 20
530.994085858832
 42
1.0
 10
223.0834717188366
 20
531.3479278421629
 42
1.0
 10
222.9631990253063
 20
531.6793480094279
 42
1.0
 10
222.8429517749421
 20
532.0106980661955
 42
1.0
 10
222.7060642690132
 20
532.3287156029265
 42
1.0
 10
222.568053680289
 20
532.6088318632482
 42
1.0
 10
222.4530676543334
 20
532.8422158077532
 42
1.0
 10
222.3352135113271
 20
533.0543622502374
 42
1.0
 10
222.2260185930191
 20
533.2356492197914
 42
1.0
 97
        0
 72
     4
 94
        3
 73
     1
 74
     0
 95
       14
 96
       10
 40
0.0015583781734011
 40
0.0015583781734011
 40
0.0015583781734011
 40
0.0015583781734011
 40
0.0030747436454585
 40
0.0030747436454585
 40
0.0030747436454585
 40
0.0041757373382814
 40
0.0041757373382814
 40
0.0041757373382814
 40
0.0044658290117404
 40
0.0044658290117404
 40
0.0044658290117404
 40
0.0044658290117404
 10
222.2260185930191
 20
533.2356492197914
 42
1.0
 10
222.0421329129391
 20
533.5409388633261
 42
1.0
 10
221.8635748632974
 20
533.7901834368566
 42
1.0
 10
221.736862180471
 20
533.9563407681103
 42
1.0
 10
221.6443712618536
 20
534.0776233726599
 42
1.0
 10
221.5786612970051
 20
534.1569585910298
 42
1.0
 10
221.5563388661381
 20
534.1840485371772
 42
1.0
 10
221.5503773500594
 20
534.1912832846153
 42
1.0
 10
221.5473613630481
 20
534.1949230056928
 42
1.0
 10
221.5473613630481
 20
534.1949230056928
 42
1.0
 97
        0
 72
     4
 94
        3
 73
     1
 74
     0
 95
       17
 96
       13
 40
0.0
 40
0.0
 40
0.0
 40
0.0
 40
0.0003544628757982
 40
0.0003544628757982
 40
0.0003544628757982
 40
0.0016127188431348
 40
0.0016127188431348
 40
0.0016127188431348
 40
0.0023172649895328
 40
0.0023172649895328
 40
0.0023172649895328
 40
0.0028471742733525
 40
0.0028471742733525
 40
0.0028471742733525
 40
0.0028471742733525
 10
221.5473613630481
 20
534.1949230056929
 42
1.0
 10
221.6115331096197
 20
534.1173371949412
 42
1.0
 10
221.6730645146827
 20
534.0398208234168
 42
1.0
 10
221.7318457462608
 20
533.9629115174542
 42
1.0
 10
221.9386483585025
 20
533.6923311816608
 42
1.0
 10
222.1152668636529
 20
533.4218162526126
 42
1.0
 10
222.2471316253303
 20
533.200398094238
 42
1.0
 10
222.3212295086995
 20
533.0759780697648
 42
1.0
 10
222.382264216498
 20
532.9656109866543
 42
1.0
 10
222.4207070505298
 20
532.8944098907132
 42
1.0
 10
222.449629833924
 20
532.8408411586671
 42
1.0
 10
222.4658370394945
 20
532.8096845831188
 42
1.0
 10
222.4658370394945
 20
532.8096845831188
 42
1.0
 97
        0
 72
     1
 10
222.4658370394945
 20
532.8096845831188
 11
222.4658370589976
 21
532.8096845460032
 97
        0
 75
     0
 76
     1
 52
0.0
 41
1.0
 77
     0
 78
     2
 53
45.0
 43
0.0
 44
0.0
 45
-2.245064030267288
 46
2.245064030267288
 79
     0
 53
135.0
 43
0.0
 44
0.0
 45
-6.735192090801864
 46
2.245064030267289
 79
     2
 49
7.9375
 49
-4.7625
 98
        1
 10
0.0
 20
0.0
  0
HATCH
  5
1D9
330
1F
100
AcDbEntity
  8
TRATTEGGIO
 62
     4
100
AcDbHatch
 10
0.0
 20
0.0
 30
0.0
210
0.0
220
0.0
230
1.0
  2
ANSI38
 70
     0
 71
     0
 91
        1
 92
        0
 93
        6
 72
     4
 94
        3
 73
     1
 74
     0
 95
        9
 96
        5
 40
0.5516726690032845
 40
0.5516726690032845
 40
0.5516726690032845
 40
0.5516726690032845
 40
0.6171598473709232
 40
0.7800324596912237
 40
0.7800324596912237
 40
0.7800324596912237
 40
0.7800324596912237
 10
221.7523415738789
 20
519.6949230050819
 42
1.0
 10
222.389265002796
 20
520.7433723458709
 42
1.0
 10
223.8969235412615
 20
525.0559018511931
 42
1.0
 10
223.9018966570467
 20
530.0767798911021
 42
1.0
 10
222.4658370589976
 20
532.8096845460032
 42
1.0
 97
        0
 72
     1
 10
222.4658370589976
 20
532.8096845460032
 11
222.4658370394945
 21
531.1949230056928
 72
     1
 10
222.4658370394945
 20
531.1949230056928
 11
220.1658370394945
 21
531.1949230056928
 72
     1
 10
220.1658370394945
 20
531.1949230056928
 11
217.6158370394945
 21
528.6449230056929
 72
     1
 10
217.6158370394945
 20
528.6449230056929
 11
217.6158370394945
 21
519.6949230056929
 72
     1
 10
217.6158370394945
 20
519.6949230056929
 11
221.7523415738789
 21
519.6949230050819
 97
        0
 75
     0
 76
     1
 52
0.0
 41
1.0
 77
     0
 78
     2
 53
45.0
 43
0.0
 44
0.0
 45
-2.245064030267288
 46
2.245064030267288
 79
     0
 53
135.0
 43
0.0
 44
0.0
 45
-6.735192090801864
 46
2.245064030267289
 79
     2
 49
7.9375
 49
-4.7625
 98
        1
 10
0.0
 20
0.0
  0
HATCH
  5
1DA
330
1F
100
AcDbEntity
  8
TRATTEGGIO
 62
     4
100
AcDbHatch
 10
0.0
 20
0.0
 30
0.0
210
0.0
220
0.0
230
1.0
  2
ANSI38
 70
     0
 71
     0
 91
        1
 92
        0
 93
        5
 72
     1
 10
212.3158370394945
 20
519.6949230056929
 11
212.3158370394945
 21
528.6449230056929
 72
     1
 10
212.3158370394945
 20
528.6449230056929
 11
209.7658370394945
 21
531.1949230056928
 72
     1
 10
209.7658370394945
 20
531.1949230056928
 11
208.730790098259
 21
531.1949230056958
 72
     4
 94
        3
 73
     1
 74
     0
 95
        8
 96
        4
 40
0.0940813850266882
 40
0.0940813850266882
 40
0.0940813850266882
 40
0.0940813850266882
 40
0.2872018720672554
 40
0.2872018720672554
 40
0.2872018720672554
 40
0.2872018720672554
 10
208.7307900982585
 20
531.1949230056945
 42
1.0
 10
207.409449446923
 20
527.2709063691966
 42
1.0
 10
207.070316500588
 20
522.6716514498739
 42
1.0
 10
208.851832647732
 20
519.6949229911904
 42
1.0
 97
        0
 72
     1
 10
208.851832647732
 20
519.6949229911904
 11
212.3158370394945
 21
519.6949230056929
 97
        0
 75
     0
 76
     1
 52
0.0
 41
1.0
 77
     0
 78
     2
 53
45.0
 43
0.0
 44
0.0
 45
-2.245064030267288
 46
2.245064030267288
 79
     0
 53
135.0
 43
0.0
 44
0.0
 45
-6.735192090801864
 46
2.245064030267289
 79
     2
 49
7.9375
 49
-4.7625
 98
        1
 10
0.0
 20
0.0
  0
HATCH
  5
1DB
330
1F
100
AcDbEntity
  8
TRATTEGGIO
 62
     4
100
AcDbHatch
 10
0.0
 20
0.0
 30
0.0
210
0.0
220
0.0
230
1.0
  2
ANSI38
 70
     0
 71
     0
 91
        1
 92
        0
 93
        4
 72
     4
 94
        3
 73
     1
 74
     0
 95
        8
 96
        4
 40
0.7127981279327443
 40
0.7127981279327443
 40
0.7127981279327443
 40
0.7127981279327443
 40
0.9059186149732891
 40
0.9059186149732891
 40
0.9059186149732891
 40
0.9059186149732891
 10
208.851832647732
 20
519.6949229911904
 42
1.0
 10
207.0703165005883
 20
522.6716514498736
 42
1.0
 10
207.409449446923
 20
527.2709063691955
 42
1.0
 10
208.7307900982581
 20
531.194923005693
 42
1.0
 97
        0
 72
     4
 94
        3
 73
     1
 74
     0
 95
        8
 96
        4
 40
0.9059186149732894
 40
0.9059186149732894
 40
0.9059186149732894
 40
0.9059186149732894
 40
0.9583355005253174
 40
0.9583355005253174
 40
0.9583355005253174
 40
0.9583355005253174
 10
208.7307900982581
 20
531.194923005693
 42
1.0
 10
209.0894292191369
 20
532.2599820995802
 42
1.0
 10
209.5204267585775
 20
533.2752969550044
 42
1.0
 10
210.0010192043505
 20
534.194923005678
 42
1.0
 97
        0
 72
     4
 94
        3
 73
     1
 74
     0
 95
       20
 96
       16
 40
0.0
 40
0.0
 40
0.0
 40
0.0
 40
0.0012454251553065
 40
0.0012454251553065
 40
0.0012454251553065
 40
0.002485875235075
 40
0.002485875235075
 40
0.002485875235075
 40
0.0037992857278814
 40
0.0037992857278814
 40
0.0037992857278814
 40
0.0052409614652917
 40
0.0052409614652917
 40
0.0052409614652917
 40
0.0064711991048034
 40
0.0064711991048034
 40
0.0064711991048034
 40
0.0064711991048034
 10
210.0010192043583
 20
534.1949230056928
 42
1.0
 10
210.0010192043583
 20
534.1949230056928
 42
1.0
 10
209.9656400601162
 20
534.1280385556009
 42
1.0
 10
209.9017750116507
 20
534.0022687047324
 42
1.0
 10
209.8380550061082
 20
533.8767844878254
 42
1.0
 10
209.7450089183066
 20
533.6900927153587
 42
1.0
 10
209.6366174899699
 20
533.4590217514967
 42
1.0
 10
209.5218380931857
 20
533.2143327917387
 42
1.0
 10
209.3873847085918
 20
532.9140863050226
 42
1.0
 10
209.2491991739147
 20
532.5799014008131
 42
1.0
 10
209.0977804647005
 20
532.21371367391
 42
1.0
 10
208.9380557023797
 20
531.797006758645
 42
1.0
 10
208.7872545923469
 20
531.3604683497335
 42
1.0
 10
208.6581528753097
 20
530.9867452509384
 42
1.0
 10
208.5327986223556
 20
530.5905538932841
 42
1.0
 10
208.4197878265026
 20
530.1949230056928
 42
1.0
 97
        0
 72
     4
 94
        3
 73
     1
 74
     0
 95
        8
 96
        4
 40
0.1102749506562817
 40
0.1102749506562817
 40
0.1102749506562817
 40
0.1102749506562817
 40
0.2872018720672553
 40
0.2872018720672553
 40
0.2872018720672553
 40
0.2872018720672553
 10
208.4197878265031
 20
530.1949230056945
 42
1.0
 10
207.3674860695716
 20
526.5109999347496
 42
1.0
 10
207.2197004374818
 20
522.4220464059148
 42
1.0
 10
208.8518326477319
 20
519.6949229911904
 42
1.0
 97
        0
 97
        0
 75
     0
 76
     1
 52
0.0
 41
1.0
 77
     0
 78
     2
 53
45.0
 43
0.0
 44
0.0
 45
-2.245064030267288
 46
2.245064030267288
 79
     0
 53
135.0
 43
0.0
 44
0.0
 45
-6.735192090801864
 46
2.245064030267289
 79
     2
 49
7.9375
 49
-4.7625
 98
        1
 10
0.0
 20
0.0
  0
HATCH
  5
1DC
330
1F
100
AcDbEntity
  8
TRATTEGGIO
 62
     4
100
AcDbHatch
 10
0.0
 20
0.0
 30
0.0
210
0.0
220
0.0
230
1.0
  2
ANSI38
 70
     0
 71
     0
 91
        1
 92
        0
 93
        3
 72
     4
 94
        3
 73
     1
 74
     0
 95
       14
 96
       10
 40
0.0
 40
0.0
 40
0.0
 40
0.0
 40
0.0005347418882896
 40
0.0005347418882896
 40
0.0005347418882896
 40
0.0012836214843431
 40
0.0012836214843431
 40
0.0012836214843431
 40
0.0024318076373328
 40
0.0024318076373328
 40
0.0024318076373328
 40
0.0024318076373328
 10
222.2158370394945
 20
533.2525070021705
 42
1.0
 10
222.2158370394945
 20
533.2525070021705
 42
1.0
 10
222.2017827606421
 20
533.2759189469582
 42
1.0
 10
222.1756044620142
 20
533.3182401348322
 42
1.0
 10
222.1390581342518
 20
533.3773228134021
 42
1.0
 10
222.0785202342059
 20
533.4734755008633
 42
1.0
 10
222.0022609576944
 20
533.5864901274556
 42
1.0
 10
221.8855491936718
 20
533.7594544805589
 42
1.0
 10
221.7298352042071
 20
533.974305963713
 42
1.0
 10
221.5473613630481
 20
534.1949230056928
 42
1.0
 97
        0
 72
     1
 10
221.5473613630481
 20
534.1949230056928
 11
221.5473613791457
 21
534.1949230056928
 72
     4
 94
        3
 73
     1
 74
     0
 95
        8
 96
        4
 40
0.1906742093540515
 40
0.1906742093540515
 40
0.1906742093540515
 40
0.1906742093540515
 40
0.2110138513595565
 40
0.2110138513595565
 40
0.2110138513595565
 40
0.2110138513595565
 10
221.5473613695742
 20
534.1949229978026
 42
1.0
 10
221.7940930351045
 20
533.8966160732898
 42
1.0
 10
222.016479933427
 20
533.5816929014792
 42
1.0
 10
222.2158370397823
 20
533.2525070016954
 42
1.0
 97
        0
 97
        0
 75
     0
 76
     1
 52
0.0
 41
1.0
 77
     0
 78
     2
 53
45.0
 43
0.0
 44
0.0
 45
-2.245064030267288
 46
2.245064030267288
 79
     0
 53
135.0
 43
0.0
 44
0.0
 45
-6.735192090801864
 46
2.245064030267289
 79
     2
 49
7.9375
 49
-4.7625
 98
        1
 10
0.0
 20
0.0
  0
HATCH
  5
1DD
330
1F
100
AcDbEntity
  8
TRATTEGGIO
 62
     4
100
AcDbHatch
 10
0.0
 20
0.0
 30
0.0
210
0.0
220
0.0
230
1.0
  2
ANSI38
 70
     0
 71
     0
 91
        1
 92
        0
 93
        5
 72
     1
 10
208.730790098259
 20
531.1949230056958
 11
222.2158370394945
 21
531.1949230056928
 72
     1
 10
222.2158370394945
 20
531.1949230056928
 11
222.215837039782
 21
533.2525070016958
 72
     4
 94
        3
 73
     1
 74
     0
 95
        8
 96
        4
 40
0.7889861486404475
 40
0.7889861486404475
 40
0.7889861486404475
 40
0.7889861486404475
 40
0.809325790645771
 40
0.809325790645771
 40
0.809325790645771
 40
0.809325790645771
 10
222.2158370397821
 20
533.2525070016956
 42
1.0
 10
222.0164799334286
 20
533.5816929014765
 42
1.0
 10
221.7940930351083
 20
533.8966160732843
 42
1.0
 10
221.5473613695806
 20
534.1949229977947
 42
1.0
 97
        0
 72
     1
 10
221.5473613791457
 20
534.1949230056928
 11
210.0010192043579
 21
534.1949230056922
 72
     4
 94
        3
 73
     1
 74
     0
 95
        8
 96
        4
 40
0.0416644994746826
 40
0.0416644994746826
 40
0.0416644994746826
 40
0.0416644994746826
 40
0.0940813850266882
 40
0.0940813850266882
 40
0.0940813850266882
 40
0.0940813850266882
 10
210.001019204354
 20
534.1949230056846
 42
1.0
 10
209.5204267585786
 20
533.2752969550075
 42
1.0
 10
209.089429219136
 20
532.2599820995786
 42
1.0
 10
208.7307900982559
 20
531.1949230056865
 42
1.0
 97
        0
 97
        0
 75
     0
 76
     1
 52
0.0
 41
1.0
 77
     0
 78
     2
 53
45.0
 43
0.0
 44
0.0
 45
-2.245064030267288
 46
2.245064030267288
 79
     0
 53
135.0
 43
0.0
 44
0.0
 45
-6.735192090801864
 46
2.245064030267289
 79
     2
 49
7.9375
 49
-4.7625
 98
        1
 10
0.0
 20
0.0
  0
HATCH
  5
1DE
330
1F
100
AcDbEntity
  8
TRATTEGGIO
 62
     4
100
AcDbHatch
 10
0.0
 20
0.0
 30
0.0
210
0.0
220
0.0
230
1.0
  2
ANSI38
 70
     0
 71
     0
 91
        1
 92
        0
 93
        2
 72
     4
 94
        3
 73
     1
 74
     0
 95
        8
 96
        4
 40
0.9059186149732893
 40
0.9059186149732893
 40
0.9059186149732893
 40
0.9059186149732893
 40
0.9583355005253174
 40
0.9583355005253174
 40
0.9583355005253174
 40
0.9583355005253174
 10
208.7307900982581
 20
531.194923005693
 42
1.0
 10
209.0894292191367
 20
532.2599820995799
 42
1.0
 10
209.5204267585772
 20
533.2752969550039
 42
1.0
 10
210.0010192043501
 20
534.1949230056772
 42
1.0
 97
        0
 72
     4
 94
        3
 73
     1
 74
     0
 95
        8
 96
        4
 40
0.0416644994746826
 40
0.0416644994746826
 40
0.0416644994746826
 40
0.0416644994746826
 40
0.0940813850267333
 40
0.0940813850267333
 40
0.0940813850267333
 40
0.0940813850267333
 10
210.0010192043466
 20
534.1949230056705
 42
1.0
 10
209.5204267585717
 20
533.2752969549924
 42
1.0
 10
209.0894292191298
 20
532.2599820995628
 42
1.0
 10
208.7307900982505
 20
531.19492300567
 42
1.0
 97
        0
 97
        0
 75
     0
 76
     1
 52
0.0
 41
1.0
 77
     0
 78
     2
 53
45.0
 43
0.0
 44
0.0
 45
-2.245064030267288
 46
2.245064030267288
 79
     0
 53
135.0
 43
0.0
 44
0.0
 45
-6.735192090801864
 46
2.245064030267289
 79
     2
 49
7.9375
 49
-4.7625
 98
        1
 10
0.0
 20
0.0
  0
LINE
  5
1DF
330
1F
100
AcDbEntity
  8
ASSI
  6
CENTER
100
AcDbLine
 10
214.9658370395
 20
517.6949230057
 30
0.0
 11
214.9658370395
 21
530.6449230057
 31
0.0
  0
LINE
  5
1E0
330
1F
100
AcDbEntity
  8
0
100
AcDbLine
 10
31.6722377114
 20
400.9777245071
 30
0.0
 11
73.6722371452
 21
400.9777245071
 31
0.0
  0
LINE
  5
1E1
330
1F
100
AcDbEntity
  8
0
100
AcDbLine
 10
20.672237771
 20
400.9777245071
 30
0.0
 11
26.6722378232
 21
400.9777245071
 31
0.0
  0
LINE
  5
1E2
330
1F
100
AcDbEntity
  8
0
100
AcDbLine
 10
26.6722378232
 20
407.9777256545
 30
0.0
 11
20.672237771
 21
407.9777256545
 31
0.0
  0
LINE
  5
1E3
330
1F
100
AcDbEntity
  8
0
100
AcDbLine
 10
73.6722371452
 20
407.9777256545
 30
0.0
 11
31.6722377114
 21
407.9777256545
 31
0.0
  0
LINE
  5
1E4
330
1F
100
AcDbEntity
  8
0
100
AcDbLine
 10
73.6722371452
 20
400.9777245071
 30
0.0
 11
74.6722391717
 21
401.977724671
 31
0.0
  0
LINE
  5
1E5
330
1F
100
AcDbEntity
  8
0
100
AcDbLine
 10
74.6722391717
 20
406.9777236279
 30
0.0
 11
73.6722371452
 21
407.9777256545
 31
0.0
  0
LINE
  5
1E6
330
1F
100
AcDbEntity
  8
0
100
AcDbLine
 10
31.6722377114
 20
422.9777262505
 30
0.0
 11
73.6722371452
 21
422.9777262505
 31
0.0
  0
LINE
  5
1E7
330
1F
100
AcDbEntity
  8
0
100
AcDbLine
 10
20.672237771
 20
422.9777262505
 30
0.0
 11
26.6722378232
 21
422.9777262505
 31
0.0
  0
LINE
  5
1E8
330
1F
100
AcDbEntity
  8
0
100
AcDbLine
 10
26.6722378232
 20
429.9777255353
 30
0.0
 11
20.672237771
 21
429.9777255353
 31
0.0
  0
LINE
  5
1E9
330
1F
100
AcDbEntity
  8
0
100
AcDbLine
 10
73.6722371452
 20
429.9777255353
 30
0.0
 11
31.6722377114
 21
429.9777255353
 31
0.0
  0
LINE
  5
1EA
330
1F
100
AcDbEntity
  8
0
100
AcDbLine
 10
73.6722371452
 20
422.9777262505
 30
0.0
 11
74.6722391717
 21
423.9777245518
 31
0.0
  0
LINE
  5
1EB
330
1F
100
AcDbEntity
  8
0
100
AcDbLine
 10
74.6722391717
 20
428.9777235087
 30
0.0
 11
73.6722371452
 21
429.9777255353
 31
0.0
  0
ARC
  5
1EC
330
1F
100
AcDbEntity
  8
0
100
AcDbCircle
 10
47.472237771
 20
415.47772482
 30
0.0
 40
1.5
100
AcDbArc
 50
271.3162148218
 51
90.0
  0
ARC
  5
1ED
330
1F
100
AcDbEntity
  8
0
100
AcDbCircle
 10
47.472237771
 20
415.47772482
 30
0.0
 40
1.500000000000009
100
AcDbArc
 50
214.0097350795
 51
271.3162148218
  0
ARC
  5
1EE
330
1F
100
AcDbEntity
  8
0
100
AcDbCircle
 10
47.472237771
 20
415.47772482
 30
0.0
 40
1.500000000000004
100
AcDbArc
 50
90.0
 51
145.9664642952
  0
LINE
  5
1EF
330
1F
100
AcDbEntity
  8
0
100
AcDbLine
 10
46.1499749594
 20
416.0728634294
 30
0.0
 11
46.1499749594
 21
414.8825847503
 31
0.0
  0
LINE
  5
1F0
330
1F
100
AcDbEntity
  8
0
100
AcDbLine
 10
26.6722378232
 20
403.1462253031
 30
0.0
 11
26.6722378232
 21
406.7108363804
 31
0.0
  0
LINE
  5
1F1
330
1F
100
AcDbEntity
  8
0
100
AcDbLine
 10
26.6722378232
 20
403.1462253031
 30
0.0
 11
31.6722377114
 21
403.1462253031
 31
0.0
  0
LINE
  5
1F2
330
1F
100
AcDbEntity
  8
0
100
AcDbLine
 10
31.6722377114
 20
403.1462253031
 30
0.0
 11
31.6722377114
 21
406.7108363804
 31
0.0
  0
LINE
  5
1F3
330
1F
100
AcDbEntity
  8
0
100
AcDbLine
 10
31.6722377114
 20
406.7108363804
 30
0.0
 11
26.6722378232
 21
406.7108363804
 31
0.0
  0
LINE
  5
1F4
330
1F
100
AcDbEntity
  8
0
100
AcDbLine
 10
73.6722371452
 20
400.9777245071
 30
0.0
 11
73.6722371452
 21
407.9777256545
 31
0.0
  0
LINE
  5
1F5
330
1F
100
AcDbEntity
  8
0
100
AcDbLine
 10
26.6722378232
 20
407.7145599719
 30
0.0
 11
26.6722378232
 21
407.9777256545
 31
0.0
  0
LINE
  5
1F6
330
1F
100
AcDbEntity
  8
0
100
AcDbLine
 10
26.6722378232
 20
407.7145599719
 30
0.0
 11
31.6722377114
 21
407.7145599719
 31
0.0
  0
LINE
  5
1F7
330
1F
100
AcDbEntity
  8
0
100
AcDbLine
 10
31.6722377114
 20
407.7145599719
 30
0.0
 11
31.6722377114
 21
407.9777256545
 31
0.0
  0
LINE
  5
1F8
330
1F
100
AcDbEntity
  8
0
100
AcDbLine
 10
26.6722378232
 20
400.9777245071
 30
0.0
 11
26.6722378232
 21
401.7826889601
 31
0.0
  0
LINE
  5
1F9
330
1F
100
AcDbEntity
  8
0
100
AcDbLine
 10
26.6722378232
 20
401.240888327
 30
0.0
 11
31.6722377114
 21
401.240888327
 31
0.0
  0
LINE
  5
1FA
330
1F
100
AcDbEntity
  8
0
100
AcDbLine
 10
31.6722377114
 20
400.9777245071
 30
0.0
 11
31.6722377114
 21
401.7826889601
 31
0.0
  0
LINE
  5
1FB
330
1F
100
AcDbEntity
  8
0
100
AcDbLine
 10
31.6722377114
 20
401.7826889601
 30
0.0
 11
26.6722378232
 21
401.7826889601
 31
0.0
  0
LINE
  5
1FC
330
1F
100
AcDbEntity
  8
0
100
AcDbLine
 10
74.6722391717
 20
406.9777236279
 30
0.0
 11
74.6722391717
 21
401.977724671
 31
0.0
  0
LINE
  5
1FD
330
1F
100
AcDbEntity
  8
0
100
AcDbLine
 10
26.6722378232
 20
428.4673177597
 30
0.0
 11
26.6722378232
 21
429.9777255353
 31
0.0
  0
LINE
  5
1FE
330
1F
100
AcDbEntity
  8
0
100
AcDbLine
 10
26.6722378232
 20
428.4673177597
 30
0.0
 11
31.6722377114
 21
428.4673177597
 31
0.0
  0
LINE
  5
1FF
330
1F
100
AcDbEntity
  8
0
100
AcDbLine
 10
31.6722377114
 20
428.4673177597
 30
0.0
 11
31.6722377114
 21
429.9777255353
 31
0.0
  0
LINE
  5
200
330
1F
100
AcDbEntity
  8
0
100
AcDbLine
 10
31.6722377114
 20
429.9541928765
 30
0.0
 11
26.6722378232
 21
429.9541928765
 31
0.0
  0
LINE
  5
201
330
1F
100
AcDbEntity
  8
0
100
AcDbLine
 10
26.6722378232
 20
422.9777262505
 30
0.0
 11
26.6722378232
 21
423.0012589094
 31
0.0
  0
LINE
  5
202
330
1F
100
AcDbEntity
  8
0
100
AcDbLine
 10
31.6722377114
 20
422.9777262505
 30
0.0
 11
31.6722377114
 21
423.0012589094
 31
0.0
  0
LINE
  5
203
330
1F
100
AcDbEntity
  8
0
100
AcDbLine
 10
31.6722377114
 20
423.0012589094
 30
0.0
 11
26.6722378232
 21
423.0012589094
 31
0.0
  0
LINE
  5
204
330
1F
100
AcDbEntity
  8
0
100
AcDbLine
 10
73.6722371452
 20
422.9777262505
 30
0.0
 11
73.6722371452
 21
429.9777255353
 31
0.0
  0
LINE
  5
205
330
1F
100
AcDbEntity
  8
0
100
AcDbLine
 10
26.6722378232
 20
423.5982255038
 30
0.0
 11
26.6722378232
 21
426.8829145428
 31
0.0
  0
LINE
  5
206
330
1F
100
AcDbEntity
  8
0
100
AcDbLine
 10
26.6722378232
 20
423.5982255038
 30
0.0
 11
31.6722377114
 21
423.5982255038
 31
0.0
  0
LINE
  5
207
330
1F
100
AcDbEntity
  8
0
100
AcDbLine
 10
31.6722377114
 20
423.5982255038
 30
0.0
 11
31.6722377114
 21
426.8829145428
 31
0.0
  0
LINE
  5
208
330
1F
100
AcDbEntity
  8
0
100
AcDbLine
 10
31.6722377114
 20
426.8829145428
 30
0.0
 11
26.6722378232
 21
426.8829145428
 31
0.0
  0
LINE
  5
209
330
1F
100
AcDbEntity
  8
0
100
AcDbLine
 10
74.6722391717
 20
428.9777235087
 30
0.0
 11
74.6722391717
 21
423.9777245518
 31
0.0
  0
LWPOLYLINE
  5
20A
330
1F
100
AcDbEntity
  8
0
100
AcDbPolyline
 90
        3
 70
   128
 43
0.0
 10
24.3652214207
 20
446.3096813258
 10
23.9111325149
 20
446.2848187384
 10
23.6296118613
 20
446.3396773633
  0
ARC
  5
20B
330
1F
100
AcDbEntity
  8
0
100
AcDbCircle
 10
23.9941422426
 20
447.9619981837
 30
0.0
 40
1.693472986317408
100
AcDbArc
 50
282.6575380932
 51
102.4305522381
  0
LINE
  5
20C
330
1F
100
AcDbEntity
  8
0
100
AcDbLine
 10
24.9490312211
 20
446.8904987868
 30
0.0
 11
25.3877633162
 21
448.2562796172
 31
0.0
  0
LINE
  5
20D
330
1F
100
AcDbEntity
  8
0
100
AcDbLine
 10
25.3877633162
 20
448.2562796172
 30
0.0
 11
24.4956626933
 21
449.3435055908
 31
0.0
  0
LINE
  5
20E
330
1F
100
AcDbEntity
  8
0
100
AcDbLine
 10
24.4956626933
 20
449.3435055908
 30
0.0
 11
23.2909601558
 21
449.0913481411
 31
0.0
  0
LINE
  5
20F
330
1F
100
AcDbEntity
  8
0
100
AcDbLine
 10
23.618198736
 20
446.61194393
 30
0.0
 11
23.1733930208
 21
447.1540407237
 31
0.0
  0
LINE
  5
210
330
1F
100
AcDbEntity
  8
0
100
AcDbLine
 10
23.618198736
 20
446.61194393
 30
0.0
 11
24.9490312211
 21
446.8904987868
 31
0.0
  0
LINE
  5
211
330
1F
100
AcDbEntity
  8
0
100
AcDbLine
 10
23.467809698
 20
446.7952282127
 30
0.0
 11
23.9229710218
 21
446.8904987868
 31
0.0
  0
LINE
  5
212
330
1F
100
AcDbEntity
  8
0
100
AcDbLine
 10
24.9490312211
 20
446.8904987868
 30
0.0
 11
23.9229710218
 21
446.8904987868
 31
0.0
  0
LINE
  5
213
330
1F
100
AcDbEntity
  8
0
100
AcDbLine
 10
23.6199912991
 20
449.1602213081
 30
0.0
 11
24.361702884
 21
448.2562796172
 31
0.0
  0
LINE
  5
214
330
1F
100
AcDbEntity
  8
0
100
AcDbLine
 10
25.3877633162
 20
448.2562796172
 30
0.0
 11
24.361702884
 21
448.2562796172
 31
0.0
  0
LINE
  5
215
330
1F
100
AcDbEntity
  8
0
100
AcDbLine
 10
24.361702884
 20
448.2562796172
 30
0.0
 11
23.9229710218
 21
446.8904987868
 31
0.0
  0
LWPOLYLINE
  5
216
330
1F
100
AcDbEntity
  8
0
100
AcDbPolyline
 90
        3
 70
   128
 43
0.0
 10
24.0965325296
 20
381.2782473822
 10
23.6450052265
 20
381.3352149871
 10
23.6296118613
 20
381.3396746252
  0
ARC
  5
217
330
1F
100
AcDbEntity
  8
0
100
AcDbCircle
 10
23.9977391253
 20
382.9658513508
 30
0.0
 40
1.690493209611362
100
AcDbArc
 50
273.3503075075
 51
102.5776906978
  0
LINE
  5
218
330
1F
100
AcDbEntity
  8
0
100
AcDbLine
 10
24.7640058309
 20
381.7459999543
 30
0.0
 11
25.4128433675
 21
383.0135066953
 31
0.0
  0
LINE
  5
219
330
1F
100
AcDbEntity
  8
0
100
AcDbLine
 10
25.4128433675
 20
383.0135066953
 30
0.0
 11
24.705767902
 21
384.2452310916
 31
0.0
  0
LINE
  5
21A
330
1F
100
AcDbEntity
  8
0
100
AcDbLine
 10
24.705767902
 20
384.2452310916
 30
0.0
 11
23.3515119556
 21
384.2094934505
 31
0.0
  0
LINE
  5
21B
330
1F
100
AcDbEntity
  8
0
100
AcDbLine
 10
23.4080932945
 20
381.7102180753
 30
0.0
 11
23.2064188834
 21
382.0615348365
 31
0.0
  0
LINE
  5
21C
330
1F
100
AcDbEntity
  8
0
100
AcDbLine
 10
23.4080932945
 20
381.7102180753
 30
0.0
 11
24.7640058309
 21
381.7459999543
 31
0.0
  0
LINE
  5
21D
330
1F
100
AcDbEntity
  8
0
100
AcDbLine
 10
23.3927816529
 20
381.7368911539
 30
0.0
 11
23.7379456315
 21
381.7459999543
 31
0.0
  0
LINE
  5
21E
330
1F
100
AcDbEntity
  8
0
100
AcDbLine
 10
24.7640058309
 20
381.7459999543
 30
0.0
 11
23.7379456315
 21
381.7459999543
 31
0.0
  0
LINE
  5
21F
330
1F
100
AcDbEntity
  8
0
100
AcDbLine
 10
23.6950193443
 20
384.2185589444
 30
0.0
 11
24.3867829353
 21
383.0135066953
 31
0.0
  0
LINE
  5
220
330
1F
100
AcDbEntity
  8
0
100
AcDbLine
 10
25.4128433675
 20
383.0135066953
 30
0.0
 11
24.3867829353
 21
383.0135066953
 31
0.0
  0
LINE
  5
221
330
1F
100
AcDbEntity
  8
0
100
AcDbLine
 10
24.3867829353
 20
383.0135066953
 30
0.0
 11
23.7379456315
 21
381.7459999543
 31
0.0
  0
LINE
  5
222
330
1F
100
AcDbEntity
  8
0
100
AcDbLine
 10
41.6722374879
 20
422.9777262505
 30
0.0
 11
41.6722374879
 21
407.9777256545
 31
0.0
  0
LINE
  5
223
330
1F
100
AcDbEntity
  8
0
100
AcDbLine
 10
33.6722380392
 20
441.9777275022
 30
0.0
 11
34.6722382031
 21
441.9777275022
 31
0.0
  0
LINE
  5
224
330
1F
100
AcDbEntity
  8
0
100
AcDbLine
 10
34.6722382031
 20
441.9777275022
 30
0.0
 11
34.6722382031
 21
436.97772482
 31
0.0
  0
LINE
  5
225
330
1F
100
AcDbEntity
  8
0
100
AcDbLine
 10
34.6722382031
 20
436.97772482
 30
0.0
 11
34.6722382031
 21
429.9777255353
 31
0.0
  0
LINE
  5
226
330
1F
100
AcDbEntity
  8
0
100
AcDbLine
 10
34.6722382031
 20
422.9777262505
 30
0.0
 11
34.6722382031
 21
407.9777256545
 31
0.0
  0
LINE
  5
227
330
1F
100
AcDbEntity
  8
0
100
AcDbLine
 10
34.6722382031
 20
400.9777245071
 30
0.0
 11
34.6722382031
 21
393.9777252224
 31
0.0
  0
LINE
  5
228
330
1F
100
AcDbEntity
  8
0
100
AcDbLine
 10
34.6722382031
 20
388.9777244028
 30
0.0
 11
33.6722380392
 21
388.9777244028
 31
0.0
  0
LINE
  5
229
330
1F
100
AcDbEntity
  8
0
100
AcDbLine
 10
34.6722382031
 20
393.9777252224
 30
0.0
 11
34.6722382031
 21
388.9777244028
 31
0.0
  0
LINE
  5
22A
330
1F
100
AcDbEntity
  8
0
100
AcDbLine
 10
42.6722376518
 20
436.97772482
 30
0.0
 11
44.6722379796
 21
436.97772482
 31
0.0
  0
LINE
  5
22B
330
1F
100
AcDbEntity
  8
0
100
AcDbLine
 10
42.6722376518
 20
429.9777255353
 30
0.0
 11
42.6722376518
 21
436.97772482
 31
0.0
  0
LINE
  5
22C
330
1F
100
AcDbEntity
  8
0
100
AcDbLine
 10
42.6722376518
 20
421.7277237174
 30
0.0
 11
44.6722379796
 21
421.7277237174
 31
0.0
  0
LINE
  5
22D
330
1F
100
AcDbEntity
  8
0
100
AcDbLine
 10
42.6722376518
 20
422.9777262505
 30
0.0
 11
42.6722376518
 21
421.7277237174
 31
0.0
  0
LINE
  5
22E
330
1F
100
AcDbEntity
  8
0
100
AcDbLine
 10
42.6722376518
 20
409.2277244624
 30
0.0
 11
44.6722379796
 21
409.2277244624
 31
0.0
  0
LINE
  5
22F
330
1F
100
AcDbEntity
  8
0
100
AcDbLine
 10
42.6722376518
 20
409.2277244624
 30
0.0
 11
42.6722376518
 21
407.9777256545
 31
0.0
  0
LINE
  5
230
330
1F
100
AcDbEntity
  8
0
100
AcDbLine
 10
44.6722379796
 20
393.9777252224
 30
0.0
 11
42.6722376518
 21
393.9777252224
 31
0.0
  0
LINE
  5
231
330
1F
100
AcDbEntity
  8
0
100
AcDbLine
 10
42.6722376518
 20
393.9777252224
 30
0.0
 11
42.6722376518
 21
400.9777245071
 31
0.0
  0
LINE
  5
232
330
1F
100
AcDbEntity
  8
0
100
AcDbLine
 10
42.6722376518
 20
421.7277237174
 30
0.0
 11
42.6722376518
 21
409.2277244624
 31
0.0
  0
LINE
  5
233
330
1F
100
AcDbEntity
  8
0
100
AcDbLine
 10
44.6722379796
 20
387.9777251702
 30
0.0
 11
50.1722379498
 21
387.9777251702
 31
0.0
  0
LINE
  5
234
330
1F
100
AcDbEntity
  8
0
100
AcDbLine
 10
44.6722379796
 20
442.9777220782
 30
0.0
 11
44.6722379796
 21
429.9777255353
 31
0.0
  0
LINE
  5
235
330
1F
100
AcDbEntity
  8
0
100
AcDbLine
 10
44.6722379796
 20
422.9777262505
 30
0.0
 11
44.6722379796
 21
407.9777256545
 31
0.0
  0
LINE
  5
236
330
1F
100
AcDbEntity
  8
0
100
AcDbLine
 10
44.6722379796
 20
400.9777245071
 30
0.0
 11
44.6722379796
 21
387.9777251702
 31
0.0
  0
LINE
  5
237
330
1F
100
AcDbEntity
  8
0
100
AcDbLine
 10
53.6425619297
 20
398.4983761754
 30
0.0
 11
54.059138792
 21
400.9777245071
 31
0.0
  0
ARC
  5
238
330
1F
100
AcDbEntity
  8
0
100
AcDbCircle
 10
-39.827762229
 20
415.47772482
 30
0.0
 40
95.00000000000001
100
AcDbArc
 50
355.4719369862
 51
4.528063013799999
  0
LINE
  5
239
330
1F
100
AcDbEntity
  8
0
100
AcDbLine
 10
54.059138792
 20
429.9777255353
 30
0.0
 11
53.6425619297
 21
432.457073867
 31
0.0
  0
ARC
  5
23A
330
1F
100
AcDbEntity
  8
0
100
AcDbCircle
 10
14.2866366997
 20
405.6475758592
 30
0.0
 40
40.00000000000001
100
AcDbArc
 50
333.7846464041
 51
349.7042064633999
  0
CIRCLE
  5
23B
330
1F
100
AcDbEntity
  8
0
100
AcDbCircle
 10
47.672237771
 20
415.47772482
 30
0.0
 40
1.749999999999986
  0
LINE
  5
23C
330
1F
100
AcDbEntity
  8
0
100
AcDbLine
 10
50.1722379498
 20
442.9777220782
 30
0.0
 11
44.6722379796
 21
442.9777220782
 31
0.0
  0
ARC
  5
23D
330
1F
100
AcDbEntity
  8
0
100
AcDbCircle
 10
14.2866366997
 20
425.3078737808
 30
0.0
 40
40.00000000000002
100
AcDbArc
 50
10.2957935366
 51
26.2153535959
  0
SPLINE
  5
23E
330
1F
100
AcDbEntity
  8
0
100
AcDbSpline
210
0.0
220
0.0
230
1.0
 70
     8
 71
     3
 72
    12
 73
     8
 74
     0
 42
0.000000001
 43
0.00000001
 40
0.0
 40
0.0
 40
0.0
 40
0.0
 40
0.2466574382738236
 40
0.4224785627050329
 40
0.6463431956894508
 40
0.8442582238222952
 40
0.9999999999999999
 40
0.9999999999999999
 40
0.9999999999999999
 40
0.9999999999999999
 10
46.50544961021446
 20
415.4777259525247
 30
0.0
 10
46.4333063129935
 20
415.4058119469838
 30
0.0
 10
46.30973819061288
 20
415.2826365588346
 30
0.0
 10
46.19296531665081
 20
415.0964632062913
 30
0.0
 10
46.14263458172083
 20
414.9288399353701
 30
0.0
 10
46.15004626719406
 20
414.7713814800582
 30
0.0
 10
46.21024279724515
 20
414.6829932990906
 30
0.0
 10
46.23675187156699
 20
414.644069313664
 30
0.0
  0
SPLINE
  5
23F
330
1F
100
AcDbEntity
  8
0
100
AcDbSpline
210
0.0
220
0.0
230
1.0
 70
     8
 71
     3
 72
    12
 73
     8
 74
     0
 42
0.000000001
 43
0.00000001
 40
0.0
 40
0.0
 40
0.0
 40
0.0
 40
0.1563274227217013
 40
0.3541363887015972
 40
0.5778159169298901
 40
0.7535365530093568
 40
1.0
 40
1.0
 40
1.0
 40
1.0
 10
46.23705548272632
 20
416.3119078573175
 30
0.0
 10
46.21042107947657
 20
416.2728128125547
 30
0.0
 10
46.15008482357297
 20
416.1842488374863
 30
0.0
 10
46.14262291187882
 20
416.0265981219628
 30
0.0
 10
46.19297497627282
 20
415.8589709378203
 30
0.0
 10
46.30974295283752
 20
415.6728052043874
 30
0.0
 10
46.43331214584402
 20
415.5496321552532
 30
0.0
 10
46.50544961021446
 20
415.4777259525247
 30
0.0
  0
LINE
  5
240
330
1F
100
AcDbEntity
  8
0
100
AcDbLine
 10
47.4722369485
 20
413.977726638
 30
0.0
 11
47.4722369485
 21
413.7391925749
 31
0.0
  0
LINE
  5
241
330
1F
100
AcDbEntity
  8
0
100
AcDbLine
 10
47.4722369485
 20
417.2162593302
 30
0.0
 11
47.4722369485
 21
416.9777252671
 31
0.0
  0
LINE
  5
242
330
1F
100
AcDbEntity
  8
0
100
AcDbLine
 10
46.4187602423
 20
414.2565385398
 30
0.0
 11
46.4187602423
 21
414.4099310931
 31
0.0
  0
LINE
  5
243
330
1F
100
AcDbEntity
  8
0
100
AcDbLine
 10
46.4187602423
 20
416.5455208119
 30
0.0
 11
46.4187602423
 21
416.69890964
 31
0.0
  0
LINE
  5
244
330
1F
100
AcDbEntity
  8
0
100
AcDbLine
 10
20.672237771
 20
452.4777264294
 30
0.0
 11
20.672237771
 21
378.47772501
 31
0.0
  0
LINE
  5
245
330
1F
100
AcDbEntity
  8
0
100
AcDbLine
 10
10.1722379126
 20
456.477727085
 30
0.0
 11
20.672237771
 21
456.477727085
 31
0.0
  0
LINE
  5
246
330
1F
100
AcDbEntity
  8
0
100
AcDbLine
 10
20.672237771
 20
456.477727085
 30
0.0
 11
20.672237771
 21
452.4777264294
 31
0.0
  0
LINE
  5
247
330
1F
100
AcDbEntity
  8
0
100
AcDbLine
 10
6.1722381882
 20
381.9777246524
 30
0.0
 11
6.1722381882
 21
378.47772501
 31
0.0
  0
LINE
  5
248
330
1F
100
AcDbEntity
  8
0
100
AcDbLine
 10
6.1722381882
 20
381.9777246524
 30
0.0
 11
6.1722381882
 21
448.977726787
 31
0.0
  0
LINE
  5
249
330
1F
100
AcDbEntity
  8
0
100
AcDbLine
 10
6.1722381882
 20
452.4777264294
 30
0.0
 11
6.1722381882
 21
448.977726787
 31
0.0
  0
ARC
  5
24A
330
1F
100
AcDbEntity
  8
0
100
AcDbCircle
 10
10.172237771
 20
452.47772482
 30
0.0
 40
4.0
100
AcDbArc
 50
90.0
 51
180.0
  0
LINE
  5
24B
330
1F
100
AcDbEntity
  8
0
100
AcDbLine
 10
20.672237771
 20
374.47772482
 30
0.0
 11
10.1722379126
 21
374.47772482
 31
0.0
  0
LINE
  5
24C
330
1F
100
AcDbEntity
  8
0
100
AcDbLine
 10
20.672237771
 20
378.47772501
 30
0.0
 11
20.672237771
 21
374.47772482
 31
0.0
  0
ARC
  5
24D
330
1F
100
AcDbEntity
  8
0
100
AcDbCircle
 10
10.172237771
 20
378.47772482
 30
0.0
 40
4.0
100
AcDbArc
 50
180.0
 51
270.0
  0
ELLIPSE
  5
24E
330
1F
100
AcDbEntity
  8
0
100
AcDbEllipse
 10
25.8606498978
 20
447.97772482
 30
0.0
 11
5.320888862379576
 21
0.0
 31
0.0
210
0.0
220
0.0
230
1.0
 40
0.9396926208
 41
4.119067740299784
 42
8.447302874059403
  0
LINE
  5
24F
330
1F
100
AcDbEntity
  8
0
100
AcDbLine
 10
22.8856467087
 20
448.9196271595
 30
0.0
 11
22.8856467087
 21
452.1231681999
 31
0.0
  0
ELLIPSE
  5
250
330
1F
100
AcDbEntity
  8
0
100
AcDbEllipse
 10
27.632046708
 20
447.97772482
 30
0.0
 11
4.866872737070842
 21
0.0
 31
0.0
210
0.0
220
0.0
230
1.0
 40
0.875239649
 41
2.918628828446015
 42
3.364556478733574
  0
LINE
  5
251
330
1F
100
AcDbEntity
  8
0
100
AcDbLine
 10
22.8856467087
 20
443.8322813209
 30
0.0
 11
22.8856467087
 21
447.0358223614
 31
0.0
  0
ELLIPSE
  5
252
330
1F
100
AcDbEntity
  8
0
100
AcDbEllipse
 10
25.8606498978
 20
382.97772482
 30
0.0
 11
5.320888862379576
 21
0.0
 31
0.0
210
0.0
220
0.0
230
1.0
 40
0.9396926208
 41
4.119067740299784
 42
8.447302874059403
  0
LINE
  5
253
330
1F
100
AcDbEntity
  8
0
100
AcDbLine
 10
22.8856467087
 20
383.9196295437
 30
0.0
 11
22.8856467087
 21
387.1231659275
 31
0.0
  0
ELLIPSE
  5
254
330
1F
100
AcDbEntity
  8
0
100
AcDbEllipse
 10
27.632046708
 20
382.97772482
 30
0.0
 11
4.866872737070856
 21
0.0
 31
0.0
210
0.0
220
0.0
230
1.0
 40
0.875239649
 41
2.918628828446005
 42
3.364556478733571
  0
LINE
  5
255
330
1F
100
AcDbEntity
  8
0
100
AcDbLine
 10
22.8856467087
 20
378.8322832395
 30
0.0
 11
22.8856467087
 21
382.0358200889
 31
0.0
  0
LINE
  5
256
330
1F
100
AcDbEntity
  8
0
100
AcDbLine
 10
33.6722380392
 20
456.477727085
 30
0.0
 11
33.6722380392
 21
429.9777255353
 31
0.0
  0
LINE
  5
257
330
1F
100
AcDbEntity
  8
0
100
AcDbLine
 10
33.6722380392
 20
422.9777262505
 30
0.0
 11
33.6722380392
 21
407.9777256545
 31
0.0
  0
LINE
  5
258
330
1F
100
AcDbEntity
  8
0
100
AcDbLine
 10
33.6722380392
 20
400.9777245071
 30
0.0
 11
33.6722380392
 21
374.47772482
 31
0.0
  0
LINE
  5
259
330
1F
100
AcDbEntity
  8
0
100
AcDbLine
 10
20.672237771
 20
374.47772482
 30
0.0
 11
33.6722380392
 21
374.47772482
 31
0.0
  0
LINE
  5
25A
330
1F
100
AcDbEntity
  8
0
100
AcDbLine
 10
20.672237771
 20
456.477727085
 30
0.0
 11
33.6722380392
 21
456.477727085
 31
0.0
  0
LWPOLYLINE
  5
25B
330
1F
100
AcDbEntity
  8
0
100
AcDbPolyline
 90
       28
 70
   128
 43
0.0
 10
23.0393836185
 20
447.9777247604
 10
23.1014409013
 20
447.4127174314
 10
23.2842676718
 20
446.8781680759
 10
23.5780070447
 20
446.4028955397
 10
23.966823975
 20
446.0125223693
 10
24.4297571857
 20
445.728096455
 10
24.9418497928
 20
445.5649436411
 10
25.4754943684
 20
445.5318705138
 10
26.001922591
 20
445.6306503114
 10
26.4927538023
 20
445.8559633192
 10
26.9215281963
 20
446.1956576404
 10
27.2651298814
 20
446.6314271983
 10
27.5050348513
 20
447.1397728619
 10
27.6283102952
 20
447.6932988461
 10
27.6283102952
 20
448.2621506747
 10
27.5050348513
 20
448.815676659
 10
27.2651298814
 20
449.3240223226
 10
26.9215281963
 20
449.7597918805
 10
26.4927538023
 20
450.0994862017
 10
26.001922591
 20
450.3247992095
 10
25.4754943684
 20
450.423579007
 10
24.9418497928
 20
450.3905058798
 10
24.4297571857
 20
450.2273530659
 10
23.966823975
 20
449.9429271516
 10
23.5780070447
 20
449.5525539812
 10
23.2842676718
 20
449.0772814449
 10
23.1014409013
 20
448.5427320894
 10
23.0393836185
 20
447.9777247604
  0
LWPOLYLINE
  5
25C
330
1F
100
AcDbEntity
  8
0
100
AcDbPolyline
 90
       28
 70
   128
 43
0.0
 10
22.8856467087
 20
448.9196271595
 10
23.1259446968
 20
449.4782493409
 10
23.4697589561
 20
449.9717832502
 10
23.9021771498
 20
450.37883082
 10
24.4044445366
 20
450.6817416247
 10
24.9547770158
 20
450.8673728403
 10
25.5293047898
 20
450.9276703891
 10
26.1031103231
 20
450.8600265678
 10
26.651305417
 20
450.6673694548
 10
27.150114803
 20
450.3580586013
 10
27.5779029265
 20
449.9455050525
 10
27.9161164448
 20
449.4476051029
 10
28.1500860959
 20
448.8859505352
 10
28.2696641892
 20
448.2849047479
 10
28.2696641892
 20
447.670544773
 10
28.1500860959
 20
447.0694989857
 10
27.9161164448
 20
446.5078444179
 10
27.5779029265
 20
446.0099444684
 10
27.150114803
 20
445.5973909196
 10
26.651305417
 20
445.2880800661
 10
26.1031103231
 20
445.095422953
 10
25.5293047898
 20
445.0277791318
 10
24.9547770158
 20
445.0880766806
 10
24.4044445366
 20
445.2737078961
 10
23.9021771498
 20
445.5766187009
 10
23.4697589561
 20
445.9836662706
 10
23.1259446968
 20
446.47720018
 10
22.8856467087
 20
447.0358223614
  0
ARC
  5
25D
330
1F
100
AcDbEntity
  8
0
100
AcDbCircle
 10
25.2665011097
 20
447.9777247604
 30
0.0
 40
5.01372276538066
100
AcDbArc
 50
274.6830041921
 51
85.31699580790001
  0
ARC
  5
25E
330
1F
100
AcDbEntity
  8
0
100
AcDbCircle
 10
25.2665023681
 20
382.9777246999
 30
0.0
 40
5.013720458128562
100
AcDbArc
 50
274.6829919223
 51
85.31700807769998
  0
LWPOLYLINE
  5
25F
330
1F
100
AcDbEntity
  8
0
100
AcDbPolyline
 90
       28
 70
   128
 43
0.0
 10
22.8856467087
 20
383.9196295437
 10
23.1259446968
 20
384.4782470685
 10
23.4697589561
 20
384.9717837718
 10
23.9021771498
 20
385.3788332042
 10
24.4044445366
 20
385.6817421463
 10
24.9547770158
 20
385.8673714992
 10
25.5293047898
 20
385.9276718419
 10
26.1031103231
 20
385.8600252267
 10
26.651305417
 20
385.6673681137
 10
27.150114803
 20
385.3580553975
 10
27.5779029265
 20
384.9455018487
 10
27.9161164448
 20
384.4476028305
 10
28.1500860959
 20
383.8859510567
 10
28.2696641892
 20
383.2849080634
 10
28.2696641892
 20
382.6705415693
 10
28.1500860959
 20
382.0694985759
 10
27.9161164448
 20
381.5078472678
 10
27.5779029265
 20
381.0099473182
 10
27.150114803
 20
380.5973942351
 10
26.651305417
 20
380.288081519
 10
26.1031103231
 20
380.0954239402
 10
25.5293047898
 20
380.0277782563
 10
24.9547770158
 20
380.0880776678
 10
24.4044445366
 20
380.2737074864
 10
23.9021771498
 20
380.5766159628
 10
23.4697589561
 20
380.9836658609
 10
23.1259446968
 20
381.4772025641
 10
22.8856467087
 20
382.0358200889
  0
LWPOLYLINE
  5
260
330
1F
100
AcDbEntity
  8
0
100
AcDbPolyline
 90
       28
 70
   128
 43
0.0
 10
23.0393836185
 20
382.977725282
 10
23.1014409013
 20
382.4127160903
 10
23.2842676718
 20
381.8781667348
 10
23.5780070447
 20
381.4028951299
 10
23.966823975
 20
381.0125228908
 10
24.4297571857
 20
380.7280955796
 10
24.9418497928
 20
380.5649460253
 10
25.4754943684
 20
380.5318696384
 10
26.001922591
 20
380.6306503672
 10
26.4927538023
 20
380.8559624438
 10
26.9215281963
 20
381.1956595589
 10
27.2651298814
 20
381.6314277199
 10
27.5050348513
 20
382.139775246
 10
27.6283102952
 20
382.693297505
 10
27.6283102952
 20
383.2621521276
 10
27.5050348513
 20
383.8156743866
 10
27.2651298814
 20
384.3240219128
 10
26.9215281963
 20
384.7597905394
 10
26.4927538023
 20
385.0994867232
 10
26.001922591
 20
385.3247987997
 10
25.4754943684
 20
385.4235795286
 10
24.9418497928
 20
385.3905036074
 10
24.4297571857
 20
385.2273545187
 10
23.966823975
 20
384.9429267418
 10
23.5780070447
 20
384.5525545027
 10
23.2842676718
 20
384.0772828978
 10
23.1014409013
 20
383.5427335423
 10
23.0393836185
 20
382.977725282
  0
SPLINE
  5
261
330
1F
100
AcDbEntity
  8
0
100
AcDbSpline
210
0.0
220
0.0
230
1.0
 70
     8
 71
     3
 72
    21
 73
    17
 74
     0
 42
0.000000001
 43
0.00000001
 40
0.0
 40
0.0
 40
0.0
 40
0.0
 40
0.0550325277289348
 40
0.1905527680796469
 40
0.2595053233120806
 40
0.3286325264192518
 40
0.397440758995147
 40
0.4659569497490028
 40
0.5122395421989003
 40
0.5585450842823088
 40
0.6069770151298381
 40
0.6554454459349721
 40
0.7607393714516019
 40
0.8660658625962764
 40
0.9721616687189735
 40
1.0
 40
1.0
 40
1.0
 40
1.0
 10
6.172238188247893
 20
438.5934800800272
 30
0.0
 10
5.983708797596167
 20
437.7676412569417
 30
0.0
 10
5.330916735599551
 20
434.9081347028962
 30
0.0
 10
4.74046331544669
 20
430.9675674460019
 30
0.0
 10
4.24009505979326
 20
426.8080213310635
 30
0.0
 10
3.958528145638233
 20
423.6355761785674
 30
0.0
 10
3.765507620331947
 20
420.4005734745857
 30
0.0
 10
3.67793466552948
 20
417.4509963330833
 30
0.0
 10
3.666670411054222
 20
414.8267908421846
 30
0.0
 10
3.70345750899443
 20
412.541604351026
 30
0.0
 10
3.787878160618312
 20
410.2627301738517
 30
0.0
 10
3.971532093751347
 20
407.1003540636501
 30
0.0
 10
4.330072382993412
 20
403.1120695713887
 30
0.0
 10
4.995768983134314
 20
398.3049279547457
 30
0.0
 10
5.610582090549189
 20
394.6861854330848
 30
0.0
 10
6.07558658466624
 20
392.676640282176
 30
0.0
 10
6.172238188247893
 20
392.2589545097538
 30
0.0
  0
LINE
  5
262
330
1F
100
AcDbEntity
  8
0
  6
Continuous
 62
     8
370
     0
100
AcDbLine
 10
34.6722382031
 20
436.97772482
 30
0.0
 11
33.6722380392
 21
436.97772482
 31
0.0
  0
LINE
  5
263
330
1F
100
AcDbEntity
  8
0
  6
Continuous
 62
     8
370
     0
100
AcDbLine
 10
33.6722380392
 20
393.9777252224
 30
0.0
 11
34.6722382031
 21
393.9777252224
 31
0.0
  0
LINE
  5
264
330
1F
100
AcDbEntity
  8
0
  6
Continuous
 62
     8
370
     0
100
AcDbLine
 10
9.1722377487
 20
378.47772501
 30
0.0
 11
20.672237771
 21
378.47772501
 31
0.0
  0
LINE
  5
265
330
1F
100
AcDbEntity
  8
0
  6
Continuous
 62
     8
370
     0
100
AcDbLine
 10
9.1722377487
 20
452.4777264294
 30
0.0
 11
9.1722377487
 21
378.47772501
 31
0.0
  0
LINE
  5
266
330
1F
100
AcDbEntity
  8
0
  6
Continuous
 62
     8
370
     0
100
AcDbLine
 10
20.672237771
 20
452.4777264294
 30
0.0
 11
9.1722377487
 21
452.4777264294
 31
0.0
  0
ELLIPSE
  5
267
330
1F
100
AcDbEntity
  8
0
  6
Continuous
 62
     8
370
     0
100
AcDbEllipse
 10
10.172237771
 20
452.47772482
 30
0.0
 11
0.0
 21
4.0
 31
0.0
210
0.0
220
0.0
230
1.0
 40
0.25
 41
0.0
 42
1.570796326794897
  0
LINE
  5
268
330
1F
100
AcDbEntity
  8
0
  6
Continuous
 62
     8
370
     0
100
AcDbLine
 10
6.1722381882
 20
378.47772501
 30
0.0
 11
9.1722377487
 21
378.47772501
 31
0.0
  0
LINE
  5
269
330
1F
100
AcDbEntity
  8
0
  6
Continuous
 62
     8
370
     0
100
AcDbLine
 10
9.1722377487
 20
452.4777264294
 30
0.0
 11
6.1722381882
 21
452.4777264294
 31
0.0
  0
ELLIPSE
  5
26A
330
1F
100
AcDbEntity
  8
0
  6
Continuous
 62
     8
370
     0
100
AcDbEllipse
 10
10.172237771
 20
378.47772482
 30
0.0
 11
0.0
 21
4.0
 31
0.0
210
0.0
220
0.0
230
1.0
 40
0.25
 41
1.570796326794897
 42
3.141592653589793
  0
LINE
  5
26B
330
1F
100
AcDbEntity
  8
0
100
AcDbLine
 10
241.9650256868
 20
407.9777256545
 30
0.0
 11
240.9650236603
 21
406.9777236279
 31
0.0
  0
LINE
  5
26C
330
1F
100
AcDbEntity
  8
0
100
AcDbLine
 10
240.9650236603
 20
401.977724671
 30
0.0
 11
241.9650256868
 21
400.9777245071
 31
0.0
  0
LINE
  5
26D
330
1F
100
AcDbEntity
  8
0
100
AcDbLine
 10
260.7762739297
 20
407.9777256545
 30
0.0
 11
241.9650256868
 21
407.9777256545
 31
0.0
  0
LINE
  5
26E
330
1F
100
AcDbEntity
  8
0
100
AcDbLine
 10
241.9650256868
 20
400.9777245071
 30
0.0
 11
261.6031728919
 21
400.9777245071
 31
0.0
  0
LINE
  5
26F
330
1F
100
AcDbEntity
  8
0
100
AcDbLine
 10
272.9650251802
 20
400.9777245071
 30
0.0
 11
280.9650246288
 21
400.9777245071
 31
0.0
  0
LINE
  5
270
330
1F
100
AcDbEntity
  8
0
100
AcDbLine
 10
280.9650246288
 20
429.9777255353
 30
0.0
 11
272.9650251802
 21
429.9777255353
 31
0.0
  0
LINE
  5
271
330
1F
100
AcDbEntity
  8
0
100
AcDbLine
 10
261.6002112861
 20
429.9777255353
 30
0.0
 11
241.9650256868
 21
429.9777255353
 31
0.0
  0
LINE
  5
272
330
1F
100
AcDbEntity
  8
0
100
AcDbLine
 10
241.9650256868
 20
422.9777262505
 30
0.0
 11
260.7811019059
 21
422.9777262505
 31
0.0
  0
LINE
  5
273
330
1F
100
AcDbEntity
  8
0
100
AcDbLine
 10
241.9650256868
 20
429.9777255353
 30
0.0
 11
240.9650236603
 21
428.9777235087
 31
0.0
  0
LINE
  5
274
330
1F
100
AcDbEntity
  8
0
100
AcDbLine
 10
240.9650236603
 20
423.9777245518
 30
0.0
 11
241.9650256868
 21
422.9777262505
 31
0.0
  0
LINE
  5
275
330
1F
100
AcDbEntity
  8
0
100
AcDbLine
 10
287.9650248449
 20
387.8416952636
 30
0.0
 11
288.9650250088
 21
387.4777250883
 31
0.0
  0
LINE
  5
276
330
1F
100
AcDbEntity
  8
0
100
AcDbLine
 10
304.9650248374
 20
387.4777250883
 30
0.0
 11
305.9650250014
 21
387.8416952636
 31
0.0
  0
LINE
  5
277
330
1F
100
AcDbEntity
  8
0
100
AcDbLine
 10
287.9650248449
 20
387.9777251702
 30
0.0
 11
287.9650248449
 21
387.8416952636
 31
0.0
  0
LINE
  5
278
330
1F
100
AcDbEntity
  8
0
100
AcDbLine
 10
305.9650250014
 20
387.8416952636
 30
0.0
 11
305.9650250014
 21
387.9777251702
 31
0.0
  0
LINE
  5
279
330
1F
100
AcDbEntity
  8
0
100
AcDbLine
 10
305.9650250014
 20
443.1137547788
 30
0.0
 11
304.9650248374
 21
443.4777230915
 31
0.0
  0
LINE
  5
27A
330
1F
100
AcDbEntity
  8
0
100
AcDbLine
 10
288.9650250088
 20
443.4777230915
 30
0.0
 11
287.9650248449
 21
443.1137547788
 31
0.0
  0
LINE
  5
27B
330
1F
100
AcDbEntity
  8
0
100
AcDbLine
 10
305.9650250014
 20
442.9777220782
 30
0.0
 11
305.9650250014
 21
443.1137547788
 31
0.0
  0
LINE
  5
27C
330
1F
100
AcDbEntity
  8
0
100
AcDbLine
 10
287.9650248449
 20
443.1137547788
 30
0.0
 11
287.9650248449
 21
442.9777220782
 31
0.0
  0
LINE
  5
27D
330
1F
100
AcDbEntity
  8
0
100
AcDbLine
 10
273.9650253441
 20
405.9777253267
 30
0.0
 11
280.9650246288
 21
405.9777253267
 31
0.0
  0
LINE
  5
27E
330
1F
100
AcDbEntity
  8
0
100
AcDbLine
 10
280.9650246288
 20
424.9777265784
 30
0.0
 11
273.9650253441
 21
424.9777265784
 31
0.0
  0
LINE
  5
27F
330
1F
100
AcDbEntity
  8
0
100
AcDbLine
 10
273.9650253441
 20
423.3777255711
 30
0.0
 11
272.9650251802
 21
423.3777255711
 31
0.0
  0
LINE
  5
280
330
1F
100
AcDbEntity
  8
0
100
AcDbLine
 10
272.9650251802
 20
407.577726334
 30
0.0
 11
273.9650253441
 21
407.577726334
 31
0.0
  0
LINE
  5
281
330
1F
100
AcDbEntity
  8
0
100
AcDbLine
 10
302.2150248524
 20
387.3777252581
 30
0.0
 11
302.2150248524
 21
387.4777250883
 31
0.0
  0
LINE
  5
282
330
1F
100
AcDbEntity
  8
0
100
AcDbLine
 10
302.2150248524
 20
443.4777230915
 30
0.0
 11
302.2150248524
 21
443.5777247843
 31
0.0
  0
LINE
  5
283
330
1F
100
AcDbEntity
  8
0
100
AcDbLine
 10
291.7150249939
 20
387.4777250883
 30
0.0
 11
291.7150249939
 21
387.3777252581
 31
0.0
  0
LINE
  5
284
330
1F
100
AcDbEntity
  8
0
100
AcDbLine
 10
291.7150249939
 20
443.5777247843
 30
0.0
 11
291.7150249939
 21
443.4777230915
 31
0.0
  0
LINE
  5
285
330
1F
100
AcDbEntity
  8
0
100
AcDbLine
 10
309.4650246437
 20
443.5777247843
 30
0.0
 11
309.4650246437
 21
438.7248934206
 31
0.0
  0
LINE
  5
286
330
1F
100
AcDbEntity
  8
0
100
AcDbLine
 10
309.4650246437
 20
392.2235474881
 30
0.0
 11
309.4650246437
 21
387.3777252581
 31
0.0
  0
LINE
  5
287
330
1F
100
AcDbEntity
  8
0
100
AcDbLine
 10
240.9650236603
 20
404.1020528373
 30
0.0
 11
240.9650236603
 21
406.9777236279
 31
0.0
  0
LINE
  5
288
330
1F
100
AcDbEntity
  8
0
100
AcDbLine
 10
240.9650236603
 20
401.977724671
 30
0.0
 11
240.9650236603
 21
404.1020528373
 31
0.0
  0
LINE
  5
289
330
1F
100
AcDbEntity
  8
0
100
AcDbLine
 10
241.9650256868
 20
403.9517858025
 30
0.0
 11
241.9650256868
 21
400.9777245071
 31
0.0
  0
LINE
  5
28A
330
1F
100
AcDbEntity
  8
0
100
AcDbLine
 10
241.9650256868
 20
407.9777256545
 30
0.0
 11
241.9650256868
 21
403.9517858025
 31
0.0
  0
LINE
  5
28B
330
1F
100
AcDbEntity
  8
0
100
AcDbLine
 10
241.9650256868
 20
423.2891903218
 30
0.0
 11
241.9650256868
 21
422.9777262505
 31
0.0
  0
LINE
  5
28C
330
1F
100
AcDbEntity
  8
0
100
AcDbLine
 10
241.9650256868
 20
429.9777255353
 30
0.0
 11
241.9650256868
 21
423.2891903218
 31
0.0
  0
LINE
  5
28D
330
1F
100
AcDbEntity
  8
0
100
AcDbLine
 10
240.9650236603
 20
424.2001988884
 30
0.0
 11
240.9650236603
 21
428.9777235087
 31
0.0
  0
LINE
  5
28E
330
1F
100
AcDbEntity
  8
0
100
AcDbLine
 10
240.9650236603
 20
423.9777245518
 30
0.0
 11
240.9650236603
 21
424.2001988884
 31
0.0
  0
LINE
  5
28F
330
1F
100
AcDbEntity
  8
0
100
AcDbLine
 10
288.9650250088
 20
387.4777250883
 30
0.0
 11
304.9650248374
 21
387.4777250883
 31
0.0
  0
LINE
  5
290
330
1F
100
AcDbEntity
  8
0
100
AcDbLine
 10
287.9650248449
 20
387.8416952636
 30
0.0
 11
305.9650250014
 21
387.8416952636
 31
0.0
  0
LINE
  5
291
330
1F
100
AcDbEntity
  8
0
100
AcDbLine
 10
304.9650248374
 20
443.4777230915
 30
0.0
 11
288.9650250088
 21
443.4777230915
 31
0.0
  0
LINE
  5
292
330
1F
100
AcDbEntity
  8
0
100
AcDbLine
 10
305.9650250014
 20
443.1137547788
 30
0.0
 11
287.9650248449
 21
443.1137547788
 31
0.0
  0
LINE
  5
293
330
1F
100
AcDbEntity
  8
0
100
AcDbLine
 10
273.9650253441
 20
405.9777253267
 30
0.0
 11
273.9650253441
 21
424.9777265784
 31
0.0
  0
LINE
  5
294
330
1F
100
AcDbEntity
  8
0
100
AcDbLine
 10
280.9650246288
 20
393.0429418531
 30
0.0
 11
280.9650246288
 21
437.912504464
 31
0.0
  0
LINE
  5
295
330
1F
100
AcDbEntity
  8
0
100
AcDbLine
 10
281.9650247927
 20
388.9777244028
 30
0.0
 11
280.9650246288
 21
388.9777244028
 31
0.0
  0
LINE
  5
296
330
1F
100
AcDbEntity
  8
0
100
AcDbLine
 10
280.9650246288
 20
388.9777244028
 30
0.0
 11
280.9650246288
 21
393.0429418531
 31
0.0
  0
LINE
  5
297
330
1F
100
AcDbEntity
  8
0
100
AcDbLine
 10
280.9650246288
 20
441.9777275022
 30
0.0
 11
281.9650247927
 21
441.9777275022
 31
0.0
  0
LINE
  5
298
330
1F
100
AcDbEntity
  8
0
100
AcDbLine
 10
280.9650246288
 20
437.912504464
 30
0.0
 11
280.9650246288
 21
441.9777275022
 31
0.0
  0
LINE
  5
299
330
1F
100
AcDbEntity
  8
0
100
AcDbLine
 10
272.9650251802
 20
393.9777252224
 30
0.0
 11
270.9650248524
 21
393.9777252224
 31
0.0
  0
LINE
  5
29A
330
1F
100
AcDbEntity
  8
0
100
AcDbLine
 10
272.9650251802
 20
403.9777249989
 30
0.0
 11
272.9650251802
 21
393.9777252224
 31
0.0
  0
LINE
  5
29B
330
1F
100
AcDbEntity
  8
0
100
AcDbLine
 10
272.9650251802
 20
403.9777249989
 30
0.0
 11
272.9650251802
 21
426.9777231809
 31
0.0
  0
LINE
  5
29C
330
1F
100
AcDbEntity
  8
0
100
AcDbLine
 10
270.9650248524
 20
436.97772482
 30
0.0
 11
272.9650251802
 21
436.97772482
 31
0.0
  0
LINE
  5
29D
330
1F
100
AcDbEntity
  8
0
100
AcDbLine
 10
272.9650251802
 20
436.97772482
 30
0.0
 11
272.9650251802
 21
426.9777231809
 31
0.0
  0
LINE
  5
29E
330
1F
100
AcDbEntity
  8
0
100
AcDbLine
 10
270.9650248524
 20
387.9777251702
 30
0.0
 11
270.9650248524
 21
442.9777220782
 31
0.0
  0
LINE
  5
29F
330
1F
100
AcDbEntity
  8
0
100
AcDbLine
 10
270.9650248524
 20
387.9777251702
 30
0.0
 11
265.4650248822
 21
387.9777251702
 31
0.0
  0
SPLINE
  5
2A0
330
1F
100
AcDbEntity
  8
0
100
AcDbSpline
210
0.0
220
0.0
230
1.0
 70
     8
 71
     3
 72
    15
 73
    11
 74
     0
 42
0.000000001
 43
0.00000001
 40
0.0
 40
0.0
 40
0.0
 40
0.0
 40
0.1219449941817158
 40
0.2439804506814135
 40
0.3659205244849315
 40
0.4914232908392873
 40
0.6170310048732904
 40
0.7425347875982882
 40
0.8710498816130463
 40
1.0
 40
1.0
 40
1.0
 40
1.0
 10
261.9947009022982
 20
432.4570738669821
 30
0.0
 10
261.7651324588165
 20
431.0954968630473
 30
0.0
 10
261.305825271353
 20
428.3713327980392
 30
0.0
 10
260.8413479859778
 20
424.2326103992715
 30
0.0
 10
260.5417257836459
 20
420.0299085477578
 30
0.0
 10
260.433920238305
 20
415.7705367245227
 30
0.0
 10
260.5170579844074
 20
411.4695932581615
 30
0.0
 10
260.7998285630251
 20
407.1485764818004
 30
0.0
 10
261.2698696242369
 20
402.8137255718879
 30
0.0
 10
261.7528184725151
 20
399.9384453735557
 30
0.0
 10
261.9947009022982
 20
398.4983761754223
 30
0.0
  0
SPLINE
  5
2A1
330
1F
100
AcDbEntity
  8
0
100
AcDbSpline
210
0.0
220
0.0
230
1.0
 70
     8
 71
     3
 72
    11
 73
     7
 74
     0
 42
0.000000001
 43
0.00000001
 40
0.0
 40
0.0
 40
0.0
 40
0.0
 40
0.2475240242216185
 40
0.4950438880499861
 40
0.7475245779547081
 40
1.0
 40
1.0
 40
1.0
 40
1.0
 10
265.4650248821528
 20
442.9777220782228
 30
0.0
 10
265.0780482148166
 20
442.151358942942
 30
0.0
 10
264.3041013844631
 20
440.4986465619235
 30
0.0
 10
263.3548722071442
 20
437.8991488872923
 30
0.0
 10
262.5551908664675
 20
435.2224097015369
 30
0.0
 10
262.181529590971
 20
433.3788460676237
 30
0.0
 10
261.9947009022982
 20
432.4570738669821
 30
0.0
  0
LINE
  5
2A2
330
1F
100
AcDbEntity
  8
0
100
AcDbLine
 10
270.9650248524
 20
442.9777220782
 30
0.0
 11
265.4650248822
 21
442.9777220782
 31
0.0
  0
SPLINE
  5
2A3
330
1F
100
AcDbEntity
  8
0
100
AcDbSpline
210
0.0
220
0.0
230
1.0
 70
     8
 71
     3
 72
    11
 73
     7
 74
     0
 42
0.000000001
 43
0.00000001
 40
0.0
 40
0.0
 40
0.0
 40
0.0
 40
0.2474822424433552
 40
0.4949698833387626
 40
0.7474822321198938
 40
1.0
 40
1.0
 40
1.0
 40
1.0
 10
261.9947009022982
 20
398.4983761754223
 30
0.0
 10
262.1774707215944
 20
397.5947575214379
 30
0.0
 10
262.5430143470348
 20
395.7875005023904
 30
0.0
 10
263.331607047703
 20
393.1266888357544
 30
0.0
 10
264.2816521716045
 20
390.5073597918565
 30
0.0
 10
265.0705644902281
 20
388.8209427426531
 30
0.0
 10
265.4650248821528
 20
387.9777251702138
 30
0.0
  0
LINE
  5
2A4
330
1F
100
AcDbEntity
  8
0
100
AcDbLine
 10
285.474958853
 20
409.1857963201
 30
0.0
 11
285.4212103646
 21
409.2849598226
 31
0.0
  0
ARC
  5
2A5
330
1F
100
AcDbEntity
  8
0
100
AcDbCircle
 10
296.965025061
 20
415.47772482
 30
0.0
 40
13.10000000000004
100
AcDbArc
 50
176.2151970323
 51
185.8830877906
  0
LINE
  5
2A6
330
1F
100
AcDbEntity
  8
0
100
AcDbLine
 10
308.421665826
 20
421.8303144869
 30
0.0
 11
308.4550909932
 21
421.769655585
 31
0.0
  0
LINE
  5
2A7
330
1F
100
AcDbEntity
  8
0
100
AcDbLine
 10
281.9650247927
 20
375.9547414217
 30
0.0
 11
281.9650247927
 21
374.47772482
 31
0.0
  0
LINE
  5
2A8
330
1F
100
AcDbEntity
  8
0
100
AcDbLine
 10
282.0014367114
 20
375.8277248551
 30
0.0
 11
281.9650247927
 21
375.9547414217
 31
0.0
  0
SPLINE
  5
2A9
330
1F
100
AcDbEntity
  8
0
100
AcDbSpline
210
0.0
220
0.0
230
1.0
 70
     8
 71
     3
 72
    13
 73
     9
 74
     0
 42
0.000000001
 43
0.00000001
 40
0.0
 40
0.0
 40
0.0
 40
0.0
 40
0.2035629452621479
 40
0.4068066958619083
 40
0.6183489647278173
 40
0.728997096373984
 40
0.8396185433970242
 40
1.0
 40
1.0
 40
1.0
 40
1.0
 10
282.9063367332966
 20
379.827725045044
 30
0.0
 10
282.8899323629261
 20
379.3958265880079
 30
0.0
 10
282.8571493448798
 20
378.5327069076139
 30
0.0
 10
282.6269647104932
 20
377.3744932934396
 30
0.0
 10
282.3945324635212
 20
376.608658843955
 30
0.0
 10
282.2209953615319
 20
376.1703286218359
 30
0.0
 10
282.0872699578559
 20
375.8931612406452
 30
0.0
 10
282.0333480702091
 20
375.8520530036926
 30
0.0
 10
282.0014367114455
 20
375.8277248550542
 30
0.0
  0
LINE
  5
2AA
330
1F
100
AcDbEntity
  8
0
100
AcDbLine
 10
282.9063367333
 20
387.3777252581
 30
0.0
 11
282.9063367333
 21
379.827725045
 31
0.0
  0
LINE
  5
2AB
330
1F
100
AcDbEntity
  8
0
100
AcDbLine
 10
309.4650246437
 20
387.3777252581
 30
0.0
 11
282.9063367333
 21
387.3777252581
 31
0.0
  0
LINE
  5
2AC
330
1F
100
AcDbEntity
  8
0
100
AcDbLine
 10
309.4650246437
 20
387.3777252581
 30
0.0
 11
309.4650246437
 21
378.47772501
 31
0.0
  0
SPLINE
  5
2AD
330
1F
100
AcDbEntity
  8
0
100
AcDbSpline
210
0.0
220
0.0
230
1.0
 70
     8
 71
     3
 72
    14
 73
    10
 74
     0
 42
0.000000001
 43
0.00000001
 40
0.0
 40
0.0
 40
0.0
 40
0.0
 40
0.1163545795585166
 40
0.2359508553392611
 40
0.4105768359246088
 40
0.5899819142411983
 40
0.7919483299546793
 40
0.9979749531348077
 40
1.0
 40
1.0
 40
1.0
 40
1.0
 10
305.4650249194057
 20
374.4777248200364
 30
0.0
 10
305.7728337149216
 20
374.4994732917434
 30
0.0
 10
306.3970270114683
 20
374.5435761583522
 30
0.0
 10
307.3128281877071
 20
374.8867351879028
 30
0.0
 10
308.1719228194391
 20
375.4625236755056
 30
0.0
 10
308.8939346642971
 20
376.3202868245342
 30
0.0
 10
309.356193566021
 20
377.3405412300667
 30
0.0
 10
309.4646886301489
 20
378.0927492246357
 30
0.0
 10
309.4650214047114
 20
378.4740140133064
 30
0.0
 10
309.4650246437342
 20
378.4777250100263
 30
0.0
  0
LINE
  5
2AE
330
1F
100
AcDbEntity
  8
0
100
AcDbLine
 10
281.9650247927
 20
374.47772482
 30
0.0
 11
305.4650249194
 21
374.47772482
 31
0.0
  0
LINE
  5
2AF
330
1F
100
AcDbEntity
  8
0
100
AcDbLine
 10
282.9063367333
 20
443.5777247843
 30
0.0
 11
309.4650246437
 21
443.5777247843
 31
0.0
  0
LINE
  5
2B0
330
1F
100
AcDbEntity
  8
0
100
AcDbLine
 10
282.9063367333
 20
451.1277259287
 30
0.0
 11
282.9063367333
 21
443.5777247843
 31
0.0
  0
SPLINE
  5
2B1
330
1F
100
AcDbEntity
  8
0
100
AcDbSpline
210
0.0
220
0.0
230
1.0
 70
     8
 71
     3
 72
    13
 73
     9
 74
     0
 42
0.000000001
 43
0.00000001
 40
0.0
 40
0.0
 40
0.0
 40
0.0
 40
0.2107216795826107
 40
0.4211677594491755
 40
0.6384905119495283
 40
0.7489030538168737
 40
0.8592748658715552
 40
1.0
 40
1.0
 40
1.0
 40
1.0
 10
282.0014367114455
 20
455.127726584334
 30
0.0
 10
282.0469959650172
 20
455.0841176663178
 30
0.0
 10
282.1380548858982
 20
454.9969568657335
 30
0.0
 10
282.4083753300508
 20
454.3273036188822
 30
0.0
 10
282.6444386104736
 20
453.4957326607419
 30
0.0
 10
282.7937869125073
 20
452.6825753879438
 30
0.0
 10
282.8855027706189
 20
451.9572860449792
 30
0.0
 10
282.8988540968155
 20
451.4256671742108
 30
0.0
 10
282.9063367332966
 20
451.1277259286829
 30
0.0
  0
LINE
  5
2B2
330
1F
100
AcDbEntity
  8
0
100
AcDbLine
 10
281.9650247927
 20
455.0007090863
 30
0.0
 11
282.0014367114
 21
455.1277265843
 31
0.0
  0
LINE
  5
2B3
330
1F
100
AcDbEntity
  8
0
100
AcDbLine
 10
281.9650247927
 20
456.477727085
 30
0.0
 11
281.9650247927
 21
455.0007090863
 31
0.0
  0
LINE
  5
2B4
330
1F
100
AcDbEntity
  8
0
100
AcDbLine
 10
281.9650247927
 20
456.477727085
 30
0.0
 11
305.4650249194
 21
456.477727085
 31
0.0
  0
SPLINE
  5
2B5
330
1F
100
AcDbEntity
  8
0
100
AcDbSpline
210
0.0
220
0.0
230
1.0
 70
     8
 71
     3
 72
    14
 73
    10
 74
     0
 42
0.000000001
 43
0.00000001
 40
0.0
 40
0.0
 40
0.0
 40
0.0
 40
0.0020249849280396
 40
0.204090089398958
 40
0.410020154440475
 40
0.5849448162408935
 40
0.764050124478575
 40
0.8806155298813233
 40
1.0
 40
1.0
 40
1.0
 40
1.0
 10
309.4650246437342
 20
452.4777264293619
 30
0.0
 10
309.465021404604
 20
452.4814368037229
 30
0.0
 10
309.4646949457036
 20
452.8553905179272
 30
0.0
 10
309.3582528089932
 20
453.6075739532938
 30
0.0
 10
308.9025473405229
 20
454.6213092377894
 30
0.0
 10
308.1788905368194
 20
455.4862739821825
 30
0.0
 10
307.3282410898839
 20
456.0612871883091
 30
0.0
 10
306.4044344637815
 20
456.4098233057342
 30
0.0
 10
305.7806457200848
 20
456.4549129191219
 30
0.0
 10
305.4650249194057
 20
456.477727085013
 30
0.0
  0
LINE
  5
2B6
330
1F
100
AcDbEntity
  8
0
100
AcDbLine
 10
309.4650246437
 20
452.4777264294
 30
0.0
 11
309.4650246437
 21
443.5777247843
 31
0.0
  0
LINE
  5
2B7
330
1F
100
AcDbEntity
  8
0
100
AcDbLine
 10
281.9650247927
 20
375.9547414217
 30
0.0
 11
281.9650247927
 21
379.827725045
 31
0.0
  0
LINE
  5
2B8
330
1F
100
AcDbEntity
  8
0
100
AcDbLine
 10
281.9650247927
 20
451.1277259287
 30
0.0
 11
281.9650247927
 21
455.0007090863
 31
0.0
  0
LINE
  5
2B9
330
1F
100
AcDbEntity
  8
0
100
AcDbLine
 10
281.9650247927
 20
387.3777252581
 30
0.0
 11
281.9650247927
 21
379.827725045
 31
0.0
  0
LINE
  5
2BA
330
1F
100
AcDbEntity
  8
0
100
AcDbLine
 10
281.9650247927
 20
387.3777252581
 30
0.0
 11
282.9063367333
 21
387.3777252581
 31
0.0
  0
LINE
  5
2BB
330
1F
100
AcDbEntity
  8
0
100
AcDbLine
 10
281.9650247927
 20
451.1277259287
 30
0.0
 11
281.9650247927
 21
443.5777247843
 31
0.0
  0
LINE
  5
2BC
330
1F
100
AcDbEntity
  8
0
100
AcDbLine
 10
282.9063367333
 20
443.5777247843
 30
0.0
 11
281.9650247927
 21
443.5777247843
 31
0.0
  0
LINE
  5
2BD
330
1F
100
AcDbEntity
  8
0
100
AcDbLine
 10
306.4650250833
 20
387.3777252581
 30
0.0
 11
306.4650250833
 21
387.9777251702
 31
0.0
  0
LINE
  5
2BE
330
1F
100
AcDbEntity
  8
0
100
AcDbLine
 10
306.4650250833
 20
442.9777220782
 30
0.0
 11
306.4650250833
 21
443.5777247843
 31
0.0
  0
LINE
  5
2BF
330
1F
100
AcDbEntity
  8
0
100
AcDbLine
 10
281.9650247927
 20
443.5777247843
 30
0.0
 11
281.9650247927
 21
442.9777220782
 31
0.0
  0
LINE
  5
2C0
330
1F
100
AcDbEntity
  8
0
100
AcDbLine
 10
281.9650247927
 20
387.9777251702
 30
0.0
 11
281.9650247927
 21
387.3777252581
 31
0.0
  0
CIRCLE
  5
2C5
330
1F
100
AcDbEntity
  8
0
100
AcDbCircle
 10
296.965025061
 20
415.47772482
 30
0.0
 40
12.99999999999996
  0
LINE
  5
2C6
330
1F
100
AcDbEntity
  8
0
100
AcDbLine
 10
281.9650247927
 20
442.9777220782
 30
0.0
 11
281.9650247927
 21
387.9777251702
 31
0.0
  0
LINE
  5
2C7
330
1F
100
AcDbEntity
  8
0
100
AcDbLine
 10
281.9650247927
 20
442.9777220782
 30
0.0
 11
307.6946325835
 21
442.9777220782
 31
0.0
  0
SPLINE
  5
2C8
330
1F
100
AcDbEntity
  8
0
100
AcDbSpline
210
0.0
220
0.0
230
1.0
 70
     8
 71
     3
 72
    11
 73
     7
 74
     0
 42
0.000000001
 43
0.00000001
 40
0.0
 40
0.0
 40
0.0
 40
0.0
 40
0.2605075460127252
 40
0.521187895191889
 40
0.777343865180172
 40
1.0
 40
1.0
 40
1.0
 40
1.0
 10
308.6646292593033
 20
442.2208473977037
 30
0.0
 10
308.6260650996498
 20
442.3285020867315
 30
0.0
 10
308.5489111994759
 20
442.5438828756596
 30
0.0
 10
308.303707040323
 20
442.7930413699673
 30
0.0
 10
308.0078305219839
 20
442.9503981419851
 30
0.0
 10
307.794046125632
 20
442.9690490668347
 30
0.0
 10
307.6946325834543
 20
442.9777220782228
 30
0.0
  0
SPLINE
  5
2C9
330
1F
100
AcDbEntity
  8
0
100
AcDbSpline
210
0.0
220
0.0
230
1.0
 70
     8
 71
     3
 72
    19
 73
    15
 74
     0
 42
0.000000001
 43
0.00000001
 40
0.0
 40
0.0
 40
0.0
 40
0.0
 40
0.082431780875646
 40
0.1649186738087662
 40
0.2473453228296584
 40
0.3320168301105629
 40
0.416755035797074
 40
0.501424329875573
 40
0.5833721080000047
 40
0.665382145212171
 40
0.7473317978276979
 40
0.831531234288081
 40
0.9157949313833267
 40
1.0
 40
1.0
 40
1.0
 40
1.0
 10
308.6646292593033
 20
388.7346054386683
 30
0.0
 10
309.0042088556031
 20
390.159166609528
 30
0.0
 10
309.6835950835768
 20
393.0092413811998
 30
0.0
 10
310.4917255508009
 20
397.3675087794707
 30
0.0
 10
311.1450650678884
 20
401.8131498568937
 30
0.0
 10
311.616548370102
 20
406.3430035836224
 30
0.0
 10
311.9031746160975
 20
410.9418120501197
 30
0.0
 10
311.9965047553054
 20
415.505974414523
 30
0.0
 10
311.9009206661427
 20
420.02028823407
 30
0.0
 10
311.6262506600224
 20
424.4713696797043
 30
0.0
 10
311.170267500831
 20
428.9365407211341
 30
0.0
 10
310.5241983585871
 20
433.3995517330509
 30
0.0
 10
309.7044771351893
 20
437.8537096530417
 30
0.0
 10
309.0111647918508
 20
440.7654725884169
 30
0.0
 10
308.6646292593033
 20
442.2208473977037
 30
0.0
  0
SPLINE
  5
2CA
330
1F
100
AcDbEntity
  8
0
100
AcDbSpline
210
0.0
220
0.0
230
1.0
 70
     8
 71
     3
 72
    11
 73
     7
 74
     0
 42
0.000000001
 43
0.00000001
 40
0.0
 40
0.0
 40
0.0
 40
0.0
 40
0.2468773651829011
 40
0.493649686911298
 40
0.743380109066996
 40
1.0
 40
1.0
 40
1.0
 40
1.0
 10
307.6946325834543
 20
387.9777251702138
 30
0.0
 10
307.8049892690234
 20
387.9883506497596
 30
0.0
 10
308.0256556846722
 20
388.0095970878329
 30
0.0
 10
308.3183161959701
 20
388.1754530882577
 30
0.0
 10
308.5522344301575
 20
388.4191745113014
 30
0.0
 10
308.6268260152908
 20
388.628512370091
 30
0.0
 10
308.6646292593033
 20
388.7346054386683
 30
0.0
  0
LINE
  5
2CB
330
1F
100
AcDbEntity
  8
0
100
AcDbLine
 10
281.9650247927
 20
387.9777251702
 30
0.0
 11
307.6946325835
 21
387.9777251702
 31
0.0
  0
SPLINE
  5
2CC
330
1F
100
AcDbEntity
  8
0
100
AcDbSpline
210
0.0
220
0.0
230
1.0
 70
    11
 71
     3
 72
    55
 73
    51
 74
     0
 42
0.000000001
 43
0.00000001
 40
0.0
 40
0.0
 40
0.0
 40
0.0
 40
0.0209569829642078
 40
0.041700876815957
 40
0.0625923513857082
 40
0.0835412957916326
 40
0.1042838589080667
 40
0.1251786516256067
 40
0.1460656348882171
 40
0.166773570279373
 40
0.1876642123751526
 40
0.2084888323472071
 40
0.2291539096460543
 40
0.2500280278997348
 40
0.2708377204297915
 40
0.2914953708200034
 40
0.3123694818827811
 40
0.3332399041190565
 40
0.3539224346514943
 40
0.3747803804852719
 40
0.3957033336979593
 40
0.4164248343469351
 40
0.4373022217705385
 40
0.4582720610907303
 40
0.479109116173038
 40
0.500172160485463
 40
0.5210385016139707
 40
0.5417726463805053
 40
0.5627366232490612
 40
0.5836538955645635
 40
0.6043677241644198
 40
0.6252373712880458
 40
0.6461720986487984
 40
0.6668614524280717
 40
0.6876676478977232
 40
0.708569040229258
 40
0.7292517504719696
 40
0.7500835767932306
 40
0.7709102258178635
 40
0.791595954469787
 40
0.8125087944971512
 40
0.8333180911489888
 40
0.8540095998920243
 40
0.8749459658656569
 40
0.8958158572912549
 40
0.9165282255229344
 40
0.9374418946537106
 40
0.9583686602527859
 40
0.9791012227198937
 40
1.0
 40
1.0
 40
1.0
 40
1.0
 10
283.6464187364728
 20
415.4777259525247
 30
0.0
 10
283.6679181887001
 20
416.0640052395716
 30
0.0
 10
283.7106984882535
 20
417.230602567567
 30
0.0
 10
284.0638678562624
 20
418.9518147550566
 30
0.0
 10
284.6263420533367
 20
420.6113969978894
 30
0.0
 10
285.3975960976633
 20
422.1855621646088
 30
0.0
 10
286.3682564134527
 20
423.6444218873602
 30
0.0
 10
287.5222491519201
 20
424.9600285695435
 30
0.0
 10
288.8327836613292
 20
426.1182167953526
 30
0.0
 10
290.28604541435
 20
427.0924579535503
 30
0.0
 10
291.8539503592381
 20
427.8654701303173
 30
0.0
 10
293.5068717129254
 20
428.4332131258715
 30
0.0
 10
295.2214447716221
 20
428.774871779021
 30
0.0
 10
296.9656891207882
 20
428.8861365263162
 30
0.0
 10
298.7097982927859
 20
428.7753350190048
 30
0.0
 10
300.4235501443803
 20
428.4327111973623
 30
0.0
 10
302.0770543224741
 20
427.864963296703
 30
0.0
 10
303.6454799977195
 20
427.092754353145
 30
0.0
 10
305.0970868979911
 20
426.1196943046954
 30
0.0
 10
306.4064320558028
 20
424.9612482075878
 30
0.0
 10
307.5596865207768
 20
423.6459490846564
 30
0.0
 10
308.5306243906461
 20
422.1893092308566
 30
0.0
 10
309.3013866211572
 20
420.6157590799357
 30
0.0
 10
309.8677682830636
 20
418.9533584654605
 30
0.0
 10
310.2094396826378
 20
417.2244279339993
 30
0.0
 10
310.3208124367983
 20
415.4685131258119
 30
0.0
 10
310.2096865708062
 20
413.7154156792667
 30
0.0
 10
309.8666084786343
 20
411.9954271505643
 30
0.0
 10
309.2993240151235
 20
410.335496078541
 30
0.0
 10
308.5285585603198
 20
408.7611713473792
 30
0.0
 10
307.5579932494708
 20
407.3049059655263
 30
0.0
 10
306.4028367954669
 20
405.9906189111786
 30
0.0
 10
305.0916644873099
 20
404.8330551268513
 30
0.0
 10
303.6398581318108
 20
403.8593848795049
 30
0.0
 10
302.0718065528962
 20
403.0881926080697
 30
0.0
 10
300.4180947729168
 20
402.5220362496132
 30
0.0
 10
298.7021848646154
 20
402.1798098449485
 30
0.0
 10
296.9580607960999
 20
402.0691840283652
 30
0.0
 10
295.2139551234222
 20
402.1815356780832
 30
0.0
 10
293.4981823891907
 20
402.5257742308921
 30
0.0
 10
291.8446241332567
 20
403.0938578859672
 30
0.0
 10
290.2769541804237
 20
403.8668743514503
 30
0.0
 10
288.8260929182329
 20
404.8423161254783
 30
0.0
 10
287.5162961780834
 20
406.0015900440739
 30
0.0
 10
286.3627009982801
 20
407.3173169500972
 30
0.0
 10
285.3941309252693
 20
408.7745788004196
 30
0.0
 10
284.6245656459712
 20
410.3486249004537
 30
0.0
 10
284.0630219537015
 20
412.0081388098664
 30
0.0
 10
283.7097817512556
 20
413.7283702379859
 30
0.0
 10
283.6675958843288
 20
414.8930573608147
 30
0.0
 10
283.6464187364728
 20
415.4777259525247
 30
0.0
  0
SPLINE
  5
2CD
330
1F
100
AcDbEntity
  8
0
100
AcDbSpline
210
0.0
220
0.0
230
1.0
 70
    11
 71
     3
 72
    82
 73
    78
 74
     0
 42
0.000000001
 43
0.00000001
 40
0.0
 40
0.0
 40
0.0
 40
0.0
 40
0.0099451242226525
 40
0.0200754848814271
 40
0.030391655698614
 40
0.0408941148653135
 40
0.0515832418966785
 40
0.0624594802945586
 40
0.0744690175596222
 40
0.0888805347086376
 40
0.105693570199945
 40
0.1249073221181099
 40
0.138100702862207
 40
0.1501832509799218
 40
0.1611548372175079
 40
0.1710154075472899
 40
0.1797648975361291
 40
0.1874033248553295
 40
0.2090260157832628
 40
0.22986384207719
 40
0.2499204083694245
 40
0.2598546619205347
 40
0.2699840275979264
 40
0.2803090128368129
 40
0.290830103097915
 40
0.3015477319401202
 40
0.312462340995963
 40
0.3291167085590124
 40
0.3499356778265448
 40
0.3749163023067127
 40
0.3878591757809269
 40
0.3997894673689545
 40
0.4107071609117939
 40
0.4206121631383928
 40
0.4295044211978513
 40
0.4373840404323839
 40
0.4589899089177607
 40
0.4797988946468238
 40
0.499814606832994
 40
0.5098499168725605
 40
0.5200555235923026
 40
0.53043188905058
 40
0.5409794527674313
 40
0.5516987364487044
 40
0.5625901546142915
 40
0.5746018697910783
 40
0.5890186842147884
 40
0.6058400718524901
 40
0.6250652294956064
 40
0.6381842258079923
 40
0.6502203280223965
 40
0.6611734115215468
 40
0.671043415420524
 40
0.6798302809856545
 40
0.6875340479717883
 40
0.7090989886487127
 40
0.7299082135945612
 40
0.749965356956214
 40
0.7599233498135456
 40
0.7700633647643086
 40
0.7803859030300916
 40
0.7908914365942031
 40
0.8015804259906364
 40
0.8124532869524147
 40
0.8243894966614093
 40
0.8387905498895951
 40
0.8556558697578498
 40
0.8749846219155597
 40
0.8880985351205806
 40
0.900137369445435
 40
0.9111009527346169
 40
0.9209892343859813
 40
0.9298022006322069
 40
0.9375398717668617
 40
0.9590755560391462
 40
0.9798943941247948
 40
1.0
 40
1.0
 40
1.0
 40
1.0
 10
283.8650252904446
 20
415.4777259525247
 30
0.0
 10
283.8699616078283
 20
415.2047120426819
 30
0.0
 10
283.8799261857249
 20
414.6535991056526
 30
0.0
 10
283.9615514359368
 20
413.8226147780999
 30
0.0
 10
284.0949950775489
 20
412.9833455097578
 30
0.0
 10
284.2874544139505
 20
412.1397863097789
 30
0.0
 10
284.5397007851241
 20
411.2962839345248
 30
0.0
 10
284.8630094697615
 20
410.4332091586412
 30
0.0
 10
285.290006931595
 20
409.5028321749191
 30
0.0
 10
285.8727723526051
 20
408.4688976518603
 30
0.0
 10
286.6676308031193
 20
407.3347177845371
 30
0.0
 10
287.5638584854275
 20
406.3219651785568
 30
0.0
 10
288.4613205002474
 20
405.4948635235746
 30
0.0
 10
289.2436442678276
 20
404.8810066336336
 30
0.0
 10
289.992419662268
 20
404.3764749225911
 30
0.0
 10
290.6935379070781
 20
403.9679824029287
 30
0.0
 10
291.3358047883507
 20
403.6424592914452
 30
0.0
 10
292.288771554307
 20
403.2195358110172
 30
0.0
 10
293.5953610668543
 20
402.778179980532
 30
0.0
 10
295.2839110547273
 20
402.4495697363347
 30
0.0
 10
296.6802768249673
 20
402.3606559464005
 30
0.0
 10
297.7815391636437
 20
402.3944966650335
 30
0.0
 10
298.61251450836
 20
402.4726328520412
 30
0.0
 10
299.4525721979116
 20
402.6065234523861
 30
0.0
 10
300.2977225715327
 20
402.7986836144
 30
0.0
 10
301.1435742270309
 20
403.0513766342506
 30
0.0
 10
302.1277663150894
 20
403.4198731602608
 30
0.0
 10
303.327666060015
 20
403.9919045205639
 30
0.0
 10
304.7797718626804
 20
404.907396248805
 30
0.0
 10
306.0098882410034
 20
405.957205571473
 30
0.0
 10
306.9371797870254
 20
406.9621485627021
 30
0.0
 10
307.5447764783117
 20
407.7334578828576
 30
0.0
 10
308.0487206034655
 20
408.4772651000039
 30
0.0
 10
308.4608702943463
 20
409.180496372203
 30
0.0
 10
308.7930184152177
 20
409.8326014950399
 30
0.0
 10
309.2207876122482
 20
410.7944685784583
 30
0.0
 10
309.6639658392734
 20
412.1061059361184
 30
0.0
 10
309.9924914756577
 20
413.7922426712816
 30
0.0
 10
310.0820726526529
 20
415.1894101953264
 30
0.0
 10
310.0483947861983
 20
416.2944411727387
 30
0.0
 10
309.9694139301018
 20
417.1316545055757
 30
0.0
 10
309.8342569417076
 20
417.9758018887665
 30
0.0
 10
309.6408057051144
 20
418.8229065733965
 30
0.0
 10
309.3871957174757
 20
419.66861439256
 30
0.0
 10
309.0627248927573
 20
420.5326410015242
 30
0.0
 10
308.6346287201437
 20
421.4631968686697
 30
0.0
 10
308.0507065386619
 20
422.4969751401359
 30
0.0
 10
307.2543653887419
 20
423.6309547316866
 30
0.0
 10
306.3580982897255
 20
424.6416732658724
 30
0.0
 10
305.4621775926149
 20
425.4659911668105
 30
0.0
 10
304.6825941683653
 20
426.0771373226229
 30
0.0
 10
303.9349645509822
 20
426.5806425836419
 30
0.0
 10
303.2330847770945
 20
426.9893769674899
 30
0.0
 10
302.5879520361295
 20
427.3160609065828
 30
0.0
 10
301.6335640254904
 20
427.7388388521918
 30
0.0
 10
300.3272402049579
 20
428.1790791107232
 30
0.0
 10
298.640873212248
 20
428.5065097469216
 30
0.0
 10
297.2445937821185
 20
428.5949295821994
 30
0.0
 10
296.1423827958358
 20
428.5606016870869
 30
0.0
 10
295.3105744064229
 20
428.4819403332902
 30
0.0
 10
294.4707926179839
 20
428.3476125748787
 30
0.0
 10
293.6269847438321
 20
428.1553197278729
 30
0.0
 10
292.78350295878
 20
427.9030022054974
 30
0.0
 10
291.9224066157878
 20
427.5804567788063
 30
0.0
 10
290.9941258194612
 20
427.1546776092318
 30
0.0
 10
289.960660230535
 20
426.5728652552196
 30
0.0
 10
288.8226525437731
 20
425.7759532052643
 30
0.0
 10
287.8081960062201
 20
424.8779383065984
 30
0.0
 10
286.9814932741023
 20
423.9804383842632
 30
0.0
 10
286.3697669873471
 20
423.2010182292678
 30
0.0
 10
285.865391114574
 20
422.4529298908386
 30
0.0
 10
285.4555743922766
 20
421.7499201322182
 30
0.0
 10
285.1277813156349
 20
421.1029638162819
 30
0.0
 10
284.704272966867
 20
420.1478337978428
 30
0.0
 10
284.2668722450475
 20
418.8412148638888
 30
0.0
 10
283.9264582747096
 20
417.1539901029963
 30
0.0
 10
283.885263638155
 20
416.0299507408486
 30
0.0
 10
283.8650252904446
 20
415.4777259525247
 30
0.0
  0
LINE
  5
2CE
330
1F
100
AcDbEntity
  8
0
100
AcDbLine
 10
304.5228021454
 20
426.1777245399
 30
0.0
 11
304.5495730128
 21
426.1777245399
 31
0.0
  0
LINE
  5
2CF
330
1F
100
AcDbEntity
  8
0
100
AcDbLine
 10
300.3653926078
 20
387.4777250883
 30
0.0
 11
300.3653926078
 21
387.3777252581
 31
0.0
  0
LINE
  5
2D0
330
1F
100
AcDbEntity
  8
0
100
AcDbLine
 10
300.3653926078
 20
443.4777230915
 30
0.0
 11
300.3653926078
 21
443.5777247843
 31
0.0
  0
LINE
  5
2D1
330
1F
100
AcDbEntity
  8
0
100
AcDbLine
 10
293.5646574713
 20
387.4777250883
 30
0.0
 11
293.5646574713
 21
387.3777252581
 31
0.0
  0
LINE
  5
2D2
330
1F
100
AcDbEntity
  8
0
100
AcDbLine
 10
293.5646574713
 20
443.4777230915
 30
0.0
 11
293.5646574713
 21
443.5777247843
 31
0.0
  0
LINE
  5
2D3
330
1F
100
AcDbEntity
  8
0
  6
Continuous
 62
     8
370
     0
100
AcDbLine
 10
280.9650246288
 20
393.0429418531
 30
0.0
 11
281.9650247927
 21
393.0429418531
 31
0.0
  0
LINE
  5
2D4
330
1F
100
AcDbEntity
  8
0
  6
Continuous
 62
     8
370
     0
100
AcDbLine
 10
281.9650247927
 20
437.912504464
 30
0.0
 11
280.9650246288
 21
437.912504464
 31
0.0
  0
LINE
  5
2D5
330
1F
100
AcDbEntity
  8
0
  6
Continuous
 62
     8
370
     0
100
AcDbLine
 10
270.9650248524
 20
403.9777249989
 30
0.0
 11
272.9650251802
 21
403.9777249989
 31
0.0
  0
LINE
  5
2D6
330
1F
100
AcDbEntity
  8
0
  6
Continuous
 62
     8
370
     0
100
AcDbLine
 10
272.9650251802
 20
426.9777231809
 30
0.0
 11
270.9650248524
 21
426.9777231809
 31
0.0
  0
LINE
  5
2D7
330
1F
100
AcDbEntity
  8
0
  6
Continuous
 62
     8
370
     0
100
AcDbLine
 10
281.9650247927
 20
379.827725045
 30
0.0
 11
282.9063367333
 21
379.827725045
 31
0.0
  0
LINE
  5
2D8
330
1F
100
AcDbEntity
  8
0
  6
Continuous
 62
     8
370
     0
100
AcDbLine
 10
282.9063367333
 20
451.1277259287
 30
0.0
 11
281.9650247927
 21
451.1277259287
 31
0.0
  0
CIRCLE
  5
2D9
330
1F
100
AcDbEntity
  8
0
  6
Continuous
 62
     8
370
     0
100
AcDbCircle
 10
296.965025061
 20
415.47772482
 30
0.0
 40
12.69999999999997
  0
LINE
  5
2DA
330
1F
100
AcDbEntity
  8
0
100
AcDbLine
 10
347.258984525323
 20
289.5806498835058
 30
0.0
 11
346.265037958123
 21
289.1350758271058
 31
0.0
  0
LINE
  5
2DB
330
1F
100
AcDbEntity
  8
0
100
AcDbLine
 10
369.047079354623
 20
216.4063882070058
 30
0.0
 11
370.531401716223
 21
217.0717917181058
 31
0.0
  0
LINE
  5
2DC
330
1F
100
AcDbEntity
  8
0
100
AcDbLine
 10
380.711013669723
 20
244.6335188415058
 30
0.0
 11
399.549473761223
 21
253.0785694672058
 31
0.0
  0
LINE
  5
2DD
330
1F
100
AcDbEntity
  8
0
100
AcDbLine
 10
396.686018303623
 20
259.4661069047057
 30
0.0
 11
380.711012378923
 21
252.3047076648058
 31
0.0
  0
LINE
  5
2DE
330
1F
100
AcDbEntity
  8
0
100
AcDbLine
 10
380.711013669723
 20
265.8838887039058
 30
0.0
 11
399.549473761223
 21
274.3289393296058
 31
0.0
  0
LINE
  5
2DF
330
1F
100
AcDbEntity
  8
0
100
AcDbLine
 10
396.686018303623
 20
280.7164749679058
 30
0.0
 11
380.711012378923
 21
273.5550757280058
 31
0.0
  0
SPLINE
  5
2E0
330
1F
100
AcDbEntity
  8
0
100
AcDbSpline
210
0.0
220
0.0
230
1.0
 70
     8
 71
     3
 72
    10
 73
     6
 74
     0
 42
0.000000001
 43
0.00000001
 40
0.0
 40
0.0
 40
0.0
 40
0.0
 40
0.3110368039041885
 40
0.7204688773447885
 40
1.0
 40
1.0
 40
1.0
 40
1.0
 10
371.6624176361689
 20
212.0991736900461
 30
0.0
 10
371.8449425416201
 20
212.0781600462576
 30
0.0
 10
372.2677333884501
 20
212.0294851751197
 30
0.0
 10
372.8647458413317
 20
212.1145820501293
 30
0.0
 10
373.239041465097
 20
212.2752061018782
 30
0.0
 10
373.3909033882141
 20
212.3403756519576
 30
0.0
  0
LINE
  5
2E1
330
1F
100
AcDbEntity
  8
0
100
AcDbLine
 10
325.875838922323
 20
218.9313943617058
 30
0.0
 11
371.661735597423
 21
212.0896423734058
 31
0.0
  0
LINE
  5
2E2
330
1F
100
AcDbEntity
  8
0
100
AcDbLine
 10
373.396998522723
 20
212.3280741001058
 30
0.0
 11
378.883172078023
 21
214.7874584229058
 31
0.0
  0
LINE
  5
2E3
330
1F
100
AcDbEntity
  8
0
100
AcDbLine
 10
324.800291895323
 20
299.3379590938058
 30
0.0
 11
324.800291895323
 21
286.8775137124057
 31
0.0
  0
LINE
  5
2E4
330
1F
100
AcDbEntity
  8
0
100
AcDbLine
 10
324.800291895323
 20
231.6013052980058
 30
0.0
 11
324.800291895323
 21
220.1320391503058
 31
0.0
  0
LINE
  5
2E5
330
1F
100
AcDbEntity
  8
0
100
AcDbLine
 10
253.328969029323
 20
242.2812106029058
 30
0.0
 11
337.190782964023
 21
229.7498030320058
 31
0.0
  0
LINE
  5
2E6
330
1F
100
AcDbEntity
  8
0
100
AcDbLine
 10
347.696759234523
 20
219.1958366590058
 30
0.0
 11
367.615345173423
 21
216.2194173935058
 31
0.0
  0
ARC
  5
2E7
330
1F
100
AcDbEntity
  8
0
100
AcDbCircle
 10
348.513187671023
 20
222.9564444060058
 30
0.0
 40
3.848210755402829
100
AcDbArc
 50
178.9120588481
 51
257.7511573669005
  0
LINE
  5
2E8
330
1F
100
AcDbEntity
  8
0
100
AcDbLine
 10
344.665670631023
 20
286.3942422547058
 30
0.0
 11
344.665670631023
 21
223.0295104380058
 31
0.0
  0
ARC
  5
2E9
330
1F
100
AcDbEntity
  8
0
100
AcDbCircle
 10
347.374838583923
 20
286.6224155024058
 30
0.0
 40
2.718759648757569
100
AcDbArc
 50
83.19981494369888
 51
184.8142394475008
  0
LINE
  5
2EA
330
1F
100
AcDbEntity
  8
0
100
AcDbLine
 10
367.615345173423
 20
286.3456297532058
 30
0.0
 11
347.696759234523
 21
289.3220490187058
 31
0.0
  0
ARC
  5
2EB
330
1F
100
AcDbEntity
  8
0
100
AcDbCircle
 10
366.798921667723
 20
282.5850259133058
 30
0.0
 40
3.848205891191848
100
AcDbArc
 50
358.9120059884001
 51
77.7512167676995
  0
LINE
  5
2EC
330
1F
100
AcDbEntity
  8
0
100
AcDbLine
 10
370.646433776923
 20
219.1472246072058
 30
0.0
 11
370.646433776923
 21
282.5119564239058
 31
0.0
  0
ARC
  5
2ED
330
1F
100
AcDbEntity
  8
0
100
AcDbCircle
 10
367.937262860923
 20
218.9190540126058
 30
0.0
 40
2.718762378840103
100
AcDbArc
 50
263.1998846936999
 51
4.814178494500222
  0
LWPOLYLINE
  5
2EE
330
1F
100
AcDbEntity
  8
0
100
AcDbPolyline
 90
       16
 70
   128
 43
0.0
 10
399.549473761223
 20
253.0785694672058
 10
399.828333241723
 20
253.2257917062058
 10
400.342253365223
 20
253.6435188152058
 10
400.744624534723
 20
254.1930673293058
 10
401.015276572523
 20
254.8468778473058
 10
401.140646550423
 20
255.5721665895058
 10
401.114424029023
 20
256.3325651863058
 10
400.937938201123
 20
257.0899447670058
 10
400.620028843923
 20
257.8063261777057
 10
400.176659175223
 20
258.4457855873057
 10
399.630038328623
 20
258.9762570508058
 10
399.007588970423
 20
259.3711459100058
 10
398.340514868623
 20
259.6106475353058
 10
397.662278128623
 20
259.6827521157057
 10
397.006869951723
 20
259.5838449017058
 10
396.686018303623
 20
259.4661069047057
  0
LWPOLYLINE
  5
2EF
330
1F
100
AcDbEntity
  8
0
100
AcDbPolyline
 90
       16
 70
   128
 43
0.0
 10
399.549473761223
 20
274.3289393296058
 10
400.063303551323
 20
274.6395677304058
 10
400.531721406023
 20
275.1174362104058
 10
400.879105290223
 20
275.7159114123058
 10
401.088007935923
 20
276.4049885848058
 10
401.147989372623
 20
277.1501110847058
 10
401.056004071223
 20
277.9139188996057
 10
400.816697754123
 20
278.6581078257058
 10
400.442046061023
 20
279.3453654003058
 10
399.950838357523
 20
279.9412256234058
 10
399.367722781423
 20
280.4158093243058
 10
398.721928668723
 20
280.7453212716058
 10
398.045834122823
 20
280.9132393739058
 10
397.373340011723
 20
280.9111441841058
 10
396.738179441123
 20
280.7391370377057
 10
396.686018303623
 20
280.7164749679058
  0
LINE
  5
2F0
330
1F
100
AcDbEntity
  8
0
100
AcDbLine
 10
271.851575792723
 20
303.6614421499058
 30
0.0
 11
324.800289035523
 21
295.7493558871058
 31
0.0
  0
LINE
  5
2F1
330
1F
100
AcDbEntity
  8
0
100
AcDbLine
 10
271.202671627123
 20
300.4709654884058
 30
0.0
 11
271.851575792723
 21
303.6614421499058
 31
0.0
  0
LINE
  5
2F2
330
1F
100
AcDbEntity
  8
0
100
AcDbLine
 10
274.601575777823
 20
304.8942334174058
 30
0.0
 11
324.800292425223
 21
297.3930770707058
 31
0.0
  0
LINE
  5
2F3
330
1F
100
AcDbEntity
  8
0
100
AcDbLine
 10
271.851575792723
 20
303.6614421499058
 30
0.0
 11
274.601575777823
 21
304.8942334174058
 31
0.0
  0
LINE
  5
2F4
330
1F
100
AcDbEntity
  8
0
100
AcDbLine
 10
370.862937340423
 20
218.4387243639058
 30
0.0
 11
370.862937340423
 21
283.1557567872057
 31
0.0
  0
SPLINE
  5
2F5
330
1F
100
AcDbEntity
  8
0
100
AcDbSpline
210
0.0
220
0.0
230
1.0
 70
     8
 71
     3
 72
    14
 73
    10
 74
     0
 42
0.000000001
 43
0.00000001
 40
0.0
 40
0.0
 40
0.0
 40
0.0
 40
0.0020249790017347
 40
0.2060703617529409
 40
0.4100198720381125
 40
0.5871809881761089
 40
0.7640524807253557
 40
0.8821280678691517
 40
1.0
 40
1.0
 40
1.0
 40
1.0
 10
331.6752890580698
 20
292.3922775440619
 30
0.0
 10
331.6693329868859
 20
292.3967524577147
 30
0.0
 10
331.0632181864706
 20
292.8521384515672
 30
0.0
 10
329.909524983184
 20
293.7839568415624
 30
0.0
 10
328.4302362319136
 20
295.1231945008054
 30
0.0
 10
327.1942284310496
 20
296.358064100786
 30
0.0
 10
326.3107002525203
 20
297.2993915352059
 30
0.0
 10
325.6755333454919
 20
298.0042002945049
 30
0.0
 10
325.4110097391429
 20
298.2729631692085
 30
0.0
 10
325.2788620960126
 20
298.4072286169817
 30
0.0
  0
ARC
  5
2F6
330
1F
100
AcDbEntity
  8
0
100
AcDbCircle
 10
367.565066706723
 20
283.2183847989057
 30
0.0
 40
3.29846524685103
100
AcDbArc
 50
358.9120587540002
 51
77.75104190219939
  0
LINE
  5
2F7
330
1F
100
AcDbEntity
  8
0
100
AcDbLine
 10
368.264868768723
 20
286.4417603679058
 30
0.0
 11
347.047248544023
 21
289.6122933464057
 31
0.0
  0
ARC
  5
2F8
330
1F
100
AcDbEntity
  8
0
100
AcDbCircle
 10
346.771311894423
 20
287.2983216158058
 30
0.0
 40
2.33036610963368
100
AcDbArc
 50
83.19970151809898
 51
184.8141886631
  0
LINE
  5
2F9
330
1F
100
AcDbEntity
  8
0
100
AcDbLine
 10
344.449167067523
 20
287.1027465462058
 30
0.0
 11
344.449167067523
 21
281.8867451498057
 31
0.0
  0
LINE
  5
2FA
330
1F
100
AcDbEntity
  8
0
100
AcDbLine
 10
331.675289058023
 20
283.7955361011058
 30
0.0
 11
344.449167067523
 21
281.8867451498057
 31
0.0
  0
ARC
  5
2FB
330
1F
100
AcDbEntity
  8
0
100
AcDbCircle
 10
376.313833216923
 20
289.4818392914058
 30
0.0
 40
4.397977859073292
100
AcDbArc
 50
358.9123018449
 51
77.75101248599947
  0
LINE
  5
2FC
330
1F
100
AcDbEntity
  8
0
100
AcDbLine
 10
380.711018608323
 20
289.3983534724058
 30
0.0
 11
380.711018608323
 21
217.9198409560058
 31
0.0
  0
LWPOLYLINE
  5
2FD
330
1F
100
AcDbEntity
  8
0
100
AcDbPolyline
 90
        3
 70
   128
 43
0.0
 10
346.637727415023
 20
289.6372617846058
 10
346.387026173623
 20
289.3196670853058
 10
346.280716561823
 20
289.1421053334058
  0
LINE
  5
2FE
330
1F
100
AcDbEntity
  8
0
100
AcDbLine
 10
369.764868548923
 20
216.6016057915058
 30
0.0
 11
370.174376064023
 21
216.5766366740058
 31
0.0
  0
LINE
  5
2FF
330
1F
100
AcDbEntity
  8
0
100
AcDbLine
 10
369.553126850823
 20
216.6332461937058
 30
0.0
 11
369.764868548923
 21
216.6016057915058
 31
0.0
  0
LWPOLYLINE
  5
300
330
1F
100
AcDbEntity
  8
0
100
AcDbPolyline
 90
       21
 70
   128
 43
0.0
 10
345.425288983523
 20
302.4199378203058
 10
343.976242092423
 20
302.6079160586058
 10
342.451796552623
 20
302.7504544738058
 10
340.873136537123
 20
302.8455721189058
 10
339.262195497323
 20
302.8919479020058
 10
337.641357952423
 20
302.8889373146058
 10
336.033160215823
 20
302.8365809680058
 10
334.459929588723
 20
302.7356086868058
 10
332.943545616523
 20
302.5874211876057
 10
331.505078083923
 20
302.3940782077058
 10
330.164504400723
 20
302.1582682303058
 10
328.940461326823
 20
301.8832666069057
 10
327.849963437923
 20
301.5728941959057
 10
326.908150977523
 20
301.2314660353057
 10
326.128124055123
 20
300.8637247292057
 10
325.520716109823
 20
300.4747813179058
 10
325.094369855723
 20
300.0700403825058
 10
324.855007604423
 20
299.6551264849057
 10
324.805957833523
 20
299.2358049692058
 10
324.947900467323
 20
298.8179034377058
 10
325.278862096023
 20
298.4072286170058
  0
LINE
  5
301
330
1F
100
AcDbEntity
  8
0
100
AcDbLine
 10
361.663262723523
 20
299.9935096581058
 30
0.0
 11
345.425288983523
 21
302.4199378203058
 31
0.0
  0
LINE
  5
302
330
1F
100
AcDbEntity
  8
0
100
AcDbLine
 10
355.163262589423
 20
297.0796393134058
 30
0.0
 11
361.663262723523
 21
299.9935096581058
 31
0.0
  0
LINE
  5
303
330
1F
100
AcDbEntity
  8
0
100
AcDbLine
 10
377.246909973023
 20
293.7796965501058
 30
0.0
 11
355.163262589423
 21
297.0796393134058
 31
0.0
  0
LINE
  5
304
330
1F
100
AcDbEntity
  8
0
100
AcDbLine
 10
344.449167067523
 20
281.8867451498057
 30
0.0
 11
344.665673023423
 21
281.9838021146057
 31
0.0
  0
LINE
  5
305
330
1F
100
AcDbEntity
  8
0
100
AcDbLine
 10
344.449167067523
 20
227.6017141700058
 30
0.0
 11
331.675289058023
 21
229.5105051213058
 31
0.0
  0
LINE
  5
306
330
1F
100
AcDbEntity
  8
0
100
AcDbLine
 10
344.449167067523
 20
227.6017141700058
 30
0.0
 11
344.449167067523
 21
222.3857141230058
 31
0.0
  0
ARC
  5
307
330
1F
100
AcDbEntity
  8
0
100
AcDbCircle
 10
347.747037862223
 20
222.3230857714058
 30
0.0
 40
3.298465414207639
100
AcDbArc
 50
178.9120529059002
 51
257.7512690561999
  0
LINE
  5
308
330
1F
100
AcDbEntity
  8
0
100
AcDbLine
 10
347.047248544023
 20
219.0997072645058
 30
0.0
 11
368.264868768723
 21
215.9291742860058
 31
0.0
  0
ARC
  5
309
330
1F
100
AcDbEntity
  8
0
100
AcDbCircle
 10
368.540790732523
 20
218.2431495348058
 30
0.0
 40
2.330367864170858
100
AcDbArc
 50
263.2000702935009
 51
4.814179097600174
  0
SPLINE
  5
30A
330
1F
100
AcDbEntity
  8
0
100
AcDbSpline
210
0.0
220
0.0
230
1.0
 70
     8
 71
     3
 72
    14
 73
    10
 74
     0
 42
0.000000001
 43
0.00000001
 40
0.0
 40
0.0
 40
0.0
 40
0.0
 40
0.1163545795585166
 40
0.2359508553392611
 40
0.4105768359246088
 40
0.5899819142411983
 40
0.7919483299546793
 40
0.9979749531348077
 40
1.0
 40
1.0
 40
1.0
 40
1.0
 10
325.2788620960126
 20
219.2013086734788
 30
0.0
 10
325.4088643097745
 20
219.1108986792261
 30
0.0
 10
325.6724906633694
 20
218.9275598234966
 30
0.0
 10
326.3049295033893
 20
218.8908261767297
 30
0.0
 10
327.1884812608495
 20
219.0582189500028
 30
0.0
 10
328.4205852033644
 20
219.4868627959137
 30
0.0
 10
329.9037562768989
 20
220.1125737436504
 30
0.0
 10
331.0574119172238
 20
220.6343363094889
 30
0.0
 10
331.6693329950393
 20
220.9110714581384
 30
0.0
 10
331.6752890580698
 20
220.913765027698
 30
0.0
  0
ARC
  5
30B
330
1F
100
AcDbEntity
  8
0
100
AcDbCircle
 10
377.406828437523
 20
217.7484477462058
 30
0.0
 40
3.308632393847225
100
AcDbArc
 50
296.5007566296995
 51
2.96935519880024
  0
LWPOLYLINE
  5
30C
330
1F
100
AcDbEntity
  8
0
100
AcDbPolyline
 90
       11
 70
   128
 43
0.0
 10
324.800291895323
 20
286.8775137124057
 10
324.800807381223
 20
286.8466829019058
 10
324.905963653923
 20
286.4371585252057
 10
325.192594722423
 20
286.0334920871057
 10
325.656895831623
 20
285.6410511580058
 10
326.292686504023
 20
285.2650561972058
 10
327.091515103523
 20
284.9105078688058
 10
328.042747368323
 20
284.5821225998058
 10
329.1337394909229
 20
284.2842674707058
 10
330.349979935023
 20
284.0209042335058
 10
331.675289058023
 20
283.7955361011058
  0
LINE
  5
30D
330
1F
100
AcDbEntity
  8
0
100
AcDbLine
 10
361.663262723523
 20
299.9935096581058
 30
0.0
 11
361.663262723523
 21
296.1083451357058
 31
0.0
  0
LINE
  5
30E
330
1F
100
AcDbEntity
  8
0
100
AcDbLine
 10
344.449167067523
 20
227.6017141700058
 30
0.0
 11
344.665673023423
 21
227.6987711348058
 31
0.0
  0
ARC
  5
30F
330
1F
100
AcDbEntity
  8
0
100
AcDbCircle
 10
332.416944203023
 20
242.5128860586058
 30
0.0
 40
13.02351574625568
100
AcDbArc
 50
237.7167180044001
 51
266.7353891259001
  0
ARC
  5
310
330
1F
100
AcDbEntity
  8
0
100
AcDbCircle
 10
326.053083826323
 20
220.1878066989058
 30
0.0
 40
1.254032552147947
100
AcDbArc
 50
182.5488168317995
 51
231.8745272562988
  0
SPLINE
  5
311
330
1F
100
AcDbEntity
  8
0
100
AcDbSpline
210
0.0
220
0.0
230
1.0
 70
     8
 71
     3
 72
    11
 73
     7
 74
     0
 42
0.000000001
 43
0.00000001
 40
0.0
 40
0.0
 40
0.0
 40
0.0
 40
0.4310350432041803
 40
0.7083093124874962
 40
0.8903885492865333
 40
1.0
 40
1.0
 40
1.0
 40
1.0
 10
337.6330073043771
 20
282.8548173489397
 30
0.0
 10
337.3766718311143
 20
282.8194185738619
 30
0.0
 10
336.955442036239
 20
282.7612486351677
 30
0.0
 10
336.4770006134028
 20
282.5039778767305
 30
0.0
 10
336.217579886886
 20
282.2725076988959
 30
0.0
 10
336.1359698183107
 20
282.1195885231288
 30
0.0
 10
336.1053024079601
 20
282.0621245950182
 30
0.0
  0
LINE
  5
312
330
1F
100
AcDbEntity
  8
0
100
AcDbLine
 10
337.881420104723
 20
282.8681557640058
 30
0.0
 11
337.633007304423
 21
282.8548173489057
 31
0.0
  0
ARC
  5
313
330
1F
100
AcDbEntity
  8
0
100
AcDbCircle
 10
335.128944617623
 20
283.3001656895058
 30
0.0
 40
53.62975712547578
100
AcDbArc
 50
272.6762083850999
 51
280.2431089422
  0
SPLINE
  5
314
330
1F
100
AcDbEntity
  8
0
100
AcDbSpline
210
0.0
220
0.0
230
1.0
 70
     8
 71
     3
 72
    11
 73
     7
 74
     0
 42
0.000000001
 43
0.00000001
 40
0.0
 40
0.0
 40
0.0
 40
0.0
 40
0.181315186646701
 40
0.4281015677592757
 40
0.8057868619343266
 40
1.0
 40
1.0
 40
1.0
 40
1.0
 10
336.1053024079601
 20
230.3983821356399
 30
0.0
 10
336.1614757675703
 20
230.3087803394309
 30
0.0
 10
336.2941061542474
 20
230.0972223881059
 30
0.0
 10
336.7113195134604
 20
229.8535326566119
 30
0.0
 10
337.1806540045928
 20
229.7263847846105
 30
0.0
 10
337.5183334666875
 20
229.7282622978853
 30
0.0
 10
337.6330073043771
 20
229.7288998896748
 30
0.0
  0
SPLINE
  5
315
330
1F
100
AcDbEntity
  8
0
100
AcDbSpline
210
0.0
220
0.0
230
1.0
 70
     8
 71
     3
 72
    21
 73
    17
 74
     0
 42
0.000000001
 43
0.00000001
 40
0.0
 40
0.0
 40
0.0
 40
0.0
 40
0.1169499555286139
 40
0.2339051846015879
 40
0.293411881693524
 40
0.3530693015272744
 40
0.4124514468230198
 40
0.4715815573075285
 40
0.5115238654679968
 40
0.5514859793758388
 40
0.5932831865831197
 40
0.6351118935936166
 40
0.725981531567406
 40
0.8168792739813734
 40
0.9084409423834519
 40
1.0
 40
1.0
 40
1.0
 40
1.0
 10
336.1053024079601
 20
282.0621245950182
 30
0.0
 10
335.2572696894391
 20
280.084337529206
 30
0.0
 10
333.5611660126377
 20
276.1286742145821
 30
0.0
 10
331.5752337880497
 20
271.2014333835275
 30
0.0
 10
330.0395119635449
 20
267.26437165375
 30
0.0
 10
328.9615611705153
 20
264.2767893208069
 30
0.0
 10
328.1039373142389
 20
261.2225291015986
 30
0.0
 10
327.6244583984524
 20
258.4189209830885
 30
0.0
 10
327.5536864690343
 20
255.8913458493235
 30
0.0
 10
327.7748249399536
 20
253.6619682337484
 30
0.0
 10
328.2311491666787
 20
251.4178104062713
 30
0.0
 10
329.0819120808245
 20
248.2908223545716
 30
0.0
 10
330.397300841195
 20
244.3500716798393
 30
0.0
 10
332.2115889660312
 20
239.6302179043609
 30
0.0
 10
334.1146279811357
 20
234.9672586294964
 30
0.0
 10
335.4417505726948
 20
231.9213264914557
 30
0.0
 10
336.1053024079601
 20
230.3983821356399
 30
0.0
  0
SPLINE
  5
316
330
1F
100
AcDbEntity
  8
0
100
AcDbSpline
210
0.0
220
0.0
230
1.0
 70
     8
 71
     3
 72
    15
 73
    11
 74
     0
 42
0.000000001
 43
0.00000001
 40
0.0
 40
0.0
 40
0.0
 40
0.0
 40
0.1236775585877004
 40
0.2473476609950417
 40
0.374387342675627
 40
0.5014237935669691
 40
0.6243760338002474
 40
0.7473310485467421
 40
0.8736614518586435
 40
0.9999999999999999
 40
0.9999999999999999
 40
0.9999999999999999
 40
0.9999999999999999
 10
252.8496907081932
 20
242.839205364033
 30
0.0
 10
252.2073710203433
 20
244.856127908305
 30
0.0
 10
250.9227703683335
 20
248.8898514021276
 30
0.0
 10
249.6003147552079
 20
255.2187963199927
 30
0.0
 10
248.7674419333112
 20
261.726628434074
 30
0.0
 10
248.4949944712743
 20
268.3179077592961
 30
0.0
 10
248.7678667281486
 20
274.8812416280474
 30
0.0
 10
249.5745801148775
 20
281.4283290264575
 30
0.0
 10
250.8842768209593
 20
287.9978577759496
 30
0.0
 10
252.1945386669392
 20
292.3345378763677
 30
0.0
 10
252.8496907081932
 20
294.5029478234113
 30
0.0
  0
LINE
  5
317
330
1F
100
AcDbEntity
  8
0
100
AcDbLine
 10
324.800288708523
 20
292.4619125559058
 30
0.0
 11
266.351575822523
 21
301.1958596148057
 31
0.0
  0
ARC
  5
318
330
1F
100
AcDbEntity
  8
0
100
AcDbCircle
 10
333.289493837923
 20
298.9693297798058
 30
0.0
 40
15.30222351968943
100
AcDbArc
 50
250.8223347711
 51
259.8202525777001
  0
LINE
  5
319
330
1F
100
AcDbEntity
  8
0
100
AcDbLine
 10
333.693288555223
 20
283.4939851009058
 30
0.0
 11
332.717291120323
 21
283.5893691087058
 31
0.0
  0
LINE
  5
31A
330
1F
100
AcDbEntity
  8
0
100
AcDbLine
 10
266.351575822523
 20
301.1958596148057
 30
0.0
 11
253.486771927223
 21
295.4287258013057
 31
0.0
  0
SPLINE
  5
31B
330
1F
100
AcDbEntity
  8
0
100
AcDbSpline
210
0.0
220
0.0
230
1.0
 70
     8
 71
     3
 72
     9
 73
     5
 74
     0
 42
0.000000001
 43
0.00000001
 40
0.0
 40
0.0
 40
0.0
 40
0.0
 40
0.8151043073005348
 40
1.0
 40
1.0
 40
1.0
 40
1.0
 10
330.5850271844875
 20
283.9079916995764
 30
0.0
 10
331.1435493668713
 20
283.8103947874639
 30
0.0
 10
331.8287649612209
 20
283.6906592993324
 30
0.0
 10
332.5786420723839
 20
283.6051748206407
 30
0.0
 10
332.7172911202919
 20
283.5893691087381
 30
0.0
  0
SPLINE
  5
31C
330
1F
100
AcDbEntity
  8
0
100
AcDbSpline
210
0.0
220
0.0
230
1.0
 70
     8
 71
     3
 72
    11
 73
     7
 74
     0
 42
0.000000001
 43
0.00000001
 40
0.0
 40
0.0
 40
0.0
 40
0.0
 40
0.2605075460127252
 40
0.521187895191889
 40
0.777343865180172
 40
1.0
 40
1.0
 40
1.0
 40
1.0
 10
252.8496907081932
 20
294.5029478234113
 30
0.0
 10
252.8903713940472
 20
294.6123806102264
 30
0.0
 10
252.9717597505832
 20
294.8313187741995
 30
0.0
 10
253.1446687863618
 20
295.1194310768815
 30
0.0
 10
253.3245922522719
 20
295.3329654288924
 30
0.0
 10
253.43529375966
 20
295.3983300782131
 30
0.0
 10
253.4867719272048
 20
295.4287258013485
 30
0.0
  0
SPLINE
  5
31D
330
1F
100
AcDbEntity
  8
0
100
AcDbSpline
210
0.0
220
0.0
230
1.0
 70
     8
 71
     3
 72
    11
 73
     7
 74
     0
 42
0.000000001
 43
0.00000001
 40
0.0
 40
0.0
 40
0.0
 40
0.0
 40
0.0290888890008182
 40
0.3472229855963248
 40
0.6691706079571478
 40
1.0
 40
1.0
 40
1.0
 40
1.0
 10
253.329342955328
 20
242.2857088485522
 30
0.0
 10
253.3240700933762
 20
242.2850074726789
 30
0.0
 10
253.2611299491348
 20
242.2766354160931
 30
0.0
 10
253.1344130936831
 20
242.3660528746659
 30
0.0
 10
252.9686609886737
 20
242.5487804007171
 30
0.0
 10
252.8897055609885
 20
242.7415228830954
 30
0.0
 10
252.8496907081932
 20
242.839205364033
 30
0.0
  0
LINE
  5
31E
330
1F
100
AcDbEntity
  8
0
  6
Continuous
 62
     8
370
     0
100
AcDbLine
 10
370.646433776923
 20
282.5119564239058
 30
0.0
 11
370.862939732823
 21
282.6090133888058
 31
0.0
  0
LINE
  5
31F
330
1F
100
AcDbEntity
  8
0
  6
Continuous
 62
     8
370
     0
100
AcDbLine
 10
367.615345173423
 20
286.3456297532058
 30
0.0
 11
367.938549962723
 21
286.4905184964058
 31
0.0
  0
LINE
  5
320
330
1F
100
AcDbEntity
  8
0
  6
Continuous
 62
     8
370
     0
100
AcDbLine
 10
370.646433776923
 20
219.1472246072058
 30
0.0
 11
370.862939732823
 21
219.2442815721058
 31
0.0
  0
LINE
  5
321
330
1F
100
AcDbEntity
  8
0
  6
Continuous
 62
     8
370
     0
100
AcDbLine
 10
347.696759234523
 20
289.3220490187058
 30
0.0
 11
348.019964023823
 21
289.4669377620057
 31
0.0
  0
ELLIPSE
  5
322
330
1F
100
AcDbEntity
  8
0
  6
Continuous
 62
     8
370
     0
100
AcDbEllipse
 10
371.996915481723
 20
287.5624796195058
 30
0.0
 11
-1.151216170257982
 21
3.848487701478462
 31
0.0
210
0.0
220
0.0
230
1.0
 40
0.709735889
 41
4.313509313998343
 42
5.884305640793248
  0
ARC
  5
323
330
1F
100
AcDbEntity
  8
0
  6
Continuous
 62
     8
370
     0
100
AcDbCircle
 10
372.321299027723
 20
295.1959517970058
 30
0.0
 40
8.781399607827272
100
AcDbArc
 50
260.4403721301001
 51
287.493855098
  0
ELLIPSE
  5
324
330
1F
100
AcDbEntity
  8
0
  6
Continuous
 62
     8
370
     0
100
AcDbEllipse
 10
371.996915481723
 20
287.5624796195058
 30
0.0
 11
0.3144699853138775
 21
3.996686092407062
 31
0.0
210
0.0
220
0.0
230
1.0
 40
0.2726004718
 41
0.2810000410653744
 42
1.851796367860255
  0
ARC
  5
325
330
1F
100
AcDbEntity
  8
0
  6
Continuous
 62
     8
370
     0
100
AcDbCircle
 10
372.321299027723
 20
223.7174392807058
 30
0.0
 40
8.781399607826135
100
AcDbArc
 50
260.4403721301
 51
287.493855098
  0
LINE
  5
326
330
1F
100
AcDbEntity
  8
0
  6
Continuous
 62
     8
370
     0
100
AcDbLine
 10
370.862937340423
 20
218.4387243639058
 30
0.0
 11
370.862937340423
 21
215.0579843174058
 31
0.0
  0
LINE
  5
327
330
1F
100
AcDbEntity
  8
0
  6
Continuous
 62
     8
370
     0
100
AcDbLine
 10
370.862937340423
 20
286.5364968337058
 30
0.0
 11
370.862937340423
 21
283.1557567872057
 31
0.0
  0
LINE
  5
328
330
1F
100
AcDbEntity
  8
0
  6
Continuous
 62
     8
370
     0
100
AcDbLine
 10
374.961018597123
 20
286.8206989849058
 30
0.0
 11
374.961018597123
 21
215.3421864685058
 31
0.0
  0
LINE
  5
329
330
1F
100
AcDbEntity
  8
0
  6
Continuous
 62
     8
370
     0
100
AcDbLine
 10
325.278862096023
 20
298.4072286170058
 30
0.0
 11
371.996910043823
 21
291.4261859674058
 31
0.0
  0
LINE
  5
32A
330
1F
100
AcDbEntity
  8
0
  6
Continuous
 62
     8
370
     0
100
AcDbLine
 10
370.862937340423
 20
286.5364968337058
 30
0.0
 11
331.675289058023
 21
292.3922775441058
 31
0.0
  0
LINE
  5
32B
330
1F
100
AcDbEntity
  8
0
  6
Continuous
 62
     8
370
     0
100
AcDbLine
 10
331.675289058023
 20
292.3922775441058
 30
0.0
 11
331.675289058023
 21
283.7955361011058
 31
0.0
  0
LINE
  5
32C
330
1F
100
AcDbEntity
  8
0
  6
Continuous
 62
     8
370
     0
100
AcDbLine
 10
371.996910043823
 20
291.4261859674058
 30
0.0
 11
377.246909973023
 21
293.7796965501058
 31
0.0
  0
LINE
  5
32D
330
1F
100
AcDbEntity
  8
0
  6
Continuous
 62
     8
370
     0
100
AcDbLine
 10
380.711018608323
 20
289.3983534724058
 30
0.0
 11
374.961018597123
 21
286.8206989849058
 31
0.0
  0
LINE
  5
32E
330
1F
100
AcDbEntity
  8
0
  6
Continuous
 62
     8
370
     0
100
AcDbLine
 10
374.961018597123
 20
215.3421864685058
 30
0.0
 11
380.711018608323
 21
217.9198409560058
 31
0.0
  0
LINE
  5
32F
330
1F
100
AcDbEntity
  8
0
  6
Continuous
 62
     8
370
     0
100
AcDbLine
 10
344.766806273123
 20
287.2451403066058
 30
0.0
 11
344.449167067523
 21
287.1027465462058
 31
0.0
  0
LINE
  5
330
330
1F
100
AcDbEntity
  8
0
  6
Continuous
 62
     8
370
     0
100
AcDbLine
 10
331.675289058023
 20
220.9137650277058
 30
0.0
 11
370.862937340423
 21
215.0579843174058
 31
0.0
  0
LINE
  5
331
330
1F
100
AcDbEntity
  8
0
  6
Continuous
 62
     8
370
     0
100
AcDbLine
 10
331.675289058023
 20
229.5105051213058
 30
0.0
 11
331.675289058023
 21
220.9137650277058
 31
0.0
  0
ELLIPSE
  5
332
330
1F
100
AcDbEntity
  8
0
  6
Continuous
 62
     8
370
     0
100
AcDbEllipse
 10
371.996915481723
 20
216.0839684741058
 30
0.0
 11
-1.151216170257981
 21
3.84848770147843
 31
0.0
210
0.0
220
0.0
230
1.0
 40
0.7097358890000001
 41
3.235017131215101
 42
4.31350931399834
  0
ELLIPSE
  5
333
330
1F
100
AcDbEntity
  8
0
  6
Continuous
 62
     8
370
     0
100
AcDbEllipse
 10
371.996915481723
 20
216.0839684741058
 30
0.0
 11
0.3144699853138775
 21
3.996686092407062
 31
0.0
210
0.0
220
0.0
230
1.0
 40
0.2726004718
 41
1.851796367860255
 42
3.122645082188309
  0
LINE
  5
334
330
1F
100
AcDbEntity
  8
0
  6
Continuous
 62
     8
370
     0
100
AcDbLine
 10
369.764868548923
 20
216.6016057915058
 30
0.0
 11
368.264868768723
 21
215.9291742860058
 31
0.0
  0
LINE
  5
335
330
1F
100
AcDbEntity
  8
0
  6
Continuous
 62
     8
370
     0
100
AcDbLine
 10
347.397997198523
 20
219.2569435847058
 30
0.0
 11
347.047248544023
 21
219.0997072645058
 31
0.0
  0
LINE
  5
336
330
1F
100
AcDbEntity
  8
0
  6
Continuous
 62
     8
370
     0
100
AcDbLine
 10
344.702413233323
 20
222.4992412733058
 30
0.0
 11
344.449167067523
 21
222.3857141230058
 31
0.0
  0
LINE
  5
337
330
1F
100
AcDbEntity
  8
0
  6
Continuous
 62
     8
370
     0
100
AcDbLine
 10
336.105302407923
 20
282.0621245950058
 30
0.0
 11
252.849690708223
 21
294.5029478234057
 31
0.0
  0
LINE
  5
338
330
1F
100
AcDbEntity
  8
0
  6
Continuous
 62
     8
370
     0
100
AcDbLine
 10
252.849690708223
 20
242.8392053640058
 30
0.0
 11
336.105302407923
 21
230.3983821356058
 31
0.0
  0
LINE
  5
339
330
1F
100
AcDbEntity
  8
0
  6
Continuous
 62
     8
370
     0
100
AcDbLine
 10
332.717291120323
 20
283.5893691087058
 30
0.0
 11
337.633007304423
 21
282.8548173489057
 31
0.0
  0
LINE
  5
33A
330
1F
100
AcDbEntity
  8
0
  6
Continuous
 62
     8
370
     0
100
AcDbLine
 10
253.486771927223
 20
295.4287258013057
 30
0.0
 11
330.585027184523
 21
283.9079916996058
 31
0.0
  0
HATCH
  5
44D
330
1F
100
AcDbEntity
  8
TRATTEGGIO
 62
     4
100
AcDbHatch
 10
0.0
 20
0.0
 30
0.0
210
0.0
220
0.0
230
1.0
  2
ANSI38
 70
     0
 71
     0
 91
        1
 92
        0
 93
        3
 72
     4
 94
        3
 73
     1
 74
     0
 95
        8
 96
        4
 40
0.8928888183367241
 40
0.8928888183367241
 40
0.8928888183367241
 40
0.8928888183367241
 40
0.9435004190633052
 40
0.9435004190633052
 40
0.9435004190633052
 40
0.9435004190633052
 10
533.481706578141
 20
539.4691194041352
 42
1.0
 10
533.7919009204552
 20
540.518634775755
 42
1.0
 10
534.1748308301429
 20
541.5324211375695
 42
1.0
 10
534.6100047080446
 20
542.4691194222054
 42
1.0
 97
        0
 72
     1
 10
534.6100047080445
 20
542.4691194222054
 11
534.6100046996486
 21
542.4691194041334
 72
     4
 94
        3
 73
     1
 74
     0
 95
        8
 96
        4
 40
0.0564995812621844
 40
0.0564995812621844
 40
0.0564995812621844
 40
0.0564995812621844
 40
0.1071111816632765
 40
0.1071111816632765
 40
0.1071111816632765
 40
0.1071111816632765
 10
534.6100046996486
 20
542.4691194041334
 42
1.0
 10
534.1748308252177
 20
541.53242112453
 42
1.0
 10
533.7919009184603
 20
540.5186347690054
 42
1.0
 10
533.4817065781411
 20
539.4691194041352
 42
1.0
 97
        0
 97
        0
 75
     0
 76
     1
 52
0.0
 41
1.0
 77
     0
 78
     2
 53
45.0
 43
0.0
 44
0.0
 45
-2.245064030267288
 46
2.245064030267288
 79
     0
 53
135.0
 43
0.0
 44
0.0
 45
-6.735192090801864
 46
2.245064030267289
 79
     2
 49
7.9375
 49
-4.7625
 98
        1
 10
0.0
 20
0.0
  0
HATCH
  5
7F2
330
1F
100
AcDbEntity
  8
TRATTEGGIO
 62
     4
100
AcDbHatch
 10
0.0
 20
0.0
 30
0.0
210
0.0
220
0.0
230
1.0
  2
ANSI38
 70
     0
 71
     0
 91
        1
 92
        0
 93
        2
 72
     4
 94
        3
 73
     1
 74
     0
 95
        8
 96
        4
 40
0.9006298123297564
 40
0.9006298123297564
 40
0.9006298123297564
 40
0.9006298123297564
 40
0.9522543839155664
 40
0.9522543839155664
 40
0.9522543839155664
 40
0.9522543839155664
 10
875.8589757229629
 20
538.8098833944739
 42
1.0
 10
876.1975845014309
 20
539.8682693196137
 42
1.0
 10
876.6086086468127
 20
540.882900138846
 42
1.0
 10
877.0703013764487
 20
541.809883394478
 42
1.0
 97
        0
 72
     4
 94
        3
 73
     1
 74
     0
 95
        8
 96
        4
 40
0.0477456160845579
 40
0.0477456160845579
 40
0.0477456160845579
 40
0.0477456160845579
 40
0.0993701876702432
 40
0.0993701876702432
 40
0.0993701876702432
 40
0.0993701876702432
 10
877.0703013764454
 20
541.8098833944712
 42
1.0
 10
876.6086086468108
 20
540.8829001388411
 42
1.0
 10
876.19758450143
 20
539.868269319611
 42
1.0
 10
875.8589757229629
 20
538.8098833944739
 42
1.0
 97
        0
 97
        0
 75
     0
 76
     1
 52
0.0
 41
1.0
 77
     0
 78
     2
 53
45.0
 43
0.0
 44
0.0
 45
-2.245064030267288
 46
2.245064030267288
 79
     0
 53
135.0
 43
0.0
 44
0.0
 45
-6.735192090801864
 46
2.245064030267289
 79
     2
 49
7.9375
 49
-4.7625
 98
        1
 10
0.0
 20
0.0
  0
CIRCLE
  5
F92
330
1F
100
AcDbEntity
  8
0
  6
HIDDEN
 62
     1
370
     0
100
AcDbCircle
 10
214.9658370395
 20
385.47772482
 30
0.0
 40
2.649999999999977
  0
CIRCLE
  5
F93
330
1F
100
AcDbEntity
  8
0
  6
HIDDEN
 62
     1
370
     0
100
AcDbCircle
 10
214.9658370395
 20
385.47772482
 30
0.0
 40
5.200000000000035
  0
CIRCLE
  5
FBA
330
1F
100
AcDbEntity
  8
0
  6
CENTER
 62
     1
100
AcDbCircle
 10
108.715838976953
 20
415.4777220782229
 30
0.0
 40
10.0
  0
LINE
  5
FBB
330
1F
100
AcDbEntity
  8
0
  6
CENTER
 62
     1
100
AcDbLine
 10
94.67583897695306
 20
415.4777220782231
 30
0.0
 11
122.755838976953
 21
415.4777220782231
 31
0.0
  0
LINE
  5
FBC
330
1F
100
AcDbEntity
  8
0
  6
CENTER
 62
     1
100
AcDbLine
 10
108.715838976953
 20
401.4377220782226
 30
0.0
 11
108.715838976953
 21
429.5177220782231
 31
0.0
  0
CIRCLE
  5
FBD
330
1F
100
AcDbEntity
  8
0
  6
CENTER
 62
     1
100
AcDbCircle
 10
153.715838976953
 20
415.4777220782229
 30
0.0
 40
10.0
  0
LINE
  5
FBE
330
1F
100
AcDbEntity
  8
0
  6
CENTER
 62
     1
100
AcDbLine
 10
139.6758389769531
 20
415.4777220782231
 30
0.0
 11
167.755838976953
 21
415.4777220782231
 31
0.0
  0
LINE
  5
FBF
330
1F
100
AcDbEntity
  8
0
  6
CENTER
 62
     1
100
AcDbLine
 10
153.715838976953
 20
401.4377220782226
 30
0.0
 11
153.715838976953
 21
429.5177220782231
 31
0.0
  0
CIRCLE
  5
FF6
330
1F
100
AcDbEntity
  8
0
  6
Continuous
 62
     7
100
AcDbCircle
 10
296.9690975610001
 20
425.9663228199999
 30
0.0
 40
1.55
  0
CIRCLE
  5
FF7
330
1F
100
AcDbEntity
  8
0
  6
Continuous
 62
     7
100
AcDbCircle
 10
286.4650255609999
 20
415.4703958199997
 30
0.0
 40
1.55
  0
CIRCLE
  5
FF8
330
1F
100
AcDbEntity
  8
0
  6
Continuous
 62
     7
100
AcDbCircle
 10
307.465024561
 20
415.4622518200001
 30
0.0
 40
1.55
  0
CIRCLE
  5
FF9
330
1F
100
AcDbEntity
  8
0
  6
Continuous
 62
     7
100
AcDbCircle
 10
296.9609525610001
 20
404.9663248199998
 30
0.0
 40
1.55
  0
LINE
  5
FFA
330
1F
100
AcDbEntity
  8
0
  6
CENTER
 62
     1
100
AcDbLine
 10
296.9650245610001
 20
399.97771982
 30
0.0
 11
296.9650245610001
 21
430.97772882
 31
0.0
  0
LINE
  5
FFB
330
1F
100
AcDbEntity
  8
0
  6
CENTER
 62
     1
100
AcDbLine
 10
281.4650205610001
 20
415.47772482
 30
0.0
 11
311.9650255609999
 21
415.46632382
 31
0.0
  0
LINE
  5
FFC
330
1F
100
AcDbEntity
  8
0
  6
CENTER
 62
     1
100
AcDbLine
 10
307.465024561
 20
411.91225182
 30
0.0
 11
307.465024561
 21
419.0122518199998
 31
0.0
  0
LINE
  5
FFD
330
1F
100
AcDbEntity
  8
0
  6
CENTER
 62
     1
100
AcDbLine
 10
286.4650255609999
 20
411.9203958199999
 30
0.0
 11
286.4650255609999
 21
419.02039582
 31
0.0
  0
LINE
  5
FFE
330
1F
100
AcDbEntity
  8
0
  6
CENTER
 62
     1
100
AcDbLine
 10
293.4190975609999
 20
425.9663228199999
 30
0.0
 11
300.5190975610001
 21
425.9663228199999
 31
0.0
  0
LINE
  5
FFF
330
1F
100
AcDbEntity
  8
0
  6
CENTER
 62
     1
100
AcDbLine
 10
293.4109525610002
 20
404.9663248199998
 30
0.0
 11
300.510952561
 21
404.9663248199998
 31
0.0
  0
LINE
  5
1014
330
1F
100
AcDbEntity
  8
0
  6
CENTER
 62
     1
100
AcDbLine
 10
152.7158370395
 20
508.1949230057
 30
0.0
 11
152.7158370395
 21
521.1949230057
 31
0.0
  0
LINE
  5
1015
330
1F
100
AcDbEntity
  8
0
  6
CENTER
 62
     1
100
AcDbLine
 10
146.2158370395
 20
514.6949230057
 30
0.0
 11
159.2158370395
 21
514.6949230057
 31
0.0
  0
ENDSEC
  0
SECTION
  2
OBJECTS
  0
DICTIONARY
  5
C
330
0
100
AcDbDictionary
281
     1
  3
ACAD_DETAILVIEWSTYLE
350
F90
  3
ACAD_GROUP
350
D
  3
ACAD_IMAGE_VARS
350
85F
  3
ACAD_LAYOUT
350
1A
  3
ACAD_MATERIAL
350
857
  3
ACAD_MLEADERSTYLE
350
869
  3
ACAD_MLINESTYLE
350
17
  3
ACAD_PLOTSETTINGS
350
19
  3
ACAD_PLOTSTYLENAME
350
E
  3
ACAD_SCALELIST
350
47
  3
ACAD_SECTIONVIEWSTYLE
350
F91
  3
ACAD_TABLESTYLE
350
85B
  3
ACAD_VISUALSTYLE
350
83E
  3
ACDB_RECOMPOSE_DATA
350
101F
  3
AcDbVariableDictionary
350
F8D
  3
APPDATA
350
85D
  0
SUN
  5
85E
330
29
100
AcDbSun
 90
        1
290
     0
 63
     7
421
 16777215
 40
1.0
291
     1
 91
  2455826
 92
 54000000
292
     0
 70
     2
 71
   256
280
     1
  0
DICTIONARY
  5
F90
102
{ACAD_REACTORS
330
C
102
}
330
C
100
AcDbDictionary
281
     1
  0
DICTIONARY
  5
D
102
{ACAD_REACTORS
330
C
102
}
330
C
100
AcDbDictionary
281
     1
  0
RASTERVARIABLES
  5
85F
102
{ACAD_REACTORS
330
C
102
}
330
C
100
AcDbRasterVariables
 90
        0
 70
     1
 71
     1
 72
     1
  0
DICTIONARY
  5
1A
102
{ACAD_REACTORS
330
C
102
}
330
C
100
AcDbDictionary
281
     1
  3
Layout1
350
1E
  3
Layout2
350
26
  3
Model
350
22
  0
DICTIONARY
  5
857
102
{ACAD_REACTORS
330
C
102
}
330
C
100
AcDbDictionary
281
     1
  3
ByBlock
350
859
  3
ByLayer
350
858
  3
Global
350
85A
  0
DICTIONARY
  5
869
102
{ACAD_REACTORS
330
C
102
}
330
C
100
AcDbDictionary
281
     1
  0
DICTIONARY
  5
17
102
{ACAD_REACTORS
330
C
102
}
330
C
100
AcDbDictionary
281
     1
  3
Standard
350
18
  0
DICTIONARY
  5
19
102
{ACAD_REACTORS
330
C
102
}
330
C
100
AcDbDictionary
281
     1
  0
ACDBDICTIONARYWDFLT
  5
E
102
{ACAD_REACTORS
330
C
102
}
330
C
100
AcDbDictionary
281
     1
  3
Normal
350
F
100
AcDbDictionaryWithDefault
340
F
  0
DICTIONARY
  5
47
102
{ACAD_REACTORS
330
C
102
}
330
C
100
AcDbDictionary
281
     1
  3
A0
350
48
  3
A1
350
49
  3
A2
350
4A
  3
A3
350
4B
  3
A4
350
4C
  3
A5
350
4D
  3
A6
350
4E
  3
A7
350
4F
  3
A8
350
50
  3
A9
350
51
  3
B0
350
52
  3
B1
350
53
  3
B2
350
54
  3
B3
350
55
  3
B4
350
56
  3
B5
350
57
  3
B6
350
58
  3
B7
350
59
  3
B8
350
5A
  3
B9
350
5B
  3
C0
350
5C
  3
C1
350
5D
  3
C2
350
5E
  3
C3
350
5F
  3
C4
350
60
  3
C5
350
61
  3
C6
350
62
  3
C7
350
63
  3
C8
350
64
  3
C9
350
65
  3
D0
350
66
  3
D1
350
67
  3
D2
350
68
  0
DICTIONARY
  5
F91
102
{ACAD_REACTORS
330
C
102
}
330
C
100
AcDbDictionary
281
     1
  0
DICTIONARY
  5
85B
102
{ACAD_REACTORS
330
C
102
}
330
C
100
AcDbDictionary
281
     1
  3
Standard
350
85C
  0
DICTIONARY
  5
83E
102
{ACAD_REACTORS
330
C
102
}
330
C
100
AcDbDictionary
281
     1
  3
2dWireframe
350
843
  3
Basic
350
846
  3
Brighten
350
84A
  3
ColorChange
350
84E
  3
Conceptual
350
848
  3
Dim
350
849
  3
EdgeColorOff
350
851
  3
Facepattern
350
84D
  3
Flat
350
83F
  3
FlatWithEdges
350
840
  3
Gouraud
350
841
  3
GouraudWithEdges
350
842
  3
Hidden
350
845
  3
JitterOff
350
84F
  3
Linepattern
350
84C
  3
OverhangOff
350
850
  3
Realistic
350
847
  3
Shaded
350
856
  3
Shaded with edges
350
855
  3
Shades of Gray
350
852
  3
Sketchy
350
853
  3
Thicken
350
84B
  3
Wireframe
350
844
  3
X-Ray
350
854
  0
XRECORD
  5
101F
102
{ACAD_REACTORS
330
C
102
}
330
C
100
AcDbXrecord
280
     1
 90
        1
330
85C
  0
DICTIONARY
  5
F8D
102
{ACAD_REACTORS
330
C
102
}
330
C
100
AcDbDictionary
281
     1
  3
CANNOSCALE
350
FD2
  3
CTABLESTYLE
350
F8E
  3
MSLTSCALE
350
F8F
  0
DICTIONARY
  5
85D
102
{ACAD_REACTORS
330
C
102
}
330
C
100
AcDbDictionary
281
     1
  0
LAYOUT
  5
1E
102
{ACAD_REACTORS
330
1A
102
}
330
1A
100
AcDbPlotSettings
  1

  2
none_device
  4

  6

 40
0.0
 41
0.0
 42
0.0
 43
0.0
 44
0.0
 45
0.0
 46
0.0
 47
0.0
 48
0.0
 49
0.0
140
0.0
141
0.0
142
1.0
143
1.0
 70
   688
 72
     1
 73
     0
 74
     5
  7

 75
    16
 76
     0
 77
     2
 78
   300
147
1.0
148
0.0
149
0.0
100
AcDbLayout
  1
Layout1
 70
     1
 71
     1
 10
0.0
 20
0.0
 11
420.0
 21
297.0
 12
0.0
 22
0.0
 32
0.0
 14
1.000000000000000E+20
 24
1.000000000000000E+20
 34
1.000000000000000E+20
 15
-1.000000000000000E+20
 25
-1.000000000000000E+20
 35
-1.000000000000000E+20
146
0.0
 13
0.0
 23
0.0
 33
0.0
 16
1.0
 26
0.0
 36
0.0
 17
0.0
 27
1.0
 37
0.0
 76
     0
330
1B
  0
LAYOUT
  5
26
102
{ACAD_REACTORS
330
1A
102
}
330
1A
100
AcDbPlotSettings
  1

  2
none_device
  4

  6

 40
0.0
 41
0.0
 42
0.0
 43
0.0
 44
0.0
 45
0.0
 46
0.0
 47
0.0
 48
0.0
 49
0.0
140
0.0
141
0.0
142
1.0
143
1.0
 70
   688
 72
     1
 73
     0
 74
     5
  7

 75
    16
 76
     0
 77
     2
 78
   300
147
1.0
148
0.0
149
0.0
100
AcDbLayout
  1
Layout2
 70
     1
 71
     2
 10
0.0
 20
0.0
 11
0.0
 21
0.0
 12
0.0
 22
0.0
 32
0.0
 14
0.0
 24
0.0
 34
0.0
 15
0.0
 25
0.0
 35
0.0
146
0.0
 13
0.0
 23
0.0
 33
0.0
 16
1.0
 26
0.0
 36
0.0
 17
0.0
 27
1.0
 37
0.0
 76
     0
330
23
  0
LAYOUT
  5
22
102
{ACAD_REACTORS
330
1A
102
}
330
1A
100
AcDbPlotSettings
  1

  2
none_device
  4
Letter_(8.50_x_11.00_Inches)
  6

 40
6.35
 41
6.35
 42
6.35000508
 43
6.35000508
 44
215.9
 45
279.4
 46
0.0
 47
0.0
 48
0.0
 49
0.0
140
0.0
141
0.0
142
1.0
143
1.0
 70
  1712
 72
     1
 73
     0
 74
     0
  7

 75
     0
 76
     0
 77
     2
 78
   300
147
1.0
148
0.0
149
0.0
100
AcDbLayout
  1
Model
 70
     1
 71
     0
 10
0.0
 20
0.0
 11
840.0
 21
594.0
 12
0.0
 22
0.0
 32
0.0
 14
3.672425294907141
 24
212.0591478067523
 34
0.0
 15
401.147989372623
 25
540.0195391148773
 35
0.0
146
0.0
 13
0.0
 23
0.0
 33
0.0
 16
1.0
 26
0.0
 36
0.0
 17
0.0
 27
1.0
 37
0.0
 76
     0
330
1F
331
29
  0
MATERIAL
  5
859
102
{ACAD_REACTORS
330
857
102
}
330
857
100
AcDbMaterial
  1
ByBlock
 72
     1
 94
      127
  0
MATERIAL
  5
858
102
{ACAD_REACTORS
330
857
102
}
330
857
100
AcDbMaterial
  1
ByLayer
 72
     1
 94
      127
  0
MATERIAL
  5
85A
102
{ACAD_REACTORS
330
857
102
}
330
857
100
AcDbMaterial
  1
Global
 72
     1
 94
      127
  0
MLINESTYLE
  5
18
102
{ACAD_REACTORS
330
17
102
}
330
17
100
AcDbMlineStyle
  2
Standard
 70
     0
  3

 62
   256
 51
90.0
 52
90.0
 71
     2
 49
0.5
 62
   256
  6
BYLAYER
 49
-0.5
 62
   256
  6
BYLAYER
  0
ACDBPLACEHOLDER
  5
F
102
{ACAD_REACTORS
330
E
102
}
330
E
  0
SCALE
  5
48
102
{ACAD_REACTORS
330
47
102
}
330
47
100
AcDbScale
 70
     0
300
1:1
140
1.0
141
1.0
290
     1
  0
SCALE
  5
49
102
{ACAD_REACTORS
330
47
102
}
330
47
100
AcDbScale
 70
     0
300
1:2
140
1.0
141
2.0
290
     0
  0
SCALE
  5
4A
102
{ACAD_REACTORS
330
47
102
}
330
47
100
AcDbScale
 70
     0
300
1:4
140
1.0
141
4.0
290
     0
  0
SCALE
  5
4B
102
{ACAD_REACTORS
330
47
102
}
330
47
100
AcDbScale
 70
     0
300
1:5
140
1.0
141
5.0
290
     0
  0
SCALE
  5
4C
102
{ACAD_REACTORS
330
47
102
}
330
47
100
AcDbScale
 70
     0
300
1:8
140
1.0
141
8.0
290
     0
  0
SCALE
  5
4D
102
{ACAD_REACTORS
330
47
102
}
330
47
100
AcDbScale
 70
     0
300
1:10
140
1.0
141
10.0
290
     0
  0
SCALE
  5
4E
102
{ACAD_REACTORS
330
47
102
}
330
47
100
AcDbScale
 70
     0
300
1:16
140
1.0
141
16.0
290
     0
  0
SCALE
  5
4F
102
{ACAD_REACTORS
330
47
102
}
330
47
100
AcDbScale
 70
     0
300
1:20
140
1.0
141
20.0
290
     0
  0
SCALE
  5
50
102
{ACAD_REACTORS
330
47
102
}
330
47
100
AcDbScale
 70
     0
300
1:30
140
1.0
141
30.0
290
     0
  0
SCALE
  5
51
102
{ACAD_REACTORS
330
47
102
}
330
47
100
AcDbScale
 70
     0
300
1:40
140
1.0
141
40.0
290
     0
  0
SCALE
  5
52
102
{ACAD_REACTORS
330
47
102
}
330
47
100
AcDbScale
 70
     0
300
1:50
140
1.0
141
50.0
290
     0
  0
SCALE
  5
53
102
{ACAD_REACTORS
330
47
102
}
330
47
100
AcDbScale
 70
     0
300
1:100
140
1.0
141
100.0
290
     0
  0
SCALE
  5
54
102
{ACAD_REACTORS
330
47
102
}
330
47
100
AcDbScale
 70
     0
300
2:1
140
2.0
141
1.0
290
     0
  0
SCALE
  5
55
102
{ACAD_REACTORS
330
47
102
}
330
47
100
AcDbScale
 70
     0
300
4:1
140
4.0
141
1.0
290
     0
  0
SCALE
  5
56
102
{ACAD_REACTORS
330
47
102
}
330
47
100
AcDbScale
 70
     0
300
8:1
140
8.0
141
1.0
290
     0
  0
SCALE
  5
57
102
{ACAD_REACTORS
330
47
102
}
330
47
100
AcDbScale
 70
     0
300
10:1
140
10.0
141
1.0
290
     0
  0
SCALE
  5
58
102
{ACAD_REACTORS
330
47
102
}
330
47
100
AcDbScale
 70
     0
300
100:1
140
100.0
141
1.0
290
     0
  0
SCALE
  5
59
102
{ACAD_REACTORS
330
47
102
}
330
47
100
AcDbScale
 70
     0
300
1/128" = 1'-0"
140
0.0078125
141
12.0
290
     0
  0
SCALE
  5
5A
102
{ACAD_REACTORS
330
47
102
}
330
47
100
AcDbScale
 70
     0
300
1/64" = 1'-0"
140
0.015625
141
12.0
290
     0
  0
SCALE
  5
5B
102
{ACAD_REACTORS
330
47
102
}
330
47
100
AcDbScale
 70
     0
300
1/32" = 1'-0"
140
0.03125
141
12.0
290
     0
  0
SCALE
  5
5C
102
{ACAD_REACTORS
330
47
102
}
330
47
100
AcDbScale
 70
     0
300
1/16" = 1'-0"
140
0.0625
141
12.0
290
     0
  0
SCALE
  5
5D
102
{ACAD_REACTORS
330
47
102
}
330
47
100
AcDbScale
 70
     0
300
3/32" = 1'-0"
140
0.09375
141
12.0
290
     0
  0
SCALE
  5
5E
102
{ACAD_REACTORS
330
47
102
}
330
47
100
AcDbScale
 70
     0
300
1/8" = 1'-0"
140
0.125
141
12.0
290
     0
  0
SCALE
  5
5F
102
{ACAD_REACTORS
330
47
102
}
330
47
100
AcDbScale
 70
     0
300
3/16" = 1'-0"
140
0.1875
141
12.0
290
     0
  0
SCALE
  5
60
102
{ACAD_REACTORS
330
47
102
}
330
47
100
AcDbScale
 70
     0
300
1/4" = 1'-0"
140
0.25
141
12.0
290
     0
  0
SCALE
  5
61
102
{ACAD_REACTORS
330
47
102
}
330
47
100
AcDbScale
 70
     0
300
3/8" = 1'-0"
140
0.375
141
12.0
290
     0
  0
SCALE
  5
62
102
{ACAD_REACTORS
330
47
102
}
330
47
100
AcDbScale
 70
     0
300
1/2" = 1'-0"
140
0.5
141
12.0
290
     0
  0
SCALE
  5
63
102
{ACAD_REACTORS
330
47
102
}
330
47
100
AcDbScale
 70
     0
300
3/4" = 1'-0"
140
0.75
141
12.0
290
     0
  0
SCALE
  5
64
102
{ACAD_REACTORS
330
47
102
}
330
47
100
AcDbScale
 70
     0
300
1" = 1'-0"
140
1.0
141
12.0
290
     0
  0
SCALE
  5
65
102
{ACAD_REACTORS
330
47
102
}
330
47
100
AcDbScale
 70
     0
300
1-1/2" = 1'-0"
140
1.5
141
12.0
290
     0
  0
SCALE
  5
66
102
{ACAD_REACTORS
330
47
102
}
330
47
100
AcDbScale
 70
     0
300
3" = 1'-0"
140
3.0
141
12.0
290
     0
  0
SCALE
  5
67
102
{ACAD_REACTORS
330
47
102
}
330
47
100
AcDbScale
 70
     0
300
6" = 1'-0"
140
6.0
141
12.0
290
     0
  0
SCALE
  5
68
102
{ACAD_REACTORS
330
47
102
}
330
47
100
AcDbScale
 70
     0
300
1'-0" = 1'-0"
140
12.0
141
12.0
290
     0
  0
TABLESTYLE
  5
85C
102
{ACAD_REACTORS
330
85B
102
}
102
{ACAD_XDICTIONARY
360
101D
102
}
330
85B
100
AcDbTableStyle
  3
Standard
 70
     0
 71
     0
 40
1.5
 41
1.5
280
     0
281
     0
  7
Standard
140
4.5
170
     2
 62
     0
 63
   257
283
     0
 90
        4
 91
        0
  1

274
    -2
284
     1
 64
     0
275
    -2
285
     1
 65
     0
276
    -2
286
     1
 66
     0
277
    -2
287
     1
 67
     0
278
    -2
288
     1
 68
     0
279
    -2
289
     1
 69
     0
  7
Standard
140
6.0
170
     5
 62
     0
 63
   257
283
     0
 90
        4
 91
        0
  1

274
    -2
284
     1
 64
     0
275
    -2
285
     1
 65
     0
276
    -2
286
     1
 66
     0
277
    -2
287
     1
 67
     0
278
    -2
288
     1
 68
     0
279
    -2
289
     1
 69
     0
  7
Standard
140
4.5
170
     5
 62
     0
 63
   257
283
     0
 90
        4
 91
        0
  1

274
    -2
284
     1
 64
     0
275
    -2
285
     1
 65
     0
276
    -2
286
     1
 66
     0
277
    -2
287
     1
 67
     0
278
    -2
288
     1
 68
     0
279
    -2
289
     1
 69
     0
  0
VISUALSTYLE
  5
843
102
{ACAD_REACTORS
330
83E
102
}
330
83E
100
AcDbVisualStyle
  2
2dWireframe
 70
     4
177
     3
291
     0
 70
    58
 90
        0
176
     1
 90
        2
176
     1
 90
        0
176
     1
 90
        0
176
     1
 40
0.6
176
     1
 40
30.0
176
     1
 62
     7
420
 16777215
176
     1
 90
        1
176
     1
 90
        4
176
     1
 62
     7
176
     1
 62
   257
176
     1
 90
        1
176
     1
 90
        1
176
     1
 40
1.0
176
     1
 90
        0
176
     1
 62
   257
176
     1
 40
1.0
176
     1
 90
        1
176
     1
 90
        6
176
     1
 90
        2
176
     1
 62
     7
176
     1
 90
        5
176
     1
 90
        0
176
     1
 90
        0
176
     1
290
     0
176
     1
 90
        1
176
     1
 40
0.0
176
     1
 90
        0
176
     1
290
     1
176
     1
290
     1
176
     1
290
     0
176
     1
290
     0
176
     1
290
     0
176
     1
290
     0
176
     1
290
     0
176
     1
290
     0
176
     1
290
     0
176
     1
 90
       50
176
     1
 40
0.0
176
     1
 40
1.0
176
     1
 90
        0
176
     1
 62
    18
420
        0
176
     1
 90
       50
176
     1
 90
        3
176
     1
 62
     5
420
      255
176
     1
290
     0
176
     1
 90
       50
176
     1
 90
       50
176
     1
 90
       50
176
     1
290
     0
176
     1
 90
       50
176
     1
 62
   256
176
     0
 40
1.0
176
     0
 90
        2
176
     1
  1
strokes_ogs.tif
176
     1
290
     0
176
     1
 40
1.0
176
     1
 40
1.0
176
     1
  0
VISUALSTYLE
  5
846
102
{ACAD_REACTORS
330
83E
102
}
330
83E
100
AcDbVisualStyle
  2
Basic
 70
     7
177
     3
291
     1
 70
    58
 90
        1
176
     1
 90
        0
176
     1
 90
        1
176
     1
 90
        0
176
     1
 40
0.6
176
     1
 40
30.0
176
     1
 62
     7
420
 16777215
176
     1
 90
        0
176
     1
 90
        4
176
     1
 62
     7
176
     1
 62
   257
176
     1
 90
        1
176
     1
 90
        1
176
     1
 40
1.0
176
     1
 90
        8
176
     1
 62
     7
176
     1
 40
1.0
176
     1
 90
        1
176
     1
 90
        6
176
     1
 90
        2
176
     1
 62
     7
176
     1
 90
        5
176
     1
 90
        0
176
     1
 90
        0
176
     1
290
     0
176
     1
 90
        1
176
     1
 40
0.0
176
     1
 90
        0
176
     1
290
     0
176
     1
290
     1
176
     1
290
     1
176
     1
290
     0
176
     1
290
     0
176
     1
290
     0
176
     1
290
     0
176
     1
290
     0
176
     1
290
     0
176
     1
 90
       50
176
     1
 40
0.0
176
     1
 40
1.0
176
     1
 90
        0
176
     1
 62
    18
420
        0
176
     1
 90
       50
176
     1
 90
        3
176
     1
 62
     5
420
      255
176
     1
290
     0
176
     1
 90
       50
176
     1
 90
       50
176
     1
 90
       50
176
     1
290
     0
176
     1
 90
       50
176
     1
 62
   256
176
     0
 40
1.0
176
     0
 90
        2
176
     1
  1
strokes_ogs.tif
176
     1
290
     0
176
     1
 40
1.0
176
     1
 40
1.0
176
     1
  0
VISUALSTYLE
  5
84A
102
{ACAD_REACTORS
330
83E
102
}
330
83E
100
AcDbVisualStyle
  2
Brighten
 70
    12
177
     3
291
     1
 70
    58
 90
        2
176
     1
 90
        2
176
     1
 90
        0
176
     1
 90
        0
176
     1
 40
0.6
176
     1
 40
30.0
176
     1
 62
     7
420
 16777215
176
     1
 90
        1
176
     1
 90
        4
176
     1
 62
     7
176
     1
 62
   257
176
     1
 90
        1
176
     1
 90
        1
176
     1
 40
1.0
176
     1
 90
        8
176
     1
 62
     7
176
     1
 40
1.0
176
     1
 90
        1
176
     1
 90
        6
176
     1
 90
        2
176
     1
 62
     7
176
     1
 90
        5
176
     1
 90
        0
176
     1
 90
        0
176
     1
290
     0
176
     1
 90
        1
176
     1
 40
50.0
176
     1
 90
        0
176
     1
290
     0
176
     1
290
     1
176
     1
290
     1
176
     1
290
     0
176
     1
290
     0
176
     1
290
     0
176
     1
290
     0
176
     1
290
     0
176
     1
290
     0
176
     1
 90
       50
176
     1
 40
0.0
176
     1
 40
1.0
176
     1
 90
        0
176
     1
 62
    18
420
        0
176
     1
 90
       50
176
     1
 90
        3
176
     1
 62
     5
420
      255
176
     1
290
     0
176
     1
 90
       50
176
     1
 90
       50
176
     1
 90
       50
176
     1
290
     0
176
     1
 90
       50
176
     1
 62
   256
176
     0
 40
1.0
176
     0
 90
        2
176
     1
  1
strokes_ogs.tif
176
     1
290
     0
176
     1
 40
1.0
176
     1
 40
1.0
176
     1
  0
VISUALSTYLE
  5
84E
102
{ACAD_REACTORS
330
83E
102
}
330
83E
100
AcDbVisualStyle
  2
ColorChange
 70
    16
177
     3
291
     1
 70
    58
 90
        2
176
     1
 90
        2
176
     1
 90
        3
176
     1
 90
        0
176
     1
 40
0.6
176
     1
 40
30.0
176
     1
 62
     8
420
  8421504
176
     1
 90
        1
176
     1
 90
        4
176
     1
 62
     7
176
     1
 62
   257
176
     1
 90
        1
176
     1
 90
        1
176
     1
 40
1.0
176
     1
 90
        8
176
     1
 62
     8
420
  8421504
176
     1
 40
1.0
176
     1
 90
        1
176
     1
 90
        6
176
     1
 90
        2
176
     1
 62
     7
176
     1
 90
        5
176
     1
 90
        0
176
     1
 90
        0
176
     1
290
     0
176
     1
 90
        1
176
     1
 40
0.0
176
     1
 90
        0
176
     1
290
     0
176
     1
290
     1
176
     1
290
     1
176
     1
290
     0
176
     1
290
     0
176
     1
290
     0
176
     1
290
     0
176
     1
290
     0
176
     1
290
     0
176
     1
 90
       50
176
     1
 40
0.0
176
     1
 40
1.0
176
     1
 90
        0
176
     1
 62
    18
420
        0
176
     1
 90
       50
176
     1
 90
        3
176
     1
 62
     5
420
      255
176
     1
290
     0
176
     1
 90
       50
176
     1
 90
       50
176
     1
 90
       50
176
     1
290
     0
176
     1
 90
       50
176
     1
 62
   256
176
     0
 40
1.0
176
     0
 90
        2
176
     1
  1
strokes_ogs.tif
176
     1
290
     0
176
     1
 40
1.0
176
     1
 40
1.0
176
     1
  0
VISUALSTYLE
  5
848
102
{ACAD_REACTORS
330
83E
102
}
330
83E
100
AcDbVisualStyle
  2
Conceptual
 70
     9
177
     3
291
     0
 70
    58
 90
        3
176
     1
 90
        2
176
     1
 90
        0
176
     1
 90
        0
176
     1
 40
0.6
176
     1
 40
30.0
176
     1
 62
     7
420
 16777215
176
     1
 90
        2
176
     1
 90
        2
176
     1
 62
     7
176
     1
 62
   257
176
     1
 90
        1
176
     1
 90
        1
176
     1
 40
179.0
176
     1
 90
        8
176
     1
 62
     7
176
     1
 40
1.0
176
     1
 90
        1
176
     1
 90
        6
176
     1
 90
        2
176
     1
 62
     7
176
     1
 90
        3
176
     1
 90
        0
176
     1
 90
        0
176
     1
290
     0
176
     1
 90
        1
176
     1
 40
0.0
176
     1
 90
        0
176
     1
290
     0
176
     1
290
     1
176
     1
290
     1
176
     1
290
     0
176
     1
290
     0
176
     1
290
     0
176
     1
290
     0
176
     1
290
     0
176
     1
290
     0
176
     1
 90
       50
176
     1
 40
0.0
176
     1
 40
1.0
176
     1
 90
        0
176
     1
 62
    18
420
        0
176
     1
 90
       50
176
     1
 90
        3
176
     1
 62
     5
420
      255
176
     1
290
     0
176
     1
 90
       50
176
     1
 90
       50
176
     1
 90
       50
176
     1
290
     0
176
     1
 90
       50
176
     1
 62
   256
176
     0
 40
1.0
176
     0
 90
        2
176
     1
  1
strokes_ogs.tif
176
     1
290
     0
176
     1
 40
1.0
176
     1
 40
1.0
176
     1
  0
VISUALSTYLE
  5
849
102
{ACAD_REACTORS
330
83E
102
}
330
83E
100
AcDbVisualStyle
  2
Dim
 70
    11
177
     3
291
     1
 70
    58
 90
        2
176
     1
 90
        2
176
     1
 90
        0
176
     1
 90
        0
176
     1
 40
0.6
176
     1
 40
30.0
176
     1
 62
     7
420
 16777215
176
     1
 90
        1
176
     1
 90
        4
176
     1
 62
     7
176
     1
 62
   257
176
     1
 90
        1
176
     1
 90
        1
176
     1
 40
1.0
176
     1
 90
        8
176
     1
 62
     7
176
     1
 40
1.0
176
     1
 90
        1
176
     1
 90
        6
176
     1
 90
        2
176
     1
 62
     7
176
     1
 90
        5
176
     1
 90
        0
176
     1
 90
        0
176
     1
290
     0
176
     1
 90
        1
176
     1
 40
-50.0
176
     1
 90
        0
176
     1
290
     0
176
     1
290
     1
176
     1
290
     1
176
     1
290
     0
176
     1
290
     0
176
     1
290
     0
176
     1
290
     0
176
     1
290
     0
176
     1
290
     0
176
     1
 90
       50
176
     1
 40
0.0
176
     1
 40
1.0
176
     1
 90
        0
176
     1
 62
    18
420
        0
176
     1
 90
       50
176
     1
 90
        3
176
     1
 62
     5
420
      255
176
     1
290
     0
176
     1
 90
       50
176
     1
 90
       50
176
     1
 90
       50
176
     1
290
     0
176
     1
 90
       50
176
     1
 62
   256
176
     0
 40
1.0
176
     0
 90
        2
176
     1
  1
strokes_ogs.tif
176
     1
290
     0
176
     1
 40
1.0
176
     1
 40
1.0
176
     1
  0
VISUALSTYLE
  5
851
102
{ACAD_REACTORS
330
83E
102
}
330
83E
100
AcDbVisualStyle
  2
EdgeColorOff
 70
    22
177
     3
291
     1
 70
    58
 90
        2
176
     0
 90
        2
176
     0
 90
        0
176
     0
 90
        0
176
     0
 40
0.6
176
     0
 40
30.0
176
     0
 62
     7
420
 16777215
176
     0
 90
        1
176
     0
 90
        4
176
     0
 62
     7
176
     0
 62
   257
176
     0
 90
        1
176
     0
 90
        1
176
     0
 40
1.0
176
     0
 90
        8
176
     2
 62
     7
176
     0
 40
1.0
176
     0
 90
        1
176
     0
 90
        6
176
     0
 90
        2
176
     0
 62
     7
176
     0
 90
        5
176
     0
 90
        0
176
     0
 90
        0
176
     0
290
     0
176
     0
 90
        1
176
     0
 40
0.0
176
     0
 90
        0
176
     0
290
     0
176
     0
290
     1
176
     0
290
     1
176
     0
290
     0
176
     0
290
     0
176
     0
290
     0
176
     0
290
     0
176
     0
290
     0
176
     0
290
     0
176
     0
 90
       50
176
     0
 40
0.0
176
     0
 40
1.0
176
     0
 90
        0
176
     0
 62
    18
420
        0
176
     0
 90
       50
176
     0
 90
        3
176
     0
 62
     5
420
      255
176
     0
290
     0
176
     0
 90
       50
176
     0
 90
       50
176
     0
 90
       50
176
     0
290
     0
176
     0
 90
       50
176
     0
 62
   256
176
     0
 40
1.0
176
     0
 90
        2
176
     0
  1
strokes_ogs.tif
176
     0
290
     0
176
     0
 40
1.0
176
     0
 40
1.0
176
     0
  0
VISUALSTYLE
  5
84D
102
{ACAD_REACTORS
330
83E
102
}
330
83E
100
AcDbVisualStyle
  2
Facepattern
 70
    15
177
     3
291
     1
 70
    58
 90
        2
176
     1
 90
        2
176
     1
 90
        0
176
     1
 90
        0
176
     1
 40
0.6
176
     1
 40
30.0
176
     1
 62
     7
420
 16777215
176
     1
 90
        1
176
     1
 90
        4
176
     1
 62
     7
176
     1
 62
   257
176
     1
 90
        1
176
     1
 90
        1
176
     1
 40
1.0
176
     1
 90
        8
176
     1
 62
     7
176
     1
 40
1.0
176
     1
 90
        1
176
     1
 90
        6
176
     1
 90
        2
176
     1
 62
     7
176
     1
 90
        5
176
     1
 90
        0
176
     1
 90
        0
176
     1
290
     0
176
     1
 90
        1
176
     1
 40
0.0
176
     1
 90
        0
176
     1
290
     0
176
     1
290
     1
176
     1
290
     1
176
     1
290
     0
176
     1
290
     0
176
     1
290
     0
176
     1
290
     0
176
     1
290
     0
176
     1
290
     0
176
     1
 90
       50
176
     1
 40
0.0
176
     1
 40
1.0
176
     1
 90
        0
176
     1
 62
    18
420
        0
176
     1
 90
       50
176
     1
 90
        3
176
     1
 62
     5
420
      255
176
     1
290
     0
176
     1
 90
       50
176
     1
 90
       50
176
     1
 90
       50
176
     1
290
     0
176
     1
 90
       50
176
     1
 62
   256
176
     0
 40
1.0
176
     0
 90
        2
176
     1
  1
strokes_ogs.tif
176
     1
290
     0
176
     1
 40
1.0
176
     1
 40
1.0
176
     1
  0
VISUALSTYLE
  5
83F
102
{ACAD_REACTORS
330
83E
102
}
330
83E
100
AcDbVisualStyle
  2
Flat
 70
     0
177
     3
291
     1
 70
    58
 90
        2
176
     1
 90
        1
176
     1
 90
        1
176
     1
 90
        2
176
     1
 40
0.6
176
     1
 40
30.0
176
     1
 62
     7
420
 16777215
176
     1
 90
        0
176
     1
 90
        0
176
     1
 62
     7
176
     1
 62
   257
176
     1
 90
        1
176
     1
 90
        1
176
     1
 40
1.0
176
     1
 90
        8
176
     1
 62
     7
176
     1
 40
1.0
176
     1
 90
        1
176
     1
 90
        6
176
     1
 90
        2
176
     1
 62
     7
176
     1
 90
        5
176
     1
 90
        0
176
     1
 90
        0
176
     1
290
     0
176
     1
 90
       13
176
     1
 40
0.0
176
     1
 90
        0
176
     1
290
     0
176
     1
290
     1
176
     1
290
     1
176
     1
290
     0
176
     1
290
     0
176
     1
290
     0
176
     1
290
     0
176
     1
290
     0
176
     1
290
     0
176
     1
 90
       50
176
     1
 40
0.0
176
     1
 40
1.0
176
     1
 90
        0
176
     1
 62
    18
420
        0
176
     1
 90
       50
176
     1
 90
        3
176
     1
 62
     5
420
      255
176
     1
290
     0
176
     1
 90
       50
176
     1
 90
       50
176
     1
 90
       50
176
     1
290
     0
176
     1
 90
       50
176
     1
 62
   256
176
     0
 40
1.0
176
     0
 90
        2
176
     1
  1
strokes_ogs.tif
176
     1
290
     0
176
     1
 40
1.0
176
     1
 40
1.0
176
     1
  0
VISUALSTYLE
  5
840
102
{ACAD_REACTORS
330
83E
102
}
330
83E
100
AcDbVisualStyle
  2
FlatWithEdges
 70
     1
177
     3
291
     1
 70
    58
 90
        2
176
     1
 90
        1
176
     1
 90
        1
176
     1
 90
        2
176
     1
 40
0.6
176
     1
 40
30.0
176
     1
 62
     7
420
 16777215
176
     1
 90
        1
176
     1
 90
        0
176
     1
 62
     7
176
     1
 62
   257
176
     1
 90
        1
176
     1
 90
        1
176
     1
 40
1.0
176
     1
 90
        0
176
     1
 62
   257
176
     1
 40
1.0
176
     1
 90
        1
176
     1
 90
        6
176
     1
 90
        2
176
     1
 62
     7
176
     1
 90
        5
176
     1
 90
        0
176
     1
 90
        0
176
     1
290
     0
176
     1
 90
       13
176
     1
 40
0.0
176
     1
 90
        0
176
     1
290
     0
176
     1
290
     1
176
     1
290
     1
176
     1
290
     0
176
     1
290
     0
176
     1
290
     0
176
     1
290
     0
176
     1
290
     0
176
     1
290
     0
176
     1
 90
       50
176
     1
 40
0.0
176
     1
 40
1.0
176
     1
 90
        0
176
     1
 62
    18
420
        0
176
     1
 90
       50
176
     1
 90
        3
176
     1
 62
     5
420
      255
176
     1
290
     0
176
     1
 90
       50
176
     1
 90
       50
176
     1
 90
       50
176
     1
290
     0
176
     1
 90
       50
176
     1
 62
   256
176
     0
 40
1.0
176
     0
 90
        2
176
     1
  1
strokes_ogs.tif
176
     1
290
     0
176
     1
 40
1.0
176
     1
 40
1.0
176
     1
  0
VISUALSTYLE
  5
841
102
{ACAD_REACTORS
330
83E
102
}
330
83E
100
AcDbVisualStyle
  2
Gouraud
 70
     2
177
     3
291
     1
 70
    58
 90
        2
176
     1
 90
        2
176
     1
 90
        1
176
     1
 90
        2
176
     1
 40
0.6
176
     1
 40
30.0
176
     1
 62
     7
420
 16777215
176
     1
 90
        0
176
     1
 90
        0
176
     1
 62
     7
176
     1
 62
   257
176
     1
 90
        1
176
     1
 90
        1
176
     1
 40
1.0
176
     1
 90
        0
176
     1
 62
     7
176
     1
 40
1.0
176
     1
 90
        1
176
     1
 90
        6
176
     1
 90
        2
176
     1
 62
     7
176
     1
 90
        5
176
     1
 90
        0
176
     1
 90
        0
176
     1
290
     0
176
     1
 90
       13
176
     1
 40
0.0
176
     1
 90
        0
176
     1
290
     0
176
     1
290
     1
176
     1
290
     1
176
     1
290
     0
176
     1
290
     0
176
     1
290
     0
176
     1
290
     0
176
     1
290
     0
176
     1
290
     0
176
     1
 90
       50
176
     1
 40
0.0
176
     1
 40
1.0
176
     1
 90
        0
176
     1
 62
    18
420
        0
176
     1
 90
       50
176
     1
 90
        3
176
     1
 62
     5
420
      255
176
     1
290
     0
176
     1
 90
       50
176
     1
 90
       50
176
     1
 90
       50
176
     1
290
     0
176
     1
 90
       50
176
     1
 62
   256
176
     0
 40
1.0
176
     0
 90
        2
176
     1
  1
strokes_ogs.tif
176
     1
290
     0
176
     1
 40
1.0
176
     1
 40
1.0
176
     1
  0
VISUALSTYLE
  5
842
102
{ACAD_REACTORS
330
83E
102
}
330
83E
100
AcDbVisualStyle
  2
GouraudWithEdges
 70
     3
177
     3
291
     1
 70
    58
 90
        2
176
     1
 90
        2
176
     1
 90
        1
176
     1
 90
        2
176
     1
 40
0.6
176
     1
 40
30.0
176
     1
 62
     7
420
 16777215
176
     1
 90
        1
176
     1
 90
        0
176
     1
 62
     7
176
     1
 62
   257
176
     1
 90
        1
176
     1
 90
        1
176
     1
 40
1.0
176
     1
 90
        0
176
     1
 62
   257
176
     1
 40
1.0
176
     1
 90
        1
176
     1
 90
        6
176
     1
 90
        2
176
     1
 62
     7
176
     1
 90
        5
176
     1
 90
        0
176
     1
 90
        0
176
     1
290
     0
176
     1
 90
       13
176
     1
 40
0.0
176
     1
 90
        0
176
     1
290
     0
176
     1
290
     1
176
     1
290
     1
176
     1
290
     0
176
     1
290
     0
176
     1
290
     0
176
     1
290
     0
176
     1
290
     0
176
     1
290
     0
176
     1
 90
       50
176
     1
 40
0.0
176
     1
 40
1.0
176
     1
 90
        0
176
     1
 62
    18
420
        0
176
     1
 90
       50
176
     1
 90
        3
176
     1
 62
     5
420
      255
176
     1
290
     0
176
     1
 90
       50
176
     1
 90
       50
176
     1
 90
       50
176
     1
290
     0
176
     1
 90
       50
176
     1
 62
   256
176
     0
 40
1.0
176
     0
 90
        2
176
     1
  1
strokes_ogs.tif
176
     1
290
     0
176
     1
 40
1.0
176
     1
 40
1.0
176
     1
  0
VISUALSTYLE
  5
845
102
{ACAD_REACTORS
330
83E
102
}
330
83E
100
AcDbVisualStyle
  2
Hidden
 70
     6
177
     3
291
     0
 70
    58
 90
        1
176
     1
 90
        2
176
     1
 90
        2
176
     1
 90
        0
176
     1
 40
0.6
176
     1
 40
30.0
176
     1
 62
     7
420
 16777215
176
     1
 90
        2
176
     1
 90
        2
176
     1
 62
     7
176
     1
 62
   257
176
     1
 90
        2
176
     1
 90
        1
176
     1
 40
40.0
176
     1
 90
        0
176
     1
 62
   257
176
     1
 40
1.0
176
     1
 90
        1
176
     1
 90
        6
176
     1
 90
        2
176
     1
 62
     7
176
     1
 90
        3
176
     1
 90
        0
176
     1
 90
        0
176
     1
290
     0
176
     1
 90
        1
176
     1
 40
0.0
176
     1
 90
        0
176
     1
290
     0
176
     1
290
     1
176
     1
290
     1
176
     1
290
     0
176
     1
290
     0
176
     1
290
     0
176
     1
290
     0
176
     1
290
     0
176
     1
290
     0
176
     1
 90
       50
176
     1
 40
0.0
176
     1
 40
1.0
176
     1
 90
        0
176
     1
 62
    18
420
        0
176
     1
 90
       50
176
     1
 90
        3
176
     1
 62
     5
420
      255
176
     1
290
     0
176
     1
 90
       50
176
     1
 90
       50
176
     1
 90
       50
176
     1
290
     0
176
     1
 90
       50
176
     1
 62
   256
176
     0
 40
1.0
176
     0
 90
        2
176
     1
  1
strokes_ogs.tif
176
     1
290
     0
176
     1
 40
1.0
176
     1
 40
1.0
176
     1
  0
VISUALSTYLE
  5
84F
102
{ACAD_REACTORS
330
83E
102
}
330
83E
100
AcDbVisualStyle
  2
JitterOff
 70
    20
177
     3
291
     1
 70
    58
 90
        2
176
     0
 90
        2
176
     0
 90
        0
176
     0
 90
        0
176
     0
 40
0.6
176
     0
 40
30.0
176
     0
 62
     7
420
 16777215
176
     0
 90
        1
176
     0
 90
        4
176
     0
 62
     7
176
     0
 62
   257
176
     0
 90
        1
176
     0
 90
        1
176
     0
 40
1.0
176
     0
 90
       10
176
     2
 62
     7
176
     0
 40
1.0
176
     0
 90
        1
176
     0
 90
        6
176
     0
 90
        2
176
     0
 62
     7
176
     0
 90
        5
176
     0
 90
        0
176
     0
 90
        0
176
     0
290
     0
176
     0
 90
        1
176
     0
 40
0.0
176
     0
 90
        0
176
     0
290
     0
176
     0
290
     1
176
     0
290
     1
176
     0
290
     0
176
     0
290
     0
176
     0
290
     0
176
     0
290
     0
176
     0
290
     0
176
     0
290
     0
176
     0
 90
       50
176
     0
 40
0.0
176
     0
 40
1.0
176
     0
 90
        0
176
     0
 62
    18
420
        0
176
     0
 90
       50
176
     0
 90
        3
176
     0
 62
     5
420
      255
176
     0
290
     0
176
     0
 90
       50
176
     0
 90
       50
176
     0
 90
       50
176
     0
290
     0
176
     0
 90
       50
176
     0
 62
   256
176
     0
 40
1.0
176
     0
 90
        2
176
     0
  1
strokes_ogs.tif
176
     0
290
     0
176
     0
 40
1.0
176
     0
 40
1.0
176
     0
  0
VISUALSTYLE
  5
84C
102
{ACAD_REACTORS
330
83E
102
}
330
83E
100
AcDbVisualStyle
  2
Linepattern
 70
    14
177
     3
291
     1
 70
    58
 90
        2
176
     1
 90
        2
176
     1
 90
        0
176
     1
 90
        0
176
     1
 40
0.6
176
     1
 40
30.0
176
     1
 62
     7
420
 16777215
176
     1
 90
        1
176
     1
 90
        4
176
     1
 62
     7
176
     1
 62
   257
176
     1
 90
        7
176
     1
 90
        7
176
     1
 40
1.0
176
     1
 90
        8
176
     1
 62
     7
176
     1
 40
1.0
176
     1
 90
        1
176
     1
 90
        6
176
     1
 90
        2
176
     1
 62
     7
176
     1
 90
        5
176
     1
 90
        0
176
     1
 90
        0
176
     1
290
     0
176
     1
 90
        1
176
     1
 40
0.0
176
     1
 90
        0
176
     1
290
     0
176
     1
290
     1
176
     1
290
     1
176
     1
290
     0
176
     1
290
     0
176
     1
290
     0
176
     1
290
     0
176
     1
290
     0
176
     1
290
     0
176
     1
 90
       50
176
     1
 40
0.0
176
     1
 40
1.0
176
     1
 90
        0
176
     1
 62
    18
420
        0
176
     1
 90
       50
176
     1
 90
        3
176
     1
 62
     5
420
      255
176
     1
290
     0
176
     1
 90
       50
176
     1
 90
       50
176
     1
 90
       50
176
     1
290
     0
176
     1
 90
       50
176
     1
 62
   256
176
     0
 40
1.0
176
     0
 90
        2
176
     1
  1
strokes_ogs.tif
176
     1
290
     0
176
     1
 40
1.0
176
     1
 40
1.0
176
     1
  0
VISUALSTYLE
  5
850
102
{ACAD_REACTORS
330
83E
102
}
330
83E
100
AcDbVisualStyle
  2
OverhangOff
 70
    21
177
     3
291
     1
 70
    58
 90
        2
176
     0
 90
        2
176
     0
 90
        0
176
     0
 90
        0
176
     0
 40
0.6
176
     0
 40
30.0
176
     0
 62
     7
420
 16777215
176
     0
 90
        1
176
     0
 90
        4
176
     0
 62
     7
176
     0
 62
   257
176
     0
 90
        1
176
     0
 90
        1
176
     0
 40
1.0
176
     0
 90
        9
176
     2
 62
     7
176
     0
 40
1.0
176
     0
 90
        1
176
     0
 90
        6
176
     0
 90
        2
176
     0
 62
     7
176
     0
 90
        5
176
     0
 90
        0
176
     0
 90
        0
176
     0
290
     0
176
     0
 90
        1
176
     0
 40
0.0
176
     0
 90
        0
176
     0
290
     0
176
     0
290
     1
176
     0
290
     1
176
     0
290
     0
176
     0
290
     0
176
     0
290
     0
176
     0
290
     0
176
     0
290
     0
176
     0
290
     0
176
     0
 90
       50
176
     0
 40
0.0
176
     0
 40
1.0
176
     0
 90
        0
176
     0
 62
    18
420
        0
176
     0
 90
       50
176
     0
 90
        3
176
     0
 62
     5
420
      255
176
     0
290
     0
176
     0
 90
       50
176
     0
 90
       50
176
     0
 90
       50
176
     0
290
     0
176
     0
 90
       50
176
     0
 62
   256
176
     0
 40
1.0
176
     0
 90
        2
176
     0
  1
strokes_ogs.tif
176
     0
290
     0
176
     0
 40
1.0
176
     0
 40
1.0
176
     0
  0
VISUALSTYLE
  5
847
102
{ACAD_REACTORS
330
83E
102
}
330
83E
100
AcDbVisualStyle
  2
Realistic
 70
     8
177
     3
291
     0
 70
    58
 90
        2
176
     1
 90
        3
176
     1
 90
        0
176
     1
 90
        2
176
     1
 40
0.6
176
     1
 40
30.0
176
     1
 62
     7
420
 16777215
176
     1
 90
        0
176
     1
 90
        0
176
     1
 62
     7
176
     1
 62
   257
176
     1
 90
        1
176
     1
 90
        1
176
     1
 40
1.0
176
     1
 90
        8
176
     1
 62
   257
176
     1
 40
1.0
176
     1
 90
        1
176
     1
 90
        6
176
     1
 90
        2
176
     1
 62
     7
176
     1
 90
        3
176
     1
 90
        0
176
     1
 90
        0
176
     1
290
     0
176
     1
 90
       13
176
     1
 40
0.0
176
     1
 90
        0
176
     1
290
     0
176
     1
290
     1
176
     1
290
     1
176
     1
290
     0
176
     1
290
     0
176
     1
290
     0
176
     1
290
     0
176
     1
290
     0
176
     1
290
     0
176
     1
 90
       50
176
     1
 40
0.0
176
     1
 40
1.0
176
     1
 90
        0
176
     1
 62
    18
420
        0
176
     1
 90
       50
176
     1
 90
        3
176
     1
 62
     5
420
      255
176
     1
290
     0
176
     1
 90
       50
176
     1
 90
       50
176
     1
 90
       50
176
     1
290
     0
176
     1
 90
       50
176
     1
 62
   256
176
     0
 40
1.0
176
     0
 90
        2
176
     1
  1
strokes_ogs.tif
176
     1
290
     0
176
     1
 40
1.0
176
     1
 40
1.0
176
     1
  0
VISUALSTYLE
  5
856
102
{ACAD_REACTORS
330
83E
102
}
330
83E
100
AcDbVisualStyle
  2
Shaded
 70
    27
177
     3
291
     0
 70
    58
 90
        2
176
     1
 90
        2
176
     1
 90
        1
176
     1
 90
        2
176
     1
 40
0.6
176
     1
 40
30.0
176
     1
 62
     7
420
 16777215
176
     1
 90
        0
176
     1
 90
        4
176
     1
 62
     7
176
     1
 62
   257
176
     1
 90
        1
176
     1
 90
        1
176
     1
 40
1.0
176
     1
 90
        8
176
     1
 62
   257
176
     1
 40
1.0
176
     1
 90
        1
176
     1
 90
        6
176
     1
 90
        2
176
     1
 62
     8
420
  7895160
176
     1
 90
        3
176
     1
 90
        0
176
     1
 90
        0
176
     1
290
     0
176
     1
 90
        5
176
     1
 40
0.0
176
     1
 90
        0
176
     1
290
     0
176
     1
290
     1
176
     1
290
     1
176
     1
290
     0
176
     1
290
     0
176
     1
290
     0
176
     1
290
     0
176
     1
290
     0
176
     1
290
     0
176
     1
 90
       50
176
     1
 40
0.0
176
     1
 40
1.0
176
     1
 90
        0
176
     1
 62
    18
420
        0
176
     1
 90
       50
176
     1
 90
        3
176
     1
 62
     5
420
      255
176
     1
290
     0
176
     1
 90
       50
176
     1
 90
       50
176
     1
 90
       50
176
     1
290
     0
176
     1
 90
       50
176
     1
 62
   256
176
     0
 40
1.0
176
     0
 90
        2
176
     1
  1
strokes_ogs.tif
176
     1
290
     0
176
     1
 40
1.0
176
     1
 40
1.0
176
     1
  0
VISUALSTYLE
  5
855
102
{ACAD_REACTORS
330
83E
102
}
330
83E
100
AcDbVisualStyle
  2
Shaded with edges
 70
    26
177
     3
291
     0
 70
    58
 90
        2
176
     1
 90
        2
176
     1
 90
        1
176
     1
 90
        2
176
     1
 40
0.6
176
     1
 40
30.0
176
     1
 62
     7
420
 16777215
176
     1
 90
        1
176
     1
 90
       10
176
     1
 62
     7
176
     1
 62
   257
176
     1
 90
        2
176
     1
 90
        1
176
     1
 40
1.0
176
     1
 90
        8
176
     1
 62
   257
176
     1
 40
1.0
176
     1
 90
        1
176
     1
 90
        6
176
     1
 90
        2
176
     1
 62
     7
176
     1
 90
        3
176
     1
 90
        0
176
     1
 90
        0
176
     1
290
     0
176
     1
 90
        5
176
     1
 40
0.0
176
     1
 90
        0
176
     1
290
     0
176
     1
290
     1
176
     1
290
     1
176
     1
290
     0
176
     1
290
     0
176
     1
290
     0
176
     1
290
     0
176
     1
290
     0
176
     1
290
     0
176
     1
 90
       50
176
     1
 40
0.0
176
     1
 40
1.0
176
     1
 90
        0
176
     1
 62
    18
420
        0
176
     1
 90
       50
176
     1
 90
        3
176
     1
 62
     5
420
      255
176
     1
290
     0
176
     1
 90
       50
176
     1
 90
       50
176
     1
 90
       50
176
     1
290
     0
176
     1
 90
       50
176
     1
 62
   256
176
     0
 40
1.0
176
     0
 90
        2
176
     1
  1
strokes_ogs.tif
176
     1
290
     0
176
     1
 40
1.0
176
     1
 40
1.0
176
     1
  0
VISUALSTYLE
  5
852
102
{ACAD_REACTORS
330
83E
102
}
330
83E
100
AcDbVisualStyle
  2
Shades of Gray
 70
    23
177
     3
291
     0
 70
    58
 90
        2
176
     1
 90
        2
176
     1
 90
        3
176
     1
 90
        0
176
     1
 40
0.6
176
     1
 40
30.0
176
     1
 62
     7
420
 16777215
176
     1
 90
        2
176
     1
 90
        2
176
     1
 62
     7
176
     1
 62
     7
176
     1
 90
        1
176
     1
 90
        1
176
     1
 40
40.0
176
     1
 90
        8
176
     1
 62
     7
176
     1
 40
1.0
176
     1
 90
        1
176
     1
 90
        6
176
     1
 90
        2
176
     1
 62
     7
176
     1
 90
        3
176
     1
 90
        0
176
     1
 90
        0
176
     1
290
     0
176
     1
 90
        1
176
     1
 40
0.0
176
     1
 90
        0
176
     1
290
     0
176
     1
290
     1
176
     1
290
     1
176
     1
290
     0
176
     1
290
     0
176
     1
290
     0
176
     1
290
     0
176
     1
290
     0
176
     1
290
     0
176
     1
 90
       50
176
     1
 40
0.0
176
     1
 40
1.0
176
     1
 90
        0
176
     1
 62
    18
420
        0
176
     1
 90
       50
176
     1
 90
        3
176
     1
 62
     5
420
      255
176
     1
290
     0
176
     1
 90
       50
176
     1
 90
       50
176
     1
 90
       50
176
     1
290
     0
176
     1
 90
       50
176
     1
 62
   256
176
     0
 40
1.0
176
     0
 90
        2
176
     1
  1
strokes_ogs.tif
176
     1
290
     0
176
     1
 40
1.0
176
     1
 40
1.0
176
     1
  0
VISUALSTYLE
  5
853
102
{ACAD_REACTORS
330
83E
102
}
330
83E
100
AcDbVisualStyle
  2
Sketchy
 70
    24
177
     3
291
     0
 70
    58
 90
        1
176
     1
 90
        2
176
     1
 90
        2
176
     1
 90
        0
176
     1
 40
0.6
176
     1
 40
30.0
176
     1
 62
     7
420
 16777215
176
     1
 90
        2
176
     1
 90
        2
176
     1
 62
     7
176
     1
 62
     7
176
     1
 90
        1
176
     1
 90
        1
176
     1
 40
40.0
176
     1
 90
       11
176
     1
 62
     7
176
     1
 40
1.0
176
     1
 90
        1
176
     1
 90
        6
176
     1
 90
        2
176
     1
 62
     7
176
     1
 90
        6
176
     1
 90
        0
176
     1
 90
        0
176
     1
290
     0
176
     1
 90
        1
176
     1
 40
0.0
176
     1
 90
        0
176
     1
290
     0
176
     1
290
     1
176
     1
290
     1
176
     1
290
     0
176
     1
290
     0
176
     1
290
     0
176
     1
290
     0
176
     1
290
     0
176
     1
290
     0
176
     1
 90
       50
176
     1
 40
0.0
176
     1
 40
1.0
176
     1
 90
        0
176
     1
 62
    18
420
        0
176
     1
 90
       50
176
     1
 90
        3
176
     1
 62
     5
420
      255
176
     1
290
     0
176
     1
 90
       50
176
     1
 90
       50
176
     1
 90
       50
176
     1
290
     0
176
     1
 90
       50
176
     1
 62
   256
176
     0
 40
1.0
176
     0
 90
        2
176
     1
  1
strokes_ogs.tif
176
     1
290
     0
176
     1
 40
1.0
176
     1
 40
1.0
176
     1
  0
VISUALSTYLE
  5
84B
102
{ACAD_REACTORS
330
83E
102
}
330
83E
100
AcDbVisualStyle
  2
Thicken
 70
    13
177
     3
291
     1
 70
    58
 90
        2
176
     1
 90
        2
176
     1
 90
        0
176
     1
 90
        0
176
     1
 40
0.6
176
     1
 40
30.0
176
     1
 62
     7
420
 16777215
176
     1
 90
        1
176
     1
 90
        4
176
     1
 62
     7
176
     1
 62
   257
176
     1
 90
        1
176
     1
 90
        1
176
     1
 40
1.0
176
     1
 90
       12
176
     1
 62
     7
176
     1
 40
1.0
176
     1
 90
        1
176
     1
 90
        6
176
     1
 90
        2
176
     1
 62
     7
176
     1
 90
        5
176
     1
 90
        0
176
     1
 90
        0
176
     1
290
     0
176
     1
 90
        1
176
     1
 40
0.0
176
     1
 90
        0
176
     1
290
     0
176
     1
290
     1
176
     1
290
     1
176
     1
290
     0
176
     1
290
     0
176
     1
290
     0
176
     1
290
     0
176
     1
290
     0
176
     1
290
     0
176
     1
 90
       50
176
     1
 40
0.0
176
     1
 40
1.0
176
     1
 90
        0
176
     1
 62
    18
420
        0
176
     1
 90
       50
176
     1
 90
        3
176
     1
 62
     5
420
      255
176
     1
290
     0
176
     1
 90
       50
176
     1
 90
       50
176
     1
 90
       50
176
     1
290
     0
176
     1
 90
       50
176
     1
 62
   256
176
     0
 40
1.0
176
     0
 90
        2
176
     1
  1
strokes_ogs.tif
176
     1
290
     0
176
     1
 40
1.0
176
     1
 40
1.0
176
     1
  0
VISUALSTYLE
  5
844
102
{ACAD_REACTORS
330
83E
102
}
330
83E
100
AcDbVisualStyle
  2
Wireframe
 70
     5
177
     3
291
     0
 70
    58
 90
        0
176
     1
 90
        2
176
     1
 90
        0
176
     1
 90
        0
176
     1
 40
0.6
176
     1
 40
30.0
176
     1
 62
     7
420
 16777215
176
     1
 90
        1
176
     1
 90
        4
176
     1
 62
     7
176
     1
 62
   257
176
     1
 90
        1
176
     1
 90
        1
176
     1
 40
1.0
176
     1
 90
        0
176
     1
 62
   257
176
     1
 40
1.0
176
     1
 90
        1
176
     1
 90
        6
176
     1
 90
        2
176
     1
 62
     7
176
     1
 90
        3
176
     1
 90
        0
176
     1
 90
        0
176
     1
290
     0
176
     1
 90
        1
176
     1
 40
0.0
176
     1
 90
        0
176
     1
290
     0
176
     1
290
     1
176
     1
290
     1
176
     1
290
     0
176
     1
290
     0
176
     1
290
     0
176
     1
290
     0
176
     1
290
     0
176
     1
290
     0
176
     1
 90
       50
176
     1
 40
0.0
176
     1
 40
1.0
176
     1
 90
        0
176
     1
 62
    18
420
        0
176
     1
 90
       50
176
     1
 90
        3
176
     1
 62
     5
420
      255
176
     1
290
     0
176
     1
 90
       50
176
     1
 90
       50
176
     1
 90
       50
176
     1
290
     0
176
     1
 90
       50
176
     1
 62
   256
176
     0
 40
1.0
176
     0
 90
        2
176
     1
  1
strokes_ogs.tif
176
     1
290
     0
176
     1
 40
1.0
176
     1
 40
1.0
176
     1
  0
VISUALSTYLE
  5
854
102
{ACAD_REACTORS
330
83E
102
}
330
83E
100
AcDbVisualStyle
  2
X-Ray
 70
    25
177
     3
291
     0
 70
    58
 90
        2
176
     1
 90
        2
176
     1
 90
        1
176
     1
 90
        1
176
     1
 40
0.5
176
     1
 40
30.0
176
     1
 62
     7
420
 16777215
176
     1
 90
        1
176
     1
 90
        0
176
     1
 62
     7
176
     1
 62
   257
176
     1
 90
        1
176
     1
 90
        1
176
     1
 40
1.0
176
     1
 90
        8
176
     1
 62
     7
176
     1
 40
1.0
176
     1
 90
        1
176
     1
 90
        6
176
     1
 90
        2
176
     1
 62
     7
176
     1
 90
        3
176
     1
 90
        0
176
     1
 90
        0
176
     1
290
     0
176
     1
 90
       13
176
     1
 40
0.0
176
     1
 90
        0
176
     1
290
     0
176
     1
290
     1
176
     1
290
     1
176
     1
290
     0
176
     1
290
     0
176
     1
290
     0
176
     1
290
     0
176
     1
290
     0
176
     1
290
     0
176
     1
 90
       50
176
     1
 40
0.0
176
     1
 40
1.0
176
     1
 90
        0
176
     1
 62
    18
420
        0
176
     1
 90
       50
176
     1
 90
        3
176
     1
 62
     5
420
      255
176
     1
290
     0
176
     1
 90
       50
176
     1
 90
       50
176
     1
 90
       50
176
     1
290
     0
176
     1
 90
       50
176
     1
 62
   256
176
     0
 40
1.0
176
     0
 90
        2
176
     1
  1
strokes_ogs.tif
176
     1
290
     0
176
     1
 40
1.0
176
     1
 40
1.0
176
     1
  0
DICTIONARYVAR
  5
FD2
102
{ACAD_REACTORS
330
F8D
102
}
330
F8D
100
DictionaryVariables
280
     0
  1
1:1
  0
DICTIONARYVAR
  5
F8E
102
{ACAD_REACTORS
330
F8D
102
}
330
F8D
100
DictionaryVariables
280
     0
  1
Standard
  0
DICTIONARYVAR
  5
F8F
102
{ACAD_REACTORS
330
F8D
102
}
330
F8D
100
DictionaryVariables
280
     0
  1
0
  0
DICTIONARY
  5
101D
330
85C
100
AcDbDictionary
280
     1
281
     1
  3
ACAD_ROUNDTRIP_2008_TABLESTYLE_CELLSTYLEMAP
360
101E
  0
CELLSTYLEMAP
  5
101E
102
{ACAD_REACTORS
330
101D
102
}
330
101D
100
AcDbCellStyleMap
 90
        3
300
CELLSTYLE
  1
TABLEFORMAT_BEGIN
 90
        5
170
     1
 91
        0
 92
        0
 62
   257
 93
        1
300
CONTENTFORMAT
  1
CONTENTFORMAT_BEGIN
 90
        0
 91
        0
 92
        4
 93
        0
300

 40
0.0
140
1.0
 94
        5
 62
     0
340
11
144
6.0
309
CONTENTFORMAT_END
171
     1
301
MARGIN
  1
CELLMARGIN_BEGIN
 40
1.5
 40
1.5
 40
1.5
 40
1.5
 40
1.5
 40
1.5
309
CELLMARGIN_END
 94
        6
 95
        1
302
GRIDFORMAT
  1
GRIDFORMAT_BEGIN
 90
        0
 91
        1
 62
     0
 92
       -2
340
14
 93
        0
 40
0.045
309
GRIDFORMAT_END
 95
        2
302
GRIDFORMAT
  1
GRIDFORMAT_BEGIN
 90
        0
 91
        1
 62
     0
 92
       -2
340
14
 93
        0
 40
0.045
309
GRIDFORMAT_END
 95
        4
302
GRIDFORMAT
  1
GRIDFORMAT_BEGIN
 90
        0
 91
        1
 62
     0
 92
       -2
340
14
 93
        0
 40
0.045
309
GRIDFORMAT_END
 95
        8
302
GRIDFORMAT
  1
GRIDFORMAT_BEGIN
 90
        0
 91
        1
 62
     0
 92
       -2
340
14
 93
        0
 40
0.045
309
GRIDFORMAT_END
 95
       16
302
GRIDFORMAT
  1
GRIDFORMAT_BEGIN
 90
        0
 91
        1
 62
     0
 92
       -2
340
14
 93
        0
 40
0.045
309
GRIDFORMAT_END
 95
       32
302
GRIDFORMAT
  1
GRIDFORMAT_BEGIN
 90
        0
 91
        1
 62
     0
 92
       -2
340
14
 93
        0
 40
0.045
309
GRIDFORMAT_END
309
TABLEFORMAT_END
  1
CELLSTYLE_BEGIN
 90
        1
 91
        1
300
_TITLE
309
CELLSTYLE_END
300
CELLSTYLE
  1
TABLEFORMAT_BEGIN
 90
        5
170
     1
 91
        0
 92
        0
 62
   257
 93
        1
300
CONTENTFORMAT
  1
CONTENTFORMAT_BEGIN
 90
        0
 91
        0
 92
        4
 93
        0
300

 40
0.0
140
1.0
 94
        5
 62
     0
340
11
144
4.5
309
CONTENTFORMAT_END
171
     1
301
MARGIN
  1
CELLMARGIN_BEGIN
 40
1.5
 40
1.5
 40
1.5
 40
1.5
 40
1.5
 40
1.5
309
CELLMARGIN_END
 94
        6
 95
        1
302
GRIDFORMAT
  1
GRIDFORMAT_BEGIN
 90
        0
 91
        1
 62
     0
 92
       -2
340
14
 93
        0
 40
0.045
309
GRIDFORMAT_END
 95
        2
302
GRIDFORMAT
  1
GRIDFORMAT_BEGIN
 90
        0
 91
        1
 62
     0
 92
       -2
340
14
 93
        0
 40
0.045
309
GRIDFORMAT_END
 95
        4
302
GRIDFORMAT
  1
GRIDFORMAT_BEGIN
 90
        0
 91
        1
 62
     0
 92
       -2
340
14
 93
        0
 40
0.045
309
GRIDFORMAT_END
 95
        8
302
GRIDFORMAT
  1
GRIDFORMAT_BEGIN
 90
        0
 91
        1
 62
     0
 92
       -2
340
14
 93
        0
 40
0.045
309
GRIDFORMAT_END
 95
       16
302
GRIDFORMAT
  1
GRIDFORMAT_BEGIN
 90
        0
 91
        1
 62
     0
 92
       -2
340
14
 93
        0
 40
0.045
309
GRIDFORMAT_END
 95
       32
302
GRIDFORMAT
  1
GRIDFORMAT_BEGIN
 90
        0
 91
        1
 62
     0
 92
       -2
340
14
 93
        0
 40
0.045
309
GRIDFORMAT_END
309
TABLEFORMAT_END
  1
CELLSTYLE_BEGIN
 90
        2
 91
        1
300
_HEADER
309
CELLSTYLE_END
300
CELLSTYLE
  1
TABLEFORMAT_BEGIN
 90
        5
170
     1
 91
        0
 92
        0
 62
   257
 93
        1
300
CONTENTFORMAT
  1
CONTENTFORMAT_BEGIN
 90
        0
 91
        0
 92
        4
 93
        0
300

 40
0.0
140
1.0
 94
        2
 62
     0
340
11
144
4.5
309
CONTENTFORMAT_END
171
     1
301
MARGIN
  1
CELLMARGIN_BEGIN
 40
1.5
 40
1.5
 40
1.5
 40
1.5
 40
1.5
 40
1.5
309
CELLMARGIN_END
 94
        6
 95
        1
302
GRIDFORMAT
  1
GRIDFORMAT_BEGIN
 90
        0
 91
        1
 62
     0
 92
       -2
340
14
 93
        0
 40
0.045
309
GRIDFORMAT_END
 95
        2
302
GRIDFORMAT
  1
GRIDFORMAT_BEGIN
 90
        0
 91
        1
 62
     0
 92
       -2
340
14
 93
        0
 40
0.045
309
GRIDFORMAT_END
 95
        4
302
GRIDFORMAT
  1
GRIDFORMAT_BEGIN
 90
        0
 91
        1
 62
     0
 92
       -2
340
14
 93
        0
 40
0.045
309
GRIDFORMAT_END
 95
        8
302
GRIDFORMAT
  1
GRIDFORMAT_BEGIN
 90
        0
 91
        1
 62
     0
 92
       -2
340
14
 93
        0
 40
0.045
309
GRIDFORMAT_END
 95
       16
302
GRIDFORMAT
  1
GRIDFORMAT_BEGIN
 90
        0
 91
        1
 62
     0
 92
       -2
340
14
 93
        0
 40
0.045
309
GRIDFORMAT_END
 95
       32
302
GRIDFORMAT
  1
GRIDFORMAT_BEGIN
 90
        0
 91
        1
 62
     0
 92
       -2
340
14
 93
        0
 40
0.045
309
GRIDFORMAT_END
309
TABLEFORMAT_END
  1
CELLSTYLE_BEGIN
 90
        3
 91
        2
300
_DATA
309
CELLSTYLE_END
  0
ENDSEC
  0
EOF
