  0
SECTION
  2
HEADER
  9
$ACADVER
  1
AC1027
  9
$ACADMAINTVER
 70
     8
  9
$DWGCODEPAGE
  3
ANSI_1252
  9
$REQUIREDVERSIONS
160
                 0
  9
$LASTSAVEDBY
  1
raffaele
  9
$INSBASE
 10
0.0
 20
0.0
 30
0.0
  9
$EXTMIN
 10
450.5562706097609
 20
205.5375547749979
 30
0.0
  9
$EXTMAX
 10
826.7860143280659
 20
544.969120328
 30
0.0
  9
$LIMMIN
 10
0.0
 20
0.0
  9
$LIMMAX
 10
840.0
 20
594.0
  9
$ORTHOMODE
 70
     0
  9
$REGENMODE
 70
     1
  9
$FILLMODE
 70
     1
  9
$QTEXTMODE
 70
     0
  9
$MIRRTEXT
 70
     1
  9
$LTSCALE
 40
1.0
  9
$ATTMODE
 70
     1
  9
$TEXTSIZE
 40
2.8
  9
$TRACEWID
 40
1.0
  9
$TEXTSTYLE
  7
Standard
  9
$CLAYER
  8
0
  9
$CELTYPE
  6
ByLayer
  9
$CECOLOR
 62
   256
  9
$CELTSCALE
 40
1.0
  9
$DISPSILH
 70
     0
  9
$DIMSCALE
 40
1.0
  9
$DIMASZ
 40
3.2
  9
$DIMEXO
 40
0.1
  9
$DIMDLI
 40
3.75
  9
$DIMRND
 40
0.0
  9
$DIMDLE
 40
0.0
  9
$DIMEXE
 40
1.0
  9
$DIMTP
 40
0.0
  9
$DIMTM
 40
0.0
  9
$DIMTXT
 40
3.2
  9
$DIMCEN
 40
2.5
  9
$DIMTSZ
 40
0.0
  9
$DIMTOL
 70
     0
  9
$DIMLIM
 70
     0
  9
$DIMTIH
 70
     1
  9
$DIMTOH
 70
     1
  9
$DIMSE1
 70
     0
  9
$DIMSE2
 70
     0
  9
$DIMTAD
 70
     1
  9
$DIMZIN
 70
     0
  9
$DIMBLK
  1

  9
$DIMASO
 70
     1
  9
$DIMSHO
 70
     1
  9
$DIMPOST
  1

  9
$DIMAPOST
  1

  9
$DIMALT
 70
     0
  9
$DIMALTD
 70
     3
  9
$DIMALTF
 40
0.0393700787
  9
$DIMLFAC
 40
1.0
  9
$DIMTOFL
 70
     1
  9
$DIMTVP
 40
0.0
  9
$DIMTIX
 70
     0
  9
$DIMSOXD
 70
     0
  9
$DIMSAH
 70
     0
  9
$DIMBLK1
  1

  9
$DIMBLK2
  1

  9
$DIMSTYLE
  2
ISO-25
  9
$DIMCLRD
 70
     0
  9
$DIMCLRE
 70
     0
  9
$DIMCLRT
 70
     0
  9
$DIMTFAC
 40
1.0
  9
$DIMGAP
 40
2.0
  9
$DIMJUST
 70
     0
  9
$DIMSD1
 70
     0
  9
$DIMSD2
 70
     0
  9
$DIMTOLJ
 70
     0
  9
$DIMTZIN
 70
     0
  9
$DIMALTZ
 70
     0
  9
$DIMALTTZ
 70
     0
  9
$DIMUPT
 70
     0
  9
$DIMDEC
 70
     2
  9
$DIMTDEC
 70
     2
  9
$DIMALTU
 70
     2
  9
$DIMALTTD
 70
     3
  9
$DIMTXSTY
  7
Standard
  9
$DIMAUNIT
 70
     0
  9
$DIMADEC
 70
     2
  9
$DIMALTRND
 40
0.0
  9
$DIMAZIN
 70
     0
  9
$DIMDSEP
 70
    44
  9
$DIMATFIT
 70
     3
  9
$DIMFRAC
 70
     0
  9
$DIMLDRBLK
  1

  9
$DIMLUNIT
 70
     2
  9
$DIMLWD
 70
    -2
  9
$DIMLWE
 70
    -2
  9
$DIMTMOVE
 70
     0
  9
$DIMFXL
 40
1.0
  9
$DIMFXLON
 70
     0
  9
$DIMJOGANG
 40
0.7853981633974483
  9
$DIMTFILL
 70
     0
  9
$DIMTFILLCLR
 70
     0
  9
$DIMARCSYM
 70
     0
  9
$DIMLTYPE
  6

  9
$DIMLTEX1
  6

  9
$DIMLTEX2
  6

  9
$DIMTXTDIRECTION
 70
     0
  9
$LUNITS
 70
     2
  9
$LUPREC
 70
     2
  9
$SKETCHINC
 40
1.0
  9
$FILLETRAD
 40
10.0
  9
$AUNITS
 70
     0
  9
$AUPREC
 70
     2
  9
$MENU
  1
.
  9
$ELEVATION
 40
0.0
  9
$PELEVATION
 40
0.0
  9
$THICKNESS
 40
0.0
  9
$LIMCHECK
 70
     0
  9
$CHAMFERA
 40
0.0
  9
$CHAMFERB
 40
0.0
  9
$CHAMFERC
 40
0.0
  9
$CHAMFERD
 40
0.0
  9
$SKPOLY
 70
     0
  9
$TDCREATE
 40
2456755.574208206
  9
$TDUCREATE
 40
2456755.490874873
  9
$TDUPDATE
 40
2456755.615272419
  9
$TDUUPDATE
 40
2456755.531939086
  9
$TDINDWG
 40
0.0150330787
  9
$TDUSRTIMER
 40
2456755.531711343
  9
$USRTIMER
 70
     1
  9
$ANGBASE
 50
0.0
  9
$ANGDIR
 70
     0
  9
$PDMODE
 70
     0
  9
$PDSIZE
 40
-1.0
  9
$PLINEWID
 40
0.0
  9
$SPLFRAME
 70
     0
  9
$SPLINETYPE
 70
     6
  9
$SPLINESEGS
 70
     8
  9
$HANDSEED
  5
1020
  9
$SURFTAB1
 70
     6
  9
$SURFTAB2
 70
     6
  9
$SURFTYPE
 70
     6
  9
$SURFU
 70
     6
  9
$SURFV
 70
     6
  9
$UCSBASE
  2

  9
$UCSNAME
  2

  9
$UCSORG
 10
0.0
 20
0.0
 30
0.0
  9
$UCSXDIR
 10
1.0
 20
0.0
 30
0.0
  9
$UCSYDIR
 10
0.0
 20
1.0
 30
0.0
  9
$UCSORTHOREF
  2

  9
$UCSORTHOVIEW
 70
     0
  9
$UCSORGTOP
 10
0.0
 20
0.0
 30
0.0
  9
$UCSORGBOTTOM
 10
0.0
 20
0.0
 30
0.0
  9
$UCSORGLEFT
 10
0.0
 20
0.0
 30
0.0
  9
$UCSORGRIGHT
 10
0.0
 20
0.0
 30
0.0
  9
$UCSORGFRONT
 10
0.0
 20
0.0
 30
0.0
  9
$UCSORGBACK
 10
0.0
 20
0.0
 30
0.0
  9
$PUCSBASE
  2

  9
$PUCSNAME
  2

  9
$PUCSORG
 10
0.0
 20
0.0
 30
0.0
  9
$PUCSXDIR
 10
1.0
 20
0.0
 30
0.0
  9
$PUCSYDIR
 10
0.0
 20
1.0
 30
0.0
  9
$PUCSORTHOREF
  2

  9
$PUCSORTHOVIEW
 70
     0
  9
$PUCSORGTOP
 10
0.0
 20
0.0
 30
0.0
  9
$PUCSORGBOTTOM
 10
0.0
 20
0.0
 30
0.0
  9
$PUCSORGLEFT
 10
0.0
 20
0.0
 30
0.0
  9
$PUCSORGRIGHT
 10
0.0
 20
0.0
 30
0.0
  9
$PUCSORGFRONT
 10
0.0
 20
0.0
 30
0.0
  9
$PUCSORGBACK
 10
0.0
 20
0.0
 30
0.0
  9
$USERI1
 70
     0
  9
$USERI2
 70
     0
  9
$USERI3
 70
     0
  9
$USERI4
 70
     0
  9
$USERI5
 70
     0
  9
$USERR1
 40
0.0
  9
$USERR2
 40
0.0
  9
$USERR3
 40
0.0
  9
$USERR4
 40
0.0
  9
$USERR5
 40
0.0
  9
$WORLDVIEW
 70
     1
  9
$SHADEDGE
 70
     3
  9
$SHADEDIF
 70
    70
  9
$TILEMODE
 70
     1
  9
$MAXACTVP
 70
    64
  9
$PINSBASE
 10
0.0
 20
0.0
 30
0.0
  9
$PLIMCHECK
 70
     0
  9
$PEXTMIN
 10
1.000000000000000E+20
 20
1.000000000000000E+20
 30
1.000000000000000E+20
  9
$PEXTMAX
 10
-1.000000000000000E+20
 20
-1.000000000000000E+20
 30
-1.000000000000000E+20
  9
$PLIMMIN
 10
0.0
 20
0.0
  9
$PLIMMAX
 10
0.0
 20
0.0
  9
$UNITMODE
 70
     0
  9
$VISRETAIN
 70
     1
  9
$PLINEGEN
 70
     0
  9
$PSLTSCALE
 70
     1
  9
$TREEDEPTH
 70
  3020
  9
$CMLSTYLE
  2
Standard
  9
$CMLJUST
 70
     0
  9
$CMLSCALE
 40
20.0
  9
$PROXYGRAPHICS
 70
     1
  9
$MEASUREMENT
 70
     1
  9
$CELWEIGHT
370
    -1
  9
$ENDCAPS
280
     0
  9
$JOINSTYLE
280
     0
  9
$LWDISPLAY
290
     1
  9
$INSUNITS
 70
     4
  9
$HYPERLINKBASE
  1

  9
$STYLESHEET
  1

  9
$XEDIT
290
     1
  9
$CEPSNTYPE
380
     0
  9
$PSTYLEMODE
290
     1
  9
$FINGERPRINTGUID
  2
{7954139C-7555-4AE6-BEAC-62E8D2CB68AF}
  9
$VERSIONGUID
  2
{FAEB1C32-E019-11D5-929B-00C0DF256EC4}
  9
$EXTNAMES
290
     1
  9
$PSVPSCALE
 40
0.0
  9
$OLESTARTUP
290
     0
  9
$SORTENTS
280
   127
  9
$INDEXCTL
280
     0
  9
$HIDETEXT
280
     1
  9
$XCLIPFRAME
280
     2
  9
$HALOGAP
280
     0
  9
$OBSCOLOR
 70
   257
  9
$OBSLTYPE
280
     0
  9
$INTERSECTIONDISPLAY
280
     0
  9
$INTERSECTIONCOLOR
 70
   257
  9
$DIMASSOC
280
     2
  9
$PROJECTNAME
  1

  9
$CAMERADISPLAY
290
     0
  9
$LENSLENGTH
 40
50.0
  9
$CAMERAHEIGHT
 40
0.0
  9
$STEPSPERSEC
 40
2.0
  9
$STEPSIZE
 40
6.0
  9
$3DDWFPREC
 40
2.0
  9
$PSOLWIDTH
 40
0.25
  9
$PSOLHEIGHT
 40
4.0
  9
$LOFTANG1
 40
1.570796326794897
  9
$LOFTANG2
 40
1.570796326794897
  9
$LOFTMAG1
 40
0.0
  9
$LOFTMAG2
 40
0.0
  9
$LOFTPARAM
 70
     7
  9
$LOFTNORMALS
280
     1
  9
$LATITUDE
 40
37.795
  9
$LONGITUDE
 40
-122.394
  9
$NORTHDIRECTION
 40
0.0
  9
$TIMEZONE
 70
 -8000
  9
$LIGHTGLYPHDISPLAY
280
     1
  9
$TILEMODELIGHTSYNCH
280
     1
  9
$SOLIDHIST
280
     1
  9
$SHOWHIST
280
     1
  9
$DWFFRAME
280
     2
  9
$DGNFRAME
280
     2
  9
$REALWORLDSCALE
290
     1
  9
$INTERFERECOLOR
 62
   256
  9
$CSHADOW
280
     0
  9
$SHADOWPLANELOCATION
 40
0.0
  0
ENDSEC
  0
SECTION
  2
CLASSES
  0
CLASS
  1
ACDBDICTIONARYWDFLT
  2
AcDbDictionaryWithDefault
  3
ObjectDBX Classes
 90
        0
 91
        5
280
     0
281
     0
  0
CLASS
  1
VISUALSTYLE
  2
AcDbVisualStyle
  3
ObjectDBX Classes
 90
     4095
 91
        5
280
     0
281
     0
  0
CLASS
  1
MATERIAL
  2
AcDbMaterial
  3
ObjectDBX Classes
 90
     1153
 91
        5
280
     0
281
     0
  0
CLASS
  1
SCALE
  2
AcDbScale
  3
ObjectDBX Classes
 90
     1153
 91
        5
280
     0
281
     0
  0
CLASS
  1
SUN
  2
AcDbSun
  3
SCENEOE
 90
     1153
 91
        5
280
     0
281
     0
  0
CLASS
  1
ACDBPLACEHOLDER
  2
AcDbPlaceHolder
  3
ObjectDBX Classes
 90
        0
 91
        1
280
     0
281
     0
  0
CLASS
  1
LAYOUT
  2
AcDbLayout
  3
ObjectDBX Classes
 90
        0
 91
        1
280
     0
281
     0
  0
CLASS
  1
TABLESTYLE
  2
AcDbTableStyle
  3
ObjectDBX Classes
 90
     4095
 91
        5
280
     0
281
     0
  0
CLASS
  1
RASTERVARIABLES
  2
AcDbRasterVariables
  3
ISM
 90
        0
 91
        5
280
     0
281
     0
  0
CLASS
  1
SORTENTSTABLE
  2
AcDbSortentsTable
  3
ObjectDBX Classes
 90
        0
 91
        4
280
     0
281
     0
  0
CLASS
  1
CELLSTYLEMAP
  2
AcDbCellStyleMap
  3
ObjectDBX Classes
 90
     1152
 91
        4
280
     0
281
     0
  0
CLASS
  1
DICTIONARYVAR
  2
AcDbDictionaryVar
  3
ObjectDBX Classes
 90
        0
 91
        4
280
     0
281
     0
  0
CLASS
  1
DIMASSOC
  2
AcDbDimAssoc
  3
"AcDbDimAssoc|Product Desc:     AcDim ARX App For Dimension|Company:          Autodesk, Inc.|WEB Address:      www.autodesk.com"
 90
        0
 91
        4
280
     0
281
     0
  0
ENDSEC
  0
SECTION
  2
TABLES
  0
TABLE
  2
VPORT
  5
8
330
0
100
AcDbSymbolTable
 70
     1
  0
VPORT
  5
29
330
8
100
AcDbSymbolTableRecord
100
AcDbViewportTableRecord
  2
*Active
 70
     0
 10
0.0
 20
0.0
 11
1.0
 21
1.0
 12
638.6711424689133
 22
375.253337551499
 13
0.0
 23
0.0
 14
10.0
 24
10.0
 15
10.0
 25
10.0
 16
0.0
 26
0.0
 36
1.0
 17
0.0
 27
0.0
 37
0.0
 40
346.2201968640621
 41
1.903581267217631
 42
50.0
 43
0.0
 44
0.0
 50
0.0
 51
0.0
 71
    16
 72
  2000
 73
     1
 74
     3
 75
     0
 76
     0
 77
     0
 78
     0
281
     0
 65
     1
110
0.0
120
0.0
130
0.0
111
1.0
121
0.0
131
0.0
112
0.0
122
1.0
132
0.0
 79
     0
146
0.0
348
843
 60
     3
 61
     5
292
     1
282
     1
141
0.0
142
0.0
 63
   256
361
85E
  0
ENDTAB
  0
TABLE
  2
LTYPE
  5
5
330
0
100
AcDbSymbolTable
 70
     6
  0
LTYPE
  5
14
330
5
100
AcDbSymbolTableRecord
100
AcDbLinetypeTableRecord
  2
ByBlock
 70
     0
  3

 72
    65
 73
     0
 40
0.0
  0
LTYPE
  5
15
330
5
100
AcDbSymbolTableRecord
100
AcDbLinetypeTableRecord
  2
ByLayer
 70
     0
  3

 72
    65
 73
     0
 40
0.0
  0
LTYPE
  5
16
330
5
100
AcDbSymbolTableRecord
100
AcDbLinetypeTableRecord
  2
Continuous
 70
     0
  3
Solid line
 72
    65
 73
     0
 40
0.0
  0
LTYPE
  5
6A
330
5
100
AcDbSymbolTableRecord
100
AcDbLinetypeTableRecord
  2
HIDDEN
 70
     0
  3
Hidden __ __ __ __ __ __ __ __ __ __ __ __ __ __
 72
    65
 73
     2
 40
1.905
 49
1.27
 74
     0
 49
-0.635
 74
     0
  0
LTYPE
  5
6B
330
5
100
AcDbSymbolTableRecord
100
AcDbLinetypeTableRecord
  2
PHANTOM
 70
     0
  3
Phantom ______  __  __  ______  __  __  ______
 72
    65
 73
     6
 40
12.7
 49
6.35
 74
     0
 49
-1.27
 74
     0
 49
1.27
 74
     0
 49
-1.27
 74
     0
 49
1.27
 74
     0
 49
-1.27
 74
     0
  0
LTYPE
  5
6C
330
5
100
AcDbSymbolTableRecord
100
AcDbLinetypeTableRecord
  2
CENTER
 70
     0
  3
Center ____ _ ____ _ ____ _ ____ _ ____ _ ____
 72
    65
 73
     4
 40
10.16
 49
6.35
 74
     0
 49
-1.27
 74
     0
 49
1.27
 74
     0
 49
-1.27
 74
     0
  0
LTYPE
  5
6D
330
5
100
AcDbSymbolTableRecord
100
AcDbLinetypeTableRecord
  2
CENTERX2
 70
     0
  3
Center (2x) ________  __  ________  __  _____
 72
    65
 73
     4
 40
20.32
 49
12.7
 74
     0
 49
-2.54
 74
     0
 49
2.54
 74
     0
 49
-2.54
 74
     0
  0
LTYPE
  5
6E
330
5
100
AcDbSymbolTableRecord
100
AcDbLinetypeTableRecord
  2
DOT2
 70
     0
  3
Dot (.5x) ........................................
 72
    65
 73
     2
 40
0.635
 49
0.0
 74
     0
 49
-0.635
 74
     0
  0
ENDTAB
  0
TABLE
  2
LAYER
  5
2
330
0
100
AcDbSymbolTable
 70
     5
  0
LAYER
  5
10
330
2
100
AcDbSymbolTableRecord
100
AcDbLayerTableRecord
  2
0
 70
     0
 62
     7
  6
Continuous
370
    -3
390
F
347
85A
348
0
  0
LAYER
  5
6F
330
2
100
AcDbSymbolTableRecord
100
AcDbLayerTableRecord
  2
QUOTE
 70
     0
 62
     3
  6
Continuous
370
    -3
390
F
347
85A
348
0
  0
LAYER
  5
70
330
2
100
AcDbSymbolTableRecord
100
AcDbLayerTableRecord
  2
ASSI
 70
     0
 62
     1
  6
CENTERX2
370
    -3
390
F
347
85A
348
0
  0
LAYER
  5
71
330
2
100
AcDbSymbolTableRecord
100
AcDbLayerTableRecord
  2
TRATTEGGIO
 70
     0
 62
     4
  6
Continuous
370
    -3
390
F
347
85A
348
0
  0
LAYER
  5
FB2
330
2
100
AcDbSymbolTableRecord
100
AcDbLayerTableRecord
  2
Defpoints
 70
     0
 62
     7
  6
Continuous
290
     0
370
    -3
390
F
347
85A
348
0
  0
ENDTAB
  0
TABLE
  2
STYLE
  5
3
330
0
100
AcDbSymbolTable
 70
     2
  0
STYLE
  5
11
330
3
100
AcDbSymbolTableRecord
100
AcDbTextStyleTableRecord
  2
Standard
 70
     0
 40
0.0
 41
1.0
 50
0.0
 71
     0
 42
2.8
  3
txt
  4

  0
STYLE
  5
74
330
3
100
AcDbSymbolTableRecord
100
AcDbTextStyleTableRecord
  2
SLDTEXTSTYLE0
 70
     0
 40
0.0
 41
0.75
 50
0.0
 71
     0
 42
2.8
  3
TXT
  4

  0
ENDTAB
  0
TABLE
  2
VIEW
  5
6
330
0
100
AcDbSymbolTable
 70
     0
  0
ENDTAB
  0
TABLE
  2
UCS
  5
7
330
0
100
AcDbSymbolTable
 70
     0
  0
ENDTAB
  0
TABLE
  2
APPID
  5
9
330
0
100
AcDbSymbolTable
 70
     1
  0
APPID
  5
12
330
9
100
AcDbSymbolTableRecord
100
AcDbRegAppTableRecord
  2
ACAD
 70
     0
  0
ENDTAB
  0
TABLE
  2
DIMSTYLE
  5
A
330
0
100
AcDbSymbolTable
 70
     2
100
AcDbDimStyleTable
  0
DIMSTYLE
105
27
330
A
100
AcDbSymbolTableRecord
100
AcDbDimStyleTableRecord
  2
ISO-25
 70
     0
 41
2.5
 42
0.625
 43
3.75
 44
1.25
 73
     0
 74
     0
 77
     1
 78
     8
140
2.5
141
2.5
143
0.0393700787
147
0.625
171
     3
172
     1
178
     0
271
     2
272
     2
274
     3
278
    44
283
     0
284
     8
340
11
  0
DIMSTYLE
105
862
330
A
100
AcDbSymbolTableRecord
100
AcDbDimStyleTableRecord
  2
Standard
 70
     0
 41
1.25
 42
0.0
 44
0.75
 73
     0
 74
     0
 77
     1
140
2.5
146
0.8
147
1.25
176
     7
177
     7
271
     2
178
     7
271
     2
340
11
  0
ENDTAB
  0
TABLE
  2
BLOCK_RECORD
  5
1
330
0
100
AcDbSymbolTable
 70
    12
  0
BLOCK_RECORD
  5
1F
330
1
100
AcDbSymbolTableRecord
100
AcDbBlockTableRecord
  2
*Model_Space
340
22
 70
     0
280
     1
281
     0
  0
BLOCK_RECORD
  5
1B
330
1
100
AcDbSymbolTableRecord
100
AcDbBlockTableRecord
  2
*Paper_Space
340
1E
 70
     0
280
     1
281
     0
  0
BLOCK_RECORD
  5
23
330
1
100
AcDbSymbolTableRecord
100
AcDbBlockTableRecord
  2
*Paper_Space0
340
26
 70
     0
280
     1
281
     0
  0
BLOCK_RECORD
  5
DD
330
1
100
AcDbSymbolTableRecord
100
AcDbBlockTableRecord
  2
SW_CENTERMARKSYMBOL_0
340
0
 70
     0
280
     1
281
     0
  0
BLOCK_RECORD
  5
E9
330
1
100
AcDbSymbolTableRecord
100
AcDbBlockTableRecord
  2
SW_CENTERMARKSYMBOL_1
340
0
102
{BLKREFS
331
0
102
}
 70
     0
280
     1
281
     0
  0
BLOCK_RECORD
  5
F5
330
1
100
AcDbSymbolTableRecord
100
AcDbBlockTableRecord
  2
SW_CENTERMARKSYMBOL_2
340
0
102
{BLKREFS
331
0
102
}
 70
     0
280
     1
281
     0
  0
BLOCK_RECORD
  5
39B
330
1
100
AcDbSymbolTableRecord
100
AcDbBlockTableRecord
  2
SW_CENTERMARKSYMBOL_3
340
0
 70
     0
280
     1
281
     0
  0
BLOCK_RECORD
  5
3A7
330
1
100
AcDbSymbolTableRecord
100
AcDbBlockTableRecord
  2
SW_CENTERMARKSYMBOL_4
340
0
 70
     0
280
     1
281
     0
  0
BLOCK_RECORD
  5
3B3
330
1
100
AcDbSymbolTableRecord
100
AcDbBlockTableRecord
  2
SW_CENTERMARKSYMBOL_5
340
0
102
{BLKREFS
331
3BE
102
}
 70
     0
280
     1
281
     0
  0
BLOCK_RECORD
  5
3BF
330
1
100
AcDbSymbolTableRecord
100
AcDbBlockTableRecord
  2
SW_CENTERMARKSYMBOL_6
340
0
102
{BLKREFS
331
3CA
102
}
 70
     0
280
     1
281
     0
  0
BLOCK_RECORD
  5
3CB
330
1
100
AcDbSymbolTableRecord
100
AcDbBlockTableRecord
  2
SW_CENTERMARKSYMBOL_7
340
0
102
{BLKREFS
331
3D6
102
}
 70
     0
280
     1
281
     0
  0
BLOCK_RECORD
  5
3D7
330
1
100
AcDbSymbolTableRecord
100
AcDbBlockTableRecord
  2
SW_CENTERMARKSYMBOL_8
340
0
102
{BLKREFS
331
3E2
102
}
 70
     0
280
     1
281
     0
  0
BLOCK_RECORD
  5
686
330
1
100
AcDbSymbolTableRecord
100
AcDbBlockTableRecord
  2
SW_CENTERMARKSYMBOL_9
340
0
102
{BLKREFS
331
0
102
}
 70
     0
280
     1
281
     0
  0
BLOCK_RECORD
  5
692
330
1
100
AcDbSymbolTableRecord
100
AcDbBlockTableRecord
  2
SW_CENTERMARKSYMBOL_10
340
0
102
{BLKREFS
331
0
102
}
 70
     0
280
     1
281
     0
  0
ENDTAB
  0
ENDSEC
  0
SECTION
  2
BLOCKS
  0
BLOCK
  5
20
330
1F
100
AcDbEntity
  8
0
100
AcDbBlockBegin
  2
*Model_Space
 70
     0
 10
0.0
 20
0.0
 30
0.0
  3
*Model_Space
  1
*Model_Space
  0
ENDBLK
  5
21
330
1F
100
AcDbEntity
  8
0
100
AcDbBlockEnd
  0
BLOCK
  5
1C
330
1B
100
AcDbEntity
 67
     1
  8
0
100
AcDbBlockBegin
  2
*Paper_Space
 70
     0
 10
0.0
 20
0.0
 30
0.0
  3
*Paper_Space
  1
*Paper_Space
  0
ENDBLK
  5
1D
330
1B
100
AcDbEntity
 67
     1
  8
0
100
AcDbBlockEnd
  0
BLOCK
  5
24
330
23
100
AcDbEntity
  8
0
100
AcDbBlockBegin
  2
*Paper_Space0
 70
     0
 10
0.0
 20
0.0
 30
0.0
  3
*Paper_Space0
  1
*Paper_Space0
  0
ENDBLK
  5
25
330
23
100
AcDbEntity
  8
0
100
AcDbBlockEnd
  0
BLOCK
  5
DE
330
DD
100
AcDbEntity
  8
0
100
AcDbBlockBegin
  2
SW_CENTERMARKSYMBOL_0
 70
     0
 10
0.0
 20
0.0
 30
0.0
  3
SW_CENTERMARKSYMBOL_0
  1
SW_CENTERMARKSYMBOL_0
  0
LINE
  5
E0
330
DD
100
AcDbEntity
  8
ASSI
 62
     0
100
AcDbLine
 10
0.0
 20
0.0
 30
0.0
 11
0.0
 21
2.5
 31
0.0
  0
LINE
  5
E1
330
DD
100
AcDbEntity
  8
ASSI
 62
     0
100
AcDbLine
 10
0.0
 20
0.0
 30
0.0
 11
-2.5
 21
0.0
 31
0.0
  0
LINE
  5
E2
330
DD
100
AcDbEntity
  8
ASSI
 62
     0
100
AcDbLine
 10
0.0
 20
0.0
 30
0.0
 11
0.0
 21
-2.5
 31
0.0
  0
LINE
  5
E3
330
DD
100
AcDbEntity
  8
ASSI
 62
     0
100
AcDbLine
 10
0.0
 20
0.0
 30
0.0
 11
2.5
 21
0.0
 31
0.0
  0
LINE
  5
E4
330
DD
100
AcDbEntity
  8
ASSI
 62
     0
100
AcDbLine
 10
0.0
 20
5.0
 30
0.0
 11
0.0
 21
10.4
 31
0.0
  0
LINE
  5
E5
330
DD
100
AcDbEntity
  8
ASSI
 62
     0
100
AcDbLine
 10
-5.0
 20
0.0
 30
0.0
 11
-10.4
 21
0.0
 31
0.0
  0
LINE
  5
E6
330
DD
100
AcDbEntity
  8
ASSI
 62
     0
100
AcDbLine
 10
0.0
 20
-5.0
 30
0.0
 11
0.0
 21
-10.4
 31
0.0
  0
LINE
  5
E7
330
DD
100
AcDbEntity
  8
ASSI
 62
     0
100
AcDbLine
 10
5.0
 20
0.0
 30
0.0
 11
10.4
 21
0.0
 31
0.0
  0
ENDBLK
  5
DF
330
DD
100
AcDbEntity
  8
0
100
AcDbBlockEnd
  0
BLOCK
  5
EA
330
E9
100
AcDbEntity
  8
0
100
AcDbBlockBegin
  2
SW_CENTERMARKSYMBOL_1
 70
     0
 10
0.0
 20
0.0
 30
0.0
  3
SW_CENTERMARKSYMBOL_1
  1
SW_CENTERMARKSYMBOL_1
  0
LINE
  5
EC
330
E9
100
AcDbEntity
  8
ASSI
 62
     0
100
AcDbLine
 10
0.0
 20
0.0
 30
0.0
 11
0.0
 21
2.5
 31
0.0
  0
LINE
  5
ED
330
E9
100
AcDbEntity
  8
ASSI
 62
     0
100
AcDbLine
 10
0.0
 20
0.0
 30
0.0
 11
-2.5
 21
0.0
 31
0.0
  0
LINE
  5
EE
330
E9
100
AcDbEntity
  8
ASSI
 62
     0
100
AcDbLine
 10
0.0
 20
0.0
 30
0.0
 11
0.0
 21
-2.5
 31
0.0
  0
LINE
  5
EF
330
E9
100
AcDbEntity
  8
ASSI
 62
     0
100
AcDbLine
 10
0.0
 20
0.0
 30
0.0
 11
2.5
 21
0.0
 31
0.0
  0
LINE
  5
F0
330
E9
100
AcDbEntity
  8
ASSI
 62
     0
100
AcDbLine
 10
0.0
 20
5.0
 30
0.0
 11
0.0
 21
7.7
 31
0.0
  0
LINE
  5
F1
330
E9
100
AcDbEntity
  8
ASSI
 62
     0
100
AcDbLine
 10
-5.0
 20
0.0
 30
0.0
 11
-7.7
 21
0.0
 31
0.0
  0
LINE
  5
F2
330
E9
100
AcDbEntity
  8
ASSI
 62
     0
100
AcDbLine
 10
0.0
 20
-5.0
 30
0.0
 11
0.0
 21
-7.7
 31
0.0
  0
LINE
  5
F3
330
E9
100
AcDbEntity
  8
ASSI
 62
     0
100
AcDbLine
 10
5.0
 20
0.0
 30
0.0
 11
7.7
 21
0.0
 31
0.0
  0
ENDBLK
  5
EB
330
E9
100
AcDbEntity
  8
0
100
AcDbBlockEnd
  0
BLOCK
  5
F6
330
F5
100
AcDbEntity
  8
0
100
AcDbBlockBegin
  2
SW_CENTERMARKSYMBOL_2
 70
     0
 10
0.0
 20
0.0
 30
0.0
  3
SW_CENTERMARKSYMBOL_2
  1
SW_CENTERMARKSYMBOL_2
  0
LINE
  5
F8
330
F5
100
AcDbEntity
  8
ASSI
 62
     0
100
AcDbLine
 10
0.0
 20
0.0
 30
0.0
 11
0.0
 21
2.5
 31
0.0
  0
LINE
  5
F9
330
F5
100
AcDbEntity
  8
ASSI
 62
     0
100
AcDbLine
 10
0.0
 20
0.0
 30
0.0
 11
-2.5
 21
0.0
 31
0.0
  0
LINE
  5
FA
330
F5
100
AcDbEntity
  8
ASSI
 62
     0
100
AcDbLine
 10
0.0
 20
0.0
 30
0.0
 11
0.0
 21
-2.5
 31
0.0
  0
LINE
  5
FB
330
F5
100
AcDbEntity
  8
ASSI
 62
     0
100
AcDbLine
 10
0.0
 20
0.0
 30
0.0
 11
2.5
 21
0.0
 31
0.0
  0
LINE
  5
FC
330
F5
100
AcDbEntity
  8
ASSI
 62
     0
100
AcDbLine
 10
0.0
 20
5.0
 30
0.0
 11
0.0
 21
7.7
 31
0.0
  0
LINE
  5
FD
330
F5
100
AcDbEntity
  8
ASSI
 62
     0
100
AcDbLine
 10
-5.0
 20
0.0
 30
0.0
 11
-7.7
 21
0.0
 31
0.0
  0
LINE
  5
FE
330
F5
100
AcDbEntity
  8
ASSI
 62
     0
100
AcDbLine
 10
0.0
 20
-5.0
 30
0.0
 11
0.0
 21
-7.7
 31
0.0
  0
LINE
  5
FF
330
F5
100
AcDbEntity
  8
ASSI
 62
     0
100
AcDbLine
 10
5.0
 20
0.0
 30
0.0
 11
7.7
 21
0.0
 31
0.0
  0
ENDBLK
  5
F7
330
F5
100
AcDbEntity
  8
0
100
AcDbBlockEnd
  0
BLOCK
  5
39C
330
39B
100
AcDbEntity
  8
0
100
AcDbBlockBegin
  2
SW_CENTERMARKSYMBOL_3
 70
     0
 10
0.0
 20
0.0
 30
0.0
  3
SW_CENTERMARKSYMBOL_3
  1
SW_CENTERMARKSYMBOL_3
  0
LINE
  5
39E
330
39B
100
AcDbEntity
  8
ASSI
 62
     0
100
AcDbLine
 10
0.0
 20
0.0
 30
0.0
 11
0.0
 21
2.5
 31
0.0
  0
LINE
  5
39F
330
39B
100
AcDbEntity
  8
ASSI
 62
     0
100
AcDbLine
 10
0.0
 20
0.0
 30
0.0
 11
-2.5
 21
0.0
 31
0.0
  0
LINE
  5
3A0
330
39B
100
AcDbEntity
  8
ASSI
 62
     0
100
AcDbLine
 10
0.0
 20
0.0
 30
0.0
 11
0.0
 21
-2.5
 31
0.0
  0
LINE
  5
3A1
330
39B
100
AcDbEntity
  8
ASSI
 62
     0
100
AcDbLine
 10
0.0
 20
0.0
 30
0.0
 11
2.5
 21
0.0
 31
0.0
  0
LINE
  5
3A2
330
39B
100
AcDbEntity
  8
ASSI
 62
     0
100
AcDbLine
 10
0.0
 20
5.0
 30
0.0
 11
0.0
 21
12.0
 31
0.0
  0
LINE
  5
3A3
330
39B
100
AcDbEntity
  8
ASSI
 62
     0
100
AcDbLine
 10
-5.0
 20
0.0
 30
0.0
 11
-12.0
 21
0.0
 31
0.0
  0
LINE
  5
3A4
330
39B
100
AcDbEntity
  8
ASSI
 62
     0
100
AcDbLine
 10
0.0
 20
-5.0
 30
0.0
 11
0.0
 21
-12.0
 31
0.0
  0
LINE
  5
3A5
330
39B
100
AcDbEntity
  8
ASSI
 62
     0
100
AcDbLine
 10
5.0
 20
0.0
 30
0.0
 11
12.0
 21
0.0
 31
0.0
  0
ENDBLK
  5
39D
330
39B
100
AcDbEntity
  8
0
100
AcDbBlockEnd
  0
BLOCK
  5
3A8
330
3A7
100
AcDbEntity
  8
0
100
AcDbBlockBegin
  2
SW_CENTERMARKSYMBOL_4
 70
     0
 10
0.0
 20
0.0
 30
0.0
  3
SW_CENTERMARKSYMBOL_4
  1
SW_CENTERMARKSYMBOL_4
  0
LINE
  5
3AA
330
3A7
100
AcDbEntity
  8
ASSI
 62
     0
100
AcDbLine
 10
0.0
 20
0.0
 30
0.0
 11
0.0
 21
2.5
 31
0.0
  0
LINE
  5
3AB
330
3A7
100
AcDbEntity
  8
ASSI
 62
     0
100
AcDbLine
 10
0.0
 20
0.0
 30
0.0
 11
-2.5
 21
0.0
 31
0.0
  0
LINE
  5
3AC
330
3A7
100
AcDbEntity
  8
ASSI
 62
     0
100
AcDbLine
 10
0.0
 20
0.0
 30
0.0
 11
0.0
 21
-2.5
 31
0.0
  0
LINE
  5
3AD
330
3A7
100
AcDbEntity
  8
ASSI
 62
     0
100
AcDbLine
 10
0.0
 20
0.0
 30
0.0
 11
2.5
 21
0.0
 31
0.0
  0
LINE
  5
3AE
330
3A7
100
AcDbEntity
  8
ASSI
 62
     0
100
AcDbLine
 10
0.0
 20
5.0
 30
0.0
 11
0.0
 21
12.0
 31
0.0
  0
LINE
  5
3AF
330
3A7
100
AcDbEntity
  8
ASSI
 62
     0
100
AcDbLine
 10
-5.0
 20
0.0
 30
0.0
 11
-12.0
 21
0.0
 31
0.0
  0
LINE
  5
3B0
330
3A7
100
AcDbEntity
  8
ASSI
 62
     0
100
AcDbLine
 10
0.0
 20
-5.0
 30
0.0
 11
0.0
 21
-12.0
 31
0.0
  0
LINE
  5
3B1
330
3A7
100
AcDbEntity
  8
ASSI
 62
     0
100
AcDbLine
 10
5.0
 20
0.0
 30
0.0
 11
12.0
 21
0.0
 31
0.0
  0
ENDBLK
  5
3A9
330
3A7
100
AcDbEntity
  8
0
100
AcDbBlockEnd
  0
BLOCK
  5
3B4
330
3B3
100
AcDbEntity
  8
0
100
AcDbBlockBegin
  2
SW_CENTERMARKSYMBOL_5
 70
     0
 10
0.0
 20
0.0
 30
0.0
  3
SW_CENTERMARKSYMBOL_5
  1
SW_CENTERMARKSYMBOL_5
  0
LINE
  5
3B6
330
3B3
100
AcDbEntity
  8
ASSI
 62
     0
100
AcDbLine
 10
0.0
 20
0.0
 30
0.0
 11
0.0
 21
2.5
 31
0.0
  0
LINE
  5
3B7
330
3B3
100
AcDbEntity
  8
ASSI
 62
     0
100
AcDbLine
 10
0.0
 20
0.0
 30
0.0
 11
-2.5
 21
0.0
 31
0.0
  0
LINE
  5
3B8
330
3B3
100
AcDbEntity
  8
ASSI
 62
     0
100
AcDbLine
 10
0.0
 20
0.0
 30
0.0
 11
0.0
 21
-2.5
 31
0.0
  0
LINE
  5
3B9
330
3B3
100
AcDbEntity
  8
ASSI
 62
     0
100
AcDbLine
 10
0.0
 20
0.0
 30
0.0
 11
2.5
 21
0.0
 31
0.0
  0
LINE
  5
3BA
330
3B3
100
AcDbEntity
  8
ASSI
 62
     0
100
AcDbLine
 10
0.0
 20
5.0
 30
0.0
 11
0.0
 21
7.7
 31
0.0
  0
LINE
  5
3BB
330
3B3
100
AcDbEntity
  8
ASSI
 62
     0
100
AcDbLine
 10
-5.0
 20
0.0
 30
0.0
 11
-7.7
 21
0.0
 31
0.0
  0
LINE
  5
3BC
330
3B3
100
AcDbEntity
  8
ASSI
 62
     0
100
AcDbLine
 10
0.0
 20
-5.0
 30
0.0
 11
0.0
 21
-7.7
 31
0.0
  0
LINE
  5
3BD
330
3B3
100
AcDbEntity
  8
ASSI
 62
     0
100
AcDbLine
 10
5.0
 20
0.0
 30
0.0
 11
7.7
 21
0.0
 31
0.0
  0
ENDBLK
  5
3B5
330
3B3
100
AcDbEntity
  8
0
100
AcDbBlockEnd
  0
BLOCK
  5
3C0
330
3BF
100
AcDbEntity
  8
0
100
AcDbBlockBegin
  2
SW_CENTERMARKSYMBOL_6
 70
     0
 10
0.0
 20
0.0
 30
0.0
  3
SW_CENTERMARKSYMBOL_6
  1
SW_CENTERMARKSYMBOL_6
  0
LINE
  5
3C2
330
3BF
100
AcDbEntity
  8
ASSI
 62
     0
100
AcDbLine
 10
0.0
 20
0.0
 30
0.0
 11
0.0
 21
2.5
 31
0.0
  0
LINE
  5
3C3
330
3BF
100
AcDbEntity
  8
ASSI
 62
     0
100
AcDbLine
 10
0.0
 20
0.0
 30
0.0
 11
-2.5
 21
0.0
 31
0.0
  0
LINE
  5
3C4
330
3BF
100
AcDbEntity
  8
ASSI
 62
     0
100
AcDbLine
 10
0.0
 20
0.0
 30
0.0
 11
0.0
 21
-2.5
 31
0.0
  0
LINE
  5
3C5
330
3BF
100
AcDbEntity
  8
ASSI
 62
     0
100
AcDbLine
 10
0.0
 20
0.0
 30
0.0
 11
2.5
 21
0.0
 31
0.0
  0
LINE
  5
3C6
330
3BF
100
AcDbEntity
  8
ASSI
 62
     0
100
AcDbLine
 10
0.0
 20
5.0
 30
0.0
 11
0.0
 21
7.7
 31
0.0
  0
LINE
  5
3C7
330
3BF
100
AcDbEntity
  8
ASSI
 62
     0
100
AcDbLine
 10
-5.0
 20
0.0
 30
0.0
 11
-7.7
 21
0.0
 31
0.0
  0
LINE
  5
3C8
330
3BF
100
AcDbEntity
  8
ASSI
 62
     0
100
AcDbLine
 10
0.0
 20
-5.0
 30
0.0
 11
0.0
 21
-7.7
 31
0.0
  0
LINE
  5
3C9
330
3BF
100
AcDbEntity
  8
ASSI
 62
     0
100
AcDbLine
 10
5.0
 20
0.0
 30
0.0
 11
7.7
 21
0.0
 31
0.0
  0
ENDBLK
  5
3C1
330
3BF
100
AcDbEntity
  8
0
100
AcDbBlockEnd
  0
BLOCK
  5
3CC
330
3CB
100
AcDbEntity
  8
0
100
AcDbBlockBegin
  2
SW_CENTERMARKSYMBOL_7
 70
     0
 10
0.0
 20
0.0
 30
0.0
  3
SW_CENTERMARKSYMBOL_7
  1
SW_CENTERMARKSYMBOL_7
  0
LINE
  5
3CE
330
3CB
100
AcDbEntity
  8
ASSI
 62
     0
100
AcDbLine
 10
0.0
 20
0.0
 30
0.0
 11
0.0
 21
2.5
 31
0.0
  0
LINE
  5
3CF
330
3CB
100
AcDbEntity
  8
ASSI
 62
     0
100
AcDbLine
 10
0.0
 20
0.0
 30
0.0
 11
-2.5
 21
0.0
 31
0.0
  0
LINE
  5
3D0
330
3CB
100
AcDbEntity
  8
ASSI
 62
     0
100
AcDbLine
 10
0.0
 20
0.0
 30
0.0
 11
0.0
 21
-2.5
 31
0.0
  0
LINE
  5
3D1
330
3CB
100
AcDbEntity
  8
ASSI
 62
     0
100
AcDbLine
 10
0.0
 20
0.0
 30
0.0
 11
2.5
 21
0.0
 31
0.0
  0
LINE
  5
3D2
330
3CB
100
AcDbEntity
  8
ASSI
 62
     0
100
AcDbLine
 10
0.0
 20
5.0
 30
0.0
 11
0.0
 21
7.7
 31
0.0
  0
LINE
  5
3D3
330
3CB
100
AcDbEntity
  8
ASSI
 62
     0
100
AcDbLine
 10
-5.0
 20
0.0
 30
0.0
 11
-7.7
 21
0.0
 31
0.0
  0
LINE
  5
3D4
330
3CB
100
AcDbEntity
  8
ASSI
 62
     0
100
AcDbLine
 10
0.0
 20
-5.0
 30
0.0
 11
0.0
 21
-7.7
 31
0.0
  0
LINE
  5
3D5
330
3CB
100
AcDbEntity
  8
ASSI
 62
     0
100
AcDbLine
 10
5.0
 20
0.0
 30
0.0
 11
7.7
 21
0.0
 31
0.0
  0
ENDBLK
  5
3CD
330
3CB
100
AcDbEntity
  8
0
100
AcDbBlockEnd
  0
BLOCK
  5
3D8
330
3D7
100
AcDbEntity
  8
0
100
AcDbBlockBegin
  2
SW_CENTERMARKSYMBOL_8
 70
     0
 10
0.0
 20
0.0
 30
0.0
  3
SW_CENTERMARKSYMBOL_8
  1
SW_CENTERMARKSYMBOL_8
  0
LINE
  5
3DA
330
3D7
100
AcDbEntity
  8
ASSI
 62
     0
100
AcDbLine
 10
0.0
 20
0.0
 30
0.0
 11
0.0
 21
2.5
 31
0.0
  0
LINE
  5
3DB
330
3D7
100
AcDbEntity
  8
ASSI
 62
     0
100
AcDbLine
 10
0.0
 20
0.0
 30
0.0
 11
-2.5
 21
0.0
 31
0.0
  0
LINE
  5
3DC
330
3D7
100
AcDbEntity
  8
ASSI
 62
     0
100
AcDbLine
 10
0.0
 20
0.0
 30
0.0
 11
0.0
 21
-2.5
 31
0.0
  0
LINE
  5
3DD
330
3D7
100
AcDbEntity
  8
ASSI
 62
     0
100
AcDbLine
 10
0.0
 20
0.0
 30
0.0
 11
2.5
 21
0.0
 31
0.0
  0
LINE
  5
3DE
330
3D7
100
AcDbEntity
  8
ASSI
 62
     0
100
AcDbLine
 10
0.0
 20
5.0
 30
0.0
 11
0.0
 21
7.7
 31
0.0
  0
LINE
  5
3DF
330
3D7
100
AcDbEntity
  8
ASSI
 62
     0
100
AcDbLine
 10
-5.0
 20
0.0
 30
0.0
 11
-7.7
 21
0.0
 31
0.0
  0
LINE
  5
3E0
330
3D7
100
AcDbEntity
  8
ASSI
 62
     0
100
AcDbLine
 10
0.0
 20
-5.0
 30
0.0
 11
0.0
 21
-7.7
 31
0.0
  0
LINE
  5
3E1
330
3D7
100
AcDbEntity
  8
ASSI
 62
     0
100
AcDbLine
 10
5.0
 20
0.0
 30
0.0
 11
7.7
 21
0.0
 31
0.0
  0
ENDBLK
  5
3D9
330
3D7
100
AcDbEntity
  8
0
100
AcDbBlockEnd
  0
BLOCK
  5
687
330
686
100
AcDbEntity
  8
0
100
AcDbBlockBegin
  2
SW_CENTERMARKSYMBOL_9
 70
     0
 10
0.0
 20
0.0
 30
0.0
  3
SW_CENTERMARKSYMBOL_9
  1
SW_CENTERMARKSYMBOL_9
  0
LINE
  5
689
330
686
100
AcDbEntity
  8
ASSI
 62
     0
100
AcDbLine
 10
0.0
 20
0.0
 30
0.0
 11
0.0
 21
2.5
 31
0.0
  0
LINE
  5
68A
330
686
100
AcDbEntity
  8
ASSI
 62
     0
100
AcDbLine
 10
0.0
 20
0.0
 30
0.0
 11
-2.5
 21
0.0
 31
0.0
  0
LINE
  5
68B
330
686
100
AcDbEntity
  8
ASSI
 62
     0
100
AcDbLine
 10
0.0
 20
0.0
 30
0.0
 11
0.0
 21
-2.5
 31
0.0
  0
LINE
  5
68C
330
686
100
AcDbEntity
  8
ASSI
 62
     0
100
AcDbLine
 10
0.0
 20
0.0
 30
0.0
 11
2.5
 21
0.0
 31
0.0
  0
LINE
  5
68D
330
686
100
AcDbEntity
  8
ASSI
 62
     0
100
AcDbLine
 10
0.0
 20
5.0
 30
0.0
 11
0.0
 21
7.7
 31
0.0
  0
LINE
  5
68E
330
686
100
AcDbEntity
  8
ASSI
 62
     0
100
AcDbLine
 10
-5.0
 20
0.0
 30
0.0
 11
-7.7
 21
0.0
 31
0.0
  0
LINE
  5
68F
330
686
100
AcDbEntity
  8
ASSI
 62
     0
100
AcDbLine
 10
0.0
 20
-5.0
 30
0.0
 11
0.0
 21
-7.7
 31
0.0
  0
LINE
  5
690
330
686
100
AcDbEntity
  8
ASSI
 62
     0
100
AcDbLine
 10
5.0
 20
0.0
 30
0.0
 11
7.7
 21
0.0
 31
0.0
  0
ENDBLK
  5
688
330
686
100
AcDbEntity
  8
0
100
AcDbBlockEnd
  0
BLOCK
  5
693
330
692
100
AcDbEntity
  8
0
100
AcDbBlockBegin
  2
SW_CENTERMARKSYMBOL_10
 70
     0
 10
0.0
 20
0.0
 30
0.0
  3
SW_CENTERMARKSYMBOL_10
  1
SW_CENTERMARKSYMBOL_10
  0
LINE
  5
695
330
692
100
AcDbEntity
  8
ASSI
 62
     0
100
AcDbLine
 10
0.0
 20
0.0
 30
0.0
 11
0.0
 21
2.5
 31
0.0
  0
LINE
  5
696
330
692
100
AcDbEntity
  8
ASSI
 62
     0
100
AcDbLine
 10
0.0
 20
0.0
 30
0.0
 11
-2.5
 21
0.0
 31
0.0
  0
LINE
  5
697
330
692
100
AcDbEntity
  8
ASSI
 62
     0
100
AcDbLine
 10
0.0
 20
0.0
 30
0.0
 11
0.0
 21
-2.5
 31
0.0
  0
LINE
  5
698
330
692
100
AcDbEntity
  8
ASSI
 62
     0
100
AcDbLine
 10
0.0
 20
0.0
 30
0.0
 11
2.5
 21
0.0
 31
0.0
  0
LINE
  5
699
330
692
100
AcDbEntity
  8
ASSI
 62
     0
100
AcDbLine
 10
0.0
 20
5.0
 30
0.0
 11
0.0
 21
7.7
 31
0.0
  0
LINE
  5
69A
330
692
100
AcDbEntity
  8
ASSI
 62
     0
100
AcDbLine
 10
-5.0
 20
0.0
 30
0.0
 11
-7.7
 21
0.0
 31
0.0
  0
LINE
  5
69B
330
692
100
AcDbEntity
  8
ASSI
 62
     0
100
AcDbLine
 10
0.0
 20
-5.0
 30
0.0
 11
0.0
 21
-7.7
 31
0.0
  0
LINE
  5
69C
330
692
100
AcDbEntity
  8
ASSI
 62
     0
100
AcDbLine
 10
5.0
 20
0.0
 30
0.0
 11
7.7
 21
0.0
 31
0.0
  0
ENDBLK
  5
694
330
692
100
AcDbEntity
  8
0
100
AcDbBlockEnd
  0
ENDSEC
  0
SECTION
  2
ENTITIES
  0
MTEXT
  5
76
330
1F
100
AcDbEntity
  8
0
  6
Continuous
 62
     7
370
     0
100
AcDbMText
 10
690.9386610213405
 20
540.0195391148773
 30
0.0
 40
19.05
 41
0.0
 46
0.0
 71
     1
 72
     1
  1
8060GEA
  7
SLDTEXTSTYLE0
 73
     1
 44
1.0
  0
HATCH
  5
1DC
330
1F
100
AcDbEntity
  8
TRATTEGGIO
 62
     4
100
AcDbHatch
 10
0.0
 20
0.0
 30
0.0
210
0.0
220
0.0
230
1.0
  2
ANSI38
 70
     0
 71
     0
 91
        1
 92
        0
 93
        3
 72
     4
 94
        3
 73
     1
 74
     0
 95
       14
 96
       10
 40
0.0
 40
0.0
 40
0.0
 40
0.0
 40
0.0005347418882896
 40
0.0005347418882896
 40
0.0005347418882896
 40
0.0012836214843431
 40
0.0012836214843431
 40
0.0012836214843431
 40
0.0024318076373328
 40
0.0024318076373328
 40
0.0024318076373328
 40
0.0024318076373328
 10
222.2158370394945
 20
533.2525070021705
 42
1.0
 10
222.2158370394945
 20
533.2525070021705
 42
1.0
 10
222.2017827606421
 20
533.2759189469582
 42
1.0
 10
222.1756044620142
 20
533.3182401348322
 42
1.0
 10
222.1390581342518
 20
533.3773228134021
 42
1.0
 10
222.0785202342059
 20
533.4734755008633
 42
1.0
 10
222.0022609576944
 20
533.5864901274556
 42
1.0
 10
221.8855491936718
 20
533.7594544805589
 42
1.0
 10
221.7298352042071
 20
533.974305963713
 42
1.0
 10
221.5473613630481
 20
534.1949230056928
 42
1.0
 97
        0
 72
     1
 10
221.5473613630481
 20
534.1949230056928
 11
221.5473613791457
 21
534.1949230056928
 72
     4
 94
        3
 73
     1
 74
     0
 95
        8
 96
        4
 40
0.1906742093540515
 40
0.1906742093540515
 40
0.1906742093540515
 40
0.1906742093540515
 40
0.2110138513595565
 40
0.2110138513595565
 40
0.2110138513595565
 40
0.2110138513595565
 10
221.5473613695742
 20
534.1949229978026
 42
1.0
 10
221.7940930351045
 20
533.8966160732898
 42
1.0
 10
222.016479933427
 20
533.5816929014792
 42
1.0
 10
222.2158370397823
 20
533.2525070016954
 42
1.0
 97
        0
 97
        0
 75
     0
 76
     1
 52
0.0
 41
1.0
 77
     0
 78
     2
 53
45.0
 43
0.0
 44
0.0
 45
-2.245064030267288
 46
2.245064030267288
 79
     0
 53
135.0
 43
0.0
 44
0.0
 45
-6.735192090801864
 46
2.245064030267289
 79
     2
 49
7.9375
 49
-4.7625
 98
        1
 10
0.0
 20
0.0
  0
HATCH
  5
1DE
330
1F
100
AcDbEntity
  8
TRATTEGGIO
 62
     4
100
AcDbHatch
 10
0.0
 20
0.0
 30
0.0
210
0.0
220
0.0
230
1.0
  2
ANSI38
 70
     0
 71
     0
 91
        1
 92
        0
 93
        2
 72
     4
 94
        3
 73
     1
 74
     0
 95
        8
 96
        4
 40
0.9059186149732893
 40
0.9059186149732893
 40
0.9059186149732893
 40
0.9059186149732893
 40
0.9583355005253174
 40
0.9583355005253174
 40
0.9583355005253174
 40
0.9583355005253174
 10
208.7307900982581
 20
531.194923005693
 42
1.0
 10
209.0894292191367
 20
532.2599820995799
 42
1.0
 10
209.5204267585772
 20
533.2752969550039
 42
1.0
 10
210.0010192043501
 20
534.1949230056772
 42
1.0
 97
        0
 72
     4
 94
        3
 73
     1
 74
     0
 95
        8
 96
        4
 40
0.0416644994746826
 40
0.0416644994746826
 40
0.0416644994746826
 40
0.0416644994746826
 40
0.0940813850267333
 40
0.0940813850267333
 40
0.0940813850267333
 40
0.0940813850267333
 10
210.0010192043466
 20
534.1949230056705
 42
1.0
 10
209.5204267585717
 20
533.2752969549924
 42
1.0
 10
209.0894292191298
 20
532.2599820995628
 42
1.0
 10
208.7307900982505
 20
531.19492300567
 42
1.0
 97
        0
 97
        0
 75
     0
 76
     1
 52
0.0
 41
1.0
 77
     0
 78
     2
 53
45.0
 43
0.0
 44
0.0
 45
-2.245064030267288
 46
2.245064030267288
 79
     0
 53
135.0
 43
0.0
 44
0.0
 45
-6.735192090801864
 46
2.245064030267289
 79
     2
 49
7.9375
 49
-4.7625
 98
        1
 10
0.0
 20
0.0
  0
LINE
  5
33B
330
1F
100
AcDbEntity
  8
0
100
AcDbLine
 10
602.9143040873703
 20
448.8267881324
 30
0.0
 11
602.9143040873703
 21
431.9267851761
 31
0.0
  0
LINE
  5
33C
330
1F
100
AcDbEntity
  8
0
100
AcDbLine
 10
602.9143040873703
 20
375.7267837873
 30
0.0
 11
602.9143040873703
 21
358.8267845562
 31
0.0
  0
LINE
  5
33D
330
1F
100
AcDbEntity
  8
0
100
AcDbLine
 10
624.6143063403704
 20
431.4628151705
 30
0.0
 11
623.6143043138703
 21
431.8267834833
 31
0.0
  0
LINE
  5
33E
330
1F
100
AcDbEntity
  8
0
100
AcDbLine
 10
607.6143016912704
 20
431.8267834833
 30
0.0
 11
606.6142996646704
 21
431.4628151705
 31
0.0
  0
LINE
  5
33F
330
1F
100
AcDbEntity
  8
0
100
AcDbLine
 10
624.6143063403704
 20
431.32678247
 30
0.0
 11
624.6143063403704
 21
431.4628151705
 31
0.0
  0
LINE
  5
340
330
1F
100
AcDbEntity
  8
0
100
AcDbLine
 10
606.6142996646704
 20
431.4628151705
 30
0.0
 11
606.6142996646704
 21
431.32678247
 31
0.0
  0
LINE
  5
341
330
1F
100
AcDbEntity
  8
0
100
AcDbLine
 10
606.6142996646704
 20
376.3267846307
 30
0.0
 11
606.6142996646704
 21
376.1907556554
 31
0.0
  0
LINE
  5
342
330
1F
100
AcDbEntity
  8
0
100
AcDbLine
 10
624.6143063403704
 20
376.1907556554
 30
0.0
 11
624.6143063403704
 21
376.3267846307
 31
0.0
  0
LINE
  5
343
330
1F
100
AcDbEntity
  8
0
100
AcDbLine
 10
606.6142996646704
 20
376.1907556554
 30
0.0
 11
607.6143016912704
 21
375.82678548
 31
0.0
  0
LINE
  5
344
330
1F
100
AcDbEntity
  8
0
100
AcDbLine
 10
623.6143043138703
 20
375.82678548
 30
0.0
 11
624.6143063403704
 21
376.1907556554
 31
0.0
  0
ARC
  5
345
330
1F
100
AcDbEntity
  8
0
100
AcDbCircle
 10
625.2948311751703
 20
394.3538664273
 30
0.0
 40
1.999999999999989
100
AcDbArc
 50
339.185386847199
 51
20.81461315269989
  0
ARC
  5
346
330
1F
100
AcDbEntity
  8
0
100
AcDbCircle
 10
635.2143013287704
 20
413.8267845562
 30
0.0
 40
4.999999999999915
100
AcDbArc
 50
156.4218215217999
 51
203.5781784782
  0
LINE
  5
347
330
1F
100
AcDbEntity
  8
0
100
AcDbLine
 10
630.6317230560703
 20
411.8267839303
 30
0.0
 11
631.4143022395704
 21
411.8267839303
 31
0.0
  0
LINE
  5
348
330
1F
100
AcDbEntity
  8
0
100
AcDbLine
 10
631.4143022395704
 20
415.826784586
 30
0.0
 11
630.6317230560703
 21
415.826784586
 31
0.0
  0
ARC
  5
349
330
1F
100
AcDbEntity
  8
0
100
AcDbCircle
 10
635.2143013287704
 20
393.8267845562
 30
0.0
 40
4.999999999999915
100
AcDbArc
 50
156.4218215217999
 51
203.5781784782
  0
LINE
  5
34A
330
1F
100
AcDbEntity
  8
0
100
AcDbLine
 10
630.6317230560703
 20
391.8267843773
 30
0.0
 11
631.4143022395704
 21
391.8267843773
 31
0.0
  0
LINE
  5
34B
330
1F
100
AcDbEntity
  8
0
100
AcDbLine
 10
631.4143022395704
 20
395.826785033
 30
0.0
 11
630.6317230560703
 21
395.826785033
 31
0.0
  0
LINE
  5
34C
330
1F
100
AcDbEntity
  8
0
100
AcDbLine
 10
522.8775558866703
 20
416.8267828872
 30
0.0
 11
522.4643019832704
 21
416.8267828872
 31
0.0
  0
LINE
  5
34D
330
1F
100
AcDbEntity
  8
0
100
AcDbLine
 10
522.4643019832704
 20
390.8267860761
 30
0.0
 11
522.8820262350703
 21
390.8267860761
 31
0.0
  0
ARC
  5
34E
330
1F
100
AcDbEntity
  8
0
100
AcDbCircle
 10
522.4643013287703
 20
391.1267845562
 30
0.0
 40
0.3000000000000114
100
AcDbArc
 50
180.0
 51
270.0
  0
ARC
  5
34F
330
1F
100
AcDbEntity
  8
0
100
AcDbCircle
 10
522.4643013287703
 20
416.5267845562
 30
0.0
 40
0.3000000000000114
100
AcDbArc
 50
90.0
 51
180.0
  0
LINE
  5
350
330
1F
100
AcDbEntity
  8
0
100
AcDbLine
 10
634.9143018819703
 20
364.0767844854
 30
0.0
 11
656.9143017627704
 21
364.0767844854
 31
0.0
  0
ARC
  5
351
330
1F
100
AcDbEntity
  8
0
100
AcDbCircle
 10
656.9143013287703
 20
367.5767845562
 30
0.0
 40
3.5
100
AcDbArc
 50
270.0
 51
0.0
  0
LINE
  5
352
330
1F
100
AcDbEntity
  8
0
100
AcDbLine
 10
660.4143014051704
 20
367.5767845934
 30
0.0
 11
660.4143014051704
 21
440.0767815759
 31
0.0
  0
ARC
  5
353
330
1F
100
AcDbEntity
  8
0
100
AcDbCircle
 10
656.9143013287703
 20
440.0767845562
 30
0.0
 40
3.5
100
AcDbArc
 50
0.0
 51
90.0
  0
LINE
  5
354
330
1F
100
AcDbEntity
  8
0
100
AcDbLine
 10
656.9143017627704
 20
443.5767812183
 30
0.0
 11
634.9143018819703
 21
443.5767812183
 31
0.0
  0
ARC
  5
355
330
1F
100
AcDbEntity
  8
0
100
AcDbCircle
 10
634.9143013287703
 20
367.5767845562
 30
0.0
 40
3.5
100
AcDbArc
 50
180.0
 51
270.0
  0
ARC
  5
356
330
1F
100
AcDbEntity
  8
0
100
AcDbCircle
 10
634.9143013287703
 20
440.0767845562
 30
0.0
 40
3.5
100
AcDbArc
 50
90.0
 51
180.0
  0
LINE
  5
357
330
1F
100
AcDbEntity
  8
0
100
AcDbLine
 10
631.4143022395704
 20
440.0767815759
 30
0.0
 11
631.4143022395704
 21
367.5767845934
 31
0.0
  0
ARC
  5
358
330
1F
100
AcDbEntity
  8
0
100
AcDbCircle
 10
657.4143013287703
 20
440.8267845562
 30
0.0
 40
3.0
100
AcDbArc
 50
0.0
 51
90.0
  0
LINE
  5
359
330
1F
100
AcDbEntity
  8
0
100
AcDbLine
 10
657.4142953254703
 20
443.8267854502
 30
0.0
 11
634.4143083192704
 21
443.8267854502
 31
0.0
  0
ARC
  5
35A
330
1F
100
AcDbEntity
  8
0
100
AcDbCircle
 10
634.4143013287703
 20
440.8267845562
 30
0.0
 40
3.0
100
AcDbArc
 50
90.0
 51
180.0
  0
LINE
  5
35B
330
1F
100
AcDbEntity
  8
0
100
AcDbLine
 10
631.4143022395704
 20
440.8267868211
 30
0.0
 11
631.4143022395704
 21
431.9267851761
 31
0.0
  0
LINE
  5
35C
330
1F
100
AcDbEntity
  8
0
100
AcDbLine
 10
616.6642984248704
 20
431.9267851761
 30
0.0
 11
631.4143022395704
 21
431.9267851761
 31
0.0
  0
LINE
  5
35D
330
1F
100
AcDbEntity
  8
0
100
AcDbLine
 10
602.9143040873703
 20
448.8267881324
 30
0.0
 11
606.9689398504704
 21
448.8267881324
 31
0.0
  0
SPLINE
  5
35E
330
1F
100
AcDbEntity
  8
0
100
AcDbSpline
210
0.0
220
0.0
230
1.0
 70
     8
 71
     3
 72
    14
 73
    10
 74
     0
 42
0.000000001
 43
0.00000001
 40
0.0
 40
0.0
 40
0.0
 40
0.0
 40
0.0020249792419287
 40
0.2060700831063416
 40
0.4100196175830959
 40
0.5871810082902165
 40
0.7640523225747239
 40
0.882128053887708
 40
1.0
 40
1.0
 40
1.0
 40
1.0
 10
616.6642984249017
 20
444.8267874767909
 30
0.0
 10
616.6574190770152
 20
444.830497839223
 30
0.0
 10
615.95734879416
 20
445.2080793368048
 30
0.0
 10
614.5630812674908
 20
445.9610076596871
 30
0.0
 10
612.5901061353993
 20
446.976712626069
 30
0.0
 10
610.7451530422845
 20
447.8400824656334
 30
0.0
 10
609.2319093553645
 20
448.4137029188361
 30
0.0
 10
607.9668078188558
 20
448.7602047488061
 30
0.0
 10
607.301370929986
 20
448.8046064543049
 30
0.0
 10
606.9689398505113
 20
448.826788132442
 30
0.0
  0
LINE
  5
35F
330
1F
100
AcDbEntity
  8
0
100
AcDbLine
 10
602.9143040873703
 20
431.9267851761
 30
0.0
 11
616.6642984248704
 21
431.9267851761
 31
0.0
  0
LINE
  5
360
330
1F
100
AcDbEntity
  8
0
100
AcDbLine
 10
606.9689398504704
 20
448.8267881324
 30
0.0
 11
659.4142993785704
 21
448.8267881324
 31
0.0
  0
LINE
  5
361
330
1F
100
AcDbEntity
  8
0
100
AcDbLine
 10
659.4142993785704
 20
358.8267845562
 30
0.0
 11
606.9689398504704
 21
358.8267845562
 31
0.0
  0
SPLINE
  5
362
330
1F
100
AcDbEntity
  8
0
100
AcDbSpline
210
0.0
220
0.0
230
1.0
 70
     8
 71
     3
 72
    14
 73
    10
 74
     0
 42
0.000000001
 43
0.00000001
 40
0.0
 40
0.0
 40
0.0
 40
0.0
 40
0.1163545795585166
 40
0.2359508553392611
 40
0.4105768359246088
 40
0.5899819142411983
 40
0.7919483299546793
 40
0.9979749531348077
 40
1.0
 40
1.0
 40
1.0
 40
1.0
 10
606.9689398505113
 20
358.8267845561633
 30
0.0
 10
607.2967669676826
 20
358.8485330278702
 30
0.0
 10
607.9615546278972
 20
358.892635894479
 30
0.0
 10
609.2205701525859
 20
359.2357949240296
 30
0.0
 10
610.7368063595009
 20
359.8115834116324
 30
0.0
 10
612.576371178249
 20
360.669346560661
 30
0.0
 10
614.5558749167133
 20
361.6896009661935
 30
0.0
 10
615.9506413601808
 20
362.4418089607624
 30
0.0
 10
616.6574190856633
 20
362.8230737494332
 30
0.0
 10
616.6642984249017
 20
362.8267847461531
 30
0.0
  0
LINE
  5
363
330
1F
100
AcDbEntity
  8
0
100
AcDbLine
 10
616.6642984248704
 20
375.7267837873
 30
0.0
 11
602.9143040873703
 21
375.7267837873
 31
0.0
  0
LINE
  5
364
330
1F
100
AcDbEntity
  8
0
100
AcDbLine
 10
602.9143040873703
 20
358.8267845562
 30
0.0
 11
606.9689398504704
 21
358.8267845562
 31
0.0
  0
LINE
  5
365
330
1F
100
AcDbEntity
  8
0
100
AcDbLine
 10
631.4143022395704
 20
375.7267837873
 30
0.0
 11
616.6642984248704
 21
375.7267837873
 31
0.0
  0
LINE
  5
366
330
1F
100
AcDbEntity
  8
0
100
AcDbLine
 10
631.4143022395704
 20
375.7267837873
 30
0.0
 11
631.4143022395704
 21
366.8267849361
 31
0.0
  0
ARC
  5
367
330
1F
100
AcDbEntity
  8
0
100
AcDbCircle
 10
634.4143013287703
 20
366.8267845562
 30
0.0
 40
3.0
100
AcDbArc
 50
180.0
 51
270.0
  0
LINE
  5
368
330
1F
100
AcDbEntity
  8
0
100
AcDbLine
 10
634.4143083192704
 20
363.8267844444
 30
0.0
 11
657.4142953254703
 21
363.8267844444
 31
0.0
  0
ARC
  5
369
330
1F
100
AcDbEntity
  8
0
100
AcDbCircle
 10
657.4143013287703
 20
366.8267845562
 30
0.0
 40
3.0
100
AcDbArc
 50
270.0
 51
0.0
  0
LINE
  5
36A
330
1F
100
AcDbEntity
  8
0
100
AcDbLine
 10
663.4143074847703
 20
444.8267874768
 30
0.0
 11
663.4143074847703
 21
362.8267847462
 31
0.0
  0
LINE
  5
36B
330
1F
100
AcDbEntity
  8
0
100
AcDbLine
 10
660.4143014051704
 20
366.8267849361
 30
0.0
 11
660.4143014051704
 21
440.8267868211
 31
0.0
  0
ARC
  5
36C
330
1F
100
AcDbEntity
  8
0
100
AcDbCircle
 10
659.4143013287703
 20
444.8267845562
 30
0.0
 40
4.0
100
AcDbArc
 50
0.0
 51
90.0
  0
ARC
  5
36D
330
1F
100
AcDbEntity
  8
0
100
AcDbCircle
 10
659.4143013287703
 20
362.8267845562
 30
0.0
 40
4.0
100
AcDbArc
 50
270.0
 51
0.0
  0
LINE
  5
36E
330
1F
100
AcDbEntity
  8
0
100
AcDbLine
 10
620.6618180371704
 20
431.8267834833
 30
0.0
 11
607.6143016912704
 21
431.8267834833
 31
0.0
  0
LINE
  5
36F
330
1F
100
AcDbEntity
  8
0
100
AcDbLine
 10
623.6143043138703
 20
431.8267834833
 30
0.0
 11
620.6618180371704
 21
431.8267834833
 31
0.0
  0
LINE
  5
370
330
1F
100
AcDbEntity
  8
0
100
AcDbLine
 10
621.2927481033703
 20
431.4628151705
 30
0.0
 11
606.6142996646704
 21
431.4628151705
 31
0.0
  0
LINE
  5
371
330
1F
100
AcDbEntity
  8
0
100
AcDbLine
 10
624.6143063403704
 20
431.4628151705
 30
0.0
 11
621.2927481033703
 21
431.4628151705
 31
0.0
  0
LINE
  5
372
330
1F
100
AcDbEntity
  8
0
100
AcDbLine
 10
606.6142996646704
 20
376.1907556554
 30
0.0
 11
624.6143063403704
 21
376.1907556554
 31
0.0
  0
LINE
  5
373
330
1F
100
AcDbEntity
  8
0
100
AcDbLine
 10
607.6143016912704
 20
375.82678548
 30
0.0
 11
623.6143043138703
 21
375.82678548
 31
0.0
  0
LINE
  5
374
330
1F
100
AcDbEntity
  8
0
100
AcDbLine
 10
630.6317230560703
 20
411.8267839303
 30
0.0
 11
630.6317230560703
 21
415.826784586
 31
0.0
  0
LINE
  5
375
330
1F
100
AcDbEntity
  8
0
100
AcDbLine
 10
630.6317230560703
 20
391.8267843773
 30
0.0
 11
630.6317230560703
 21
395.826785033
 31
0.0
  0
LINE
  5
376
330
1F
100
AcDbEntity
  8
0
100
AcDbLine
 10
522.1643006302704
 20
404.5020510903
 30
0.0
 11
522.1643006302704
 21
416.5267852595
 31
0.0
  0
LINE
  5
377
330
1F
100
AcDbEntity
  8
0
100
AcDbLine
 10
522.1643006302704
 20
391.1267837038
 30
0.0
 11
522.1643006302704
 21
404.5020510903
 31
0.0
  0
SPLINE
  5
378
330
1F
100
AcDbEntity
  8
0
100
AcDbSpline
210
0.0
220
0.0
230
1.0
 70
     8
 71
     3
 72
    11
 73
     7
 74
     0
 42
0.000000001
 43
0.00000001
 40
0.0
 40
0.0
 40
0.0
 40
0.0
 40
0.4310335059478601
 40
0.7083067863518965
 40
0.8903853737780765
 40
1.0
 40
1.0
 40
1.0
 40
1.0
 10
622.521542558851
 20
431.3267824700008
 30
0.0
 10
622.3235135402085
 20
431.3029773552246
 30
0.0
 10
621.9980973118559
 20
431.2638589940923
 30
0.0
 10
621.6171277885938
 20
431.0153962332297
 30
0.0
 10
621.4084170126309
 20
430.784311666215
 30
0.0
 10
621.3423542764227
 20
430.6284653983548
 30
0.0
 10
621.3175287343881
 20
430.569900338901
 30
0.0
  0
LINE
  5
379
330
1F
100
AcDbEntity
  8
0
100
AcDbLine
 10
627.1642973519704
 20
431.32678247
 30
0.0
 11
622.5215425588704
 21
431.32678247
 31
0.0
  0
LINE
  5
37A
330
1F
100
AcDbEntity
  8
0
100
AcDbLine
 10
627.1642973519704
 20
431.32678247
 30
0.0
 11
627.1642973519704
 21
376.3267846307
 31
0.0
  0
LINE
  5
37B
330
1F
100
AcDbEntity
  8
0
100
AcDbLine
 10
627.1642973519704
 20
376.3267846307
 30
0.0
 11
622.5215425588704
 21
376.3267846307
 31
0.0
  0
SPLINE
  5
37C
330
1F
100
AcDbEntity
  8
0
100
AcDbSpline
210
0.0
220
0.0
230
1.0
 70
     8
 71
     3
 72
    11
 73
     7
 74
     0
 42
0.000000001
 43
0.00000001
 40
0.0
 40
0.0
 40
0.0
 40
0.0
 40
0.181314831542905
 40
0.4281013079884197
 40
0.8057867480623218
 40
1.0
 40
1.0
 40
1.0
 40
1.0
 10
621.3175287343881
 20
377.0836648991237
 30
0.0
 10
621.3629829377628
 20
376.9891913141275
 30
0.0
 10
621.4703045713695
 20
376.766130326987
 30
0.0
 10
621.8044096249146
 20
376.4992611853755
 30
0.0
 10
622.1736712027293
 20
376.3476964272914
 30
0.0
 10
622.4333554109259
 20
376.3320858768616
 30
0.0
 10
622.521542558851
 20
376.3267846306691
 30
0.0
  0
SPLINE
  5
37D
330
1F
100
AcDbEntity
  8
0
100
AcDbSpline
210
0.0
220
0.0
230
1.0
 70
     8
 71
     3
 72
    21
 73
    17
 74
     0
 42
0.000000001
 43
0.00000001
 40
0.0
 40
0.0
 40
0.0
 40
0.0
 40
0.1169499071806939
 40
0.2339050874071026
 40
0.2934117909209216
 40
0.3530692795606846
 40
0.4124514312648713
 40
0.4715814830224462
 40
0.5115237954934347
 40
0.5514859793404119
 40
0.5932831264618618
 40
0.6351119015376726
 40
0.7259814867648441
 40
0.816879238988374
 40
0.9084409172716649
 40
1.0
 40
1.0
 40
1.0
 40
1.0
 10
621.3175287343881
 20
430.569900338901
 30
0.0
 10
620.6120692658645
 20
428.5378644929726
 30
0.0
 10
619.2011185210108
 20
424.4737011805393
 30
0.0
 10
617.3780330036791
 20
419.3173347270553
 30
0.0
 10
615.8904856875231
 20
415.156945601047
 30
0.0
 10
614.8089764606339
 20
411.9846699283091
 30
0.0
 10
613.9299471932002
 20
408.7496216564943
 30
0.0
 10
613.4268955416317
 20
405.8000570204032
 30
0.0
 10
613.3516691193222
 20
403.1758500464613
 30
0.0
 10
613.5857876490089
 20
400.8906619429646
 30
0.0
 10
614.0639346216647
 20
398.6117942845468
 30
0.0
 10
614.9404440393553
 20
395.4493795979798
 30
0.0
 10
616.2509196598033
 20
391.4614213393107
 30
0.0
 10
617.9674082635163
 20
386.6529200968391
 30
0.0
 10
619.671868628754
 20
381.8556831291367
 30
0.0
 10
620.7689805493342
 20
378.6743226115859
 30
0.0
 10
621.3175287343881
 20
377.0836648991237
 30
0.0
  0
SPLINE
  5
37E
330
1F
100
AcDbEntity
  8
0
100
AcDbSpline
210
0.0
220
0.0
230
1.0
 70
     8
 71
     3
 72
    19
 73
    15
 74
     0
 42
0.000000001
 43
0.00000001
 40
0.0
 40
0.0
 40
0.0
 40
0.0
 40
0.0824318066880911
 40
0.1649187091103092
 40
0.2473453340670517
 40
0.3320168849502357
 40
0.4167551003848303
 40
0.5014244042034856
 40
0.5833721233858472
 40
0.6653822381916611
 40
0.747331900234483
 40
0.8315312792501508
 40
0.9157950523570348
 40
1.0
 40
1.0
 40
1.0
 40
1.0
 10
525.1822290815733
 20
377.0836648991237
 30
0.0
 10
524.872348359758
 20
378.5082263841819
 30
0.0
 10
524.2523797981892
 20
381.3583015020674
 30
0.0
 10
523.5134896533953
 20
385.7165686004246
 30
0.0
 10
522.9155418122576
 20
390.1622095545888
 30
0.0
 10
522.4837178949449
 20
394.6920633847096
 30
0.0
 10
522.2210375950024
 20
399.2908724352508
 30
0.0
 10
522.1354278943681
 20
403.8550335691115
 30
0.0
 10
522.2230958621624
 20
408.3693473704089
 30
0.0
 10
522.4748260185256
 20
412.820428829437
 30
0.0
 10
522.8924642282939
 20
417.2855999902508
 30
0.0
 10
523.483790435957
 20
421.7486105843425
 30
0.0
 10
524.2333165387261
 20
426.2027668634851
 30
0.0
 10
524.8659985400354
 20
429.1145280874658
 30
0.0
 10
525.1822290815733
 20
430.569900338901
 30
0.0
  0
LINE
  5
37F
330
1F
100
AcDbEntity
  8
0
100
AcDbLine
 10
614.3832361199703
 20
376.3267846307
 30
0.0
 11
525.3578392662703
 21
376.3267846307
 31
0.0
  0
LINE
  5
380
330
1F
100
AcDbEntity
  8
0
100
AcDbLine
 10
622.5215425588704
 20
376.3267846307
 30
0.0
 11
616.8453624345703
 21
376.3267846307
 31
0.0
  0
SPLINE
  5
381
330
1F
100
AcDbEntity
  8
0
100
AcDbSpline
210
0.0
220
0.0
230
1.0
 70
     8
 71
     3
 72
     9
 73
     5
 74
     0
 42
0.000000001
 43
0.00000001
 40
0.0
 40
0.0
 40
0.0
 40
0.0
 40
0.8151073168378157
 40
1.0
 40
1.0
 40
1.0
 40
1.0
 10
616.8453624345682
 20
376.3267846306691
 30
0.0
 10
616.1748304294338
 20
376.3277057569195
 30
0.0
 10
615.3522000944054
 20
376.3288358243736
 30
0.0
 10
614.5344349176543
 20
376.327104702447
 30
0.0
 10
614.3832361199281
 20
376.3267846306691
 30
0.0
  0
SPLINE
  5
382
330
1F
100
AcDbEntity
  8
0
100
AcDbSpline
210
0.0
220
0.0
230
1.0
 70
     8
 71
     3
 72
    11
 73
     7
 74
     0
 42
0.000000001
 43
0.00000001
 40
0.0
 40
0.0
 40
0.0
 40
0.0
 40
0.2468775329952118
 40
0.4936495781587099
 40
0.7433800539508509
 40
1.0
 40
1.0
 40
1.0
 40
1.0
 10
525.3578392662428
 20
376.3267846306691
 30
0.0
 10
525.3553323555245
 20
376.3374105729839
 30
0.0
 10
525.3503196052613
 20
376.3586579172749
 30
0.0
 10
525.311410236073
 20
376.5245123141497
 30
0.0
 10
525.2546206118936
 20
376.7682340602472
 30
0.0
 10
525.2065774853737
 20
376.9775718603094
 30
0.0
 10
525.1822290815733
 20
377.0836648991237
 30
0.0
  0
LINE
  5
383
330
1F
100
AcDbEntity
  8
0
100
AcDbLine
 10
525.3578392662703
 20
431.32678247
 30
0.0
 11
614.3832361199703
 21
431.32678247
 31
0.0
  0
SPLINE
  5
384
330
1F
100
AcDbEntity
  8
0
100
AcDbSpline
210
0.0
220
0.0
230
1.0
 70
     8
 71
     3
 72
     9
 73
     5
 74
     0
 42
0.000000001
 43
0.00000001
 40
0.0
 40
0.0
 40
0.0
 40
0.0
 40
0.8151043073005348
 40
1.0
 40
1.0
 40
1.0
 40
1.0
 10
614.3832361199281
 20
431.3267824700008
 30
0.0
 10
615.053765590101
 20
431.3258673247425
 30
0.0
 10
615.8763958524703
 20
431.3247445908175
 30
0.0
 10
616.6941611528828
 20
431.3264644714752
 30
0.0
 10
616.8453624345682
 20
431.3267824700008
 30
0.0
  0
LINE
  5
385
330
1F
100
AcDbEntity
  8
0
100
AcDbLine
 10
616.8453624345703
 20
431.32678247
 30
0.0
 11
622.5215425588704
 21
431.32678247
 31
0.0
  0
SPLINE
  5
386
330
1F
100
AcDbEntity
  8
0
100
AcDbSpline
210
0.0
220
0.0
230
1.0
 70
     8
 71
     3
 72
    11
 73
     7
 74
     0
 42
0.000000001
 43
0.00000001
 40
0.0
 40
0.0
 40
0.0
 40
0.0
 40
0.2605112438886217
 40
0.521190289520231
 40
0.7773449785853862
 40
1.0
 40
1.0
 40
1.0
 40
1.0
 10
525.1822290815733
 20
430.569900338901
 30
0.0
 10
525.2069379653847
 20
430.6775577570334
 30
0.0
 10
525.2563716486117
 20
430.8929419381069
 30
0.0
 10
525.3144619908387
 20
431.1421016898692
 30
0.0
 10
525.3513952005196
 20
431.2994585489049
 30
0.0
 10
525.3557938268552
 20
431.3181094634188
 30
0.0
 10
525.3578392662428
 20
431.3267824700008
 30
0.0
  0
LINE
  5
387
330
1F
100
AcDbEntity
  8
0
100
AcDbLine
 10
619.6643045045703
 20
431.8267834833
 30
0.0
 11
619.6643045045703
 21
431.9267851761
 31
0.0
  0
LINE
  5
388
330
1F
100
AcDbEntity
  8
0
100
AcDbLine
 10
611.6643031932704
 20
431.8267834833
 30
0.0
 11
611.6643031932704
 21
431.9267851761
 31
0.0
  0
LINE
  5
389
330
1F
100
AcDbEntity
  8
0
100
AcDbLine
 10
611.6643031932704
 20
375.82678548
 30
0.0
 11
611.6643031932704
 21
375.7267837873
 31
0.0
  0
LINE
  5
38A
330
1F
100
AcDbEntity
  8
0
100
AcDbLine
 10
619.6643045045703
 20
375.82678548
 30
0.0
 11
619.6643045045703
 21
375.7267837873
 31
0.0
  0
LINE
  5
38B
330
1F
100
AcDbEntity
  8
0
  6
Continuous
 62
     8
370
     0
100
AcDbLine
 10
616.6642984248704
 20
444.8267874768
 30
0.0
 11
616.6642984248704
 21
431.9267851761
 31
0.0
  0
LINE
  5
38C
330
1F
100
AcDbEntity
  8
0
  6
Continuous
 62
     8
370
     0
100
AcDbLine
 10
660.4143014051704
 20
444.8267874768
 30
0.0
 11
616.6642984248704
 21
444.8267874768
 31
0.0
  0
LINE
  5
38D
330
1F
100
AcDbEntity
  8
0
  6
Continuous
 62
     8
370
     0
100
AcDbLine
 10
660.4143014051704
 20
444.8267874768
 30
0.0
 11
660.4143014051704
 21
440.8267868211
 31
0.0
  0
ELLIPSE
  5
38E
330
1F
100
AcDbEntity
  8
0
  6
Continuous
 62
     8
370
     0
100
AcDbEllipse
 10
659.4143013287703
 20
444.8267845562
 30
0.0
 11
0.0
 21
4.0
 31
0.0
210
0.0
220
0.0
230
1.0
 40
0.25
 41
4.712388980384693
 42
6.283185307179586
  0
LINE
  5
38F
330
1F
100
AcDbEntity
  8
0
  6
Continuous
 62
     8
370
     0
100
AcDbLine
 10
616.6642984248704
 20
362.8267847462
 30
0.0
 11
660.4143014051704
 21
362.8267847462
 31
0.0
  0
ELLIPSE
  5
390
330
1F
100
AcDbEntity
  8
0
  6
Continuous
 62
     8
370
     0
100
AcDbEllipse
 10
659.4143013287703
 20
362.8267845562
 30
0.0
 11
0.0
 21
4.0
 31
0.0
210
0.0
220
0.0
230
1.0
 40
0.25
 41
3.141592653589793
 42
4.712388980384693
  0
LINE
  5
391
330
1F
100
AcDbEntity
  8
0
  6
Continuous
 62
     8
370
     0
100
AcDbLine
 10
616.6642984248704
 20
375.7267837873
 30
0.0
 11
616.6642984248704
 21
362.8267847462
 31
0.0
  0
LINE
  5
392
330
1F
100
AcDbEntity
  8
0
  6
Continuous
 62
     8
370
     0
100
AcDbLine
 10
660.4143014051704
 20
366.8267849361
 30
0.0
 11
660.4143014051704
 21
362.8267847462
 31
0.0
  0
LINE
  5
393
330
1F
100
AcDbEntity
  8
0
  6
Continuous
 62
     8
370
     0
100
AcDbLine
 10
660.4143014051704
 20
362.8267847462
 30
0.0
 11
663.4143074847703
 21
362.8267847462
 31
0.0
  0
LINE
  5
394
330
1F
100
AcDbEntity
  8
0
  6
Continuous
 62
     8
370
     0
100
AcDbLine
 10
663.4143074847703
 20
444.8267874768
 30
0.0
 11
660.4143014051704
 21
444.8267874768
 31
0.0
  0
LINE
  5
395
330
1F
100
AcDbEntity
  8
0
  6
Continuous
 62
     8
370
     0
100
AcDbLine
 10
522.4643019832704
 20
395.5215161195
 30
0.0
 11
522.4643019832704
 21
390.8267860761
 31
0.0
  0
LINE
  5
396
330
1F
100
AcDbEntity
  8
0
  6
Continuous
 62
     8
370
     0
100
AcDbLine
 10
522.4643019832704
 20
416.8267828872
 30
0.0
 11
522.4643019832704
 21
412.1659902384
 31
0.0
  0
LINE
  5
397
330
1F
100
AcDbEntity
  8
0
  6
Continuous
 62
     8
370
     0
100
AcDbLine
 10
621.3175287343704
 20
430.5699003389
 30
0.0
 11
525.1822290815703
 21
430.5699003389
 31
0.0
  0
LINE
  5
398
330
1F
100
AcDbEntity
  8
0
  6
Continuous
 62
     8
370
     0
100
AcDbLine
 10
525.1822290815703
 20
377.0836648991
 30
0.0
 11
621.3175287343704
 21
377.0836648991
 31
0.0
  0
INSERT
  5
3BE
330
1F
100
AcDbEntity
  8
ASSI
100
AcDbBlockReference
  2
SW_CENTERMARKSYMBOL_5
 10
652.9143013287703
 20
437.8267845562
 30
0.0
  0
INSERT
  5
3CA
330
1F
100
AcDbEntity
  8
ASSI
100
AcDbBlockReference
  2
SW_CENTERMARKSYMBOL_6
 10
652.9143013287703
 20
425.8267845562
 30
0.0
  0
INSERT
  5
3D6
330
1F
100
AcDbEntity
  8
ASSI
100
AcDbBlockReference
  2
SW_CENTERMARKSYMBOL_7
 10
652.9143013287703
 20
381.8267845562
 30
0.0
  0
INSERT
  5
3E2
330
1F
100
AcDbEntity
  8
ASSI
100
AcDbBlockReference
  2
SW_CENTERMARKSYMBOL_8
 10
652.9143013287703
 20
369.8267845562
 30
0.0
  0
LINE
  5
3E3
330
1F
100
AcDbEntity
  8
0
100
AcDbLine
 10
602.6642998553704
 20
506.9691196873
 30
0.0
 11
602.6642998553704
 21
513.969118972
 31
0.0
  0
LINE
  5
3E4
330
1F
100
AcDbEntity
  8
0
100
AcDbLine
 10
583.6642986036703
 20
513.969118972
 30
0.0
 11
583.6642986036703
 21
506.9691196873
 31
0.0
  0
LINE
  5
3E5
330
1F
100
AcDbEntity
  8
0
100
AcDbLine
 10
557.6642980672704
 20
506.9691196873
 30
0.0
 11
557.6642980672704
 21
513.969118972
 31
0.0
  0
LINE
  5
3E6
330
1F
100
AcDbEntity
  8
0
100
AcDbLine
 10
538.6643005408703
 20
513.969118972
 30
0.0
 11
538.6643005408703
 21
506.9691196873
 31
0.0
  0
LINE
  5
3E7
330
1F
100
AcDbEntity
  8
0
100
AcDbLine
 10
522.6643016435703
 20
514.9691191359
 30
0.0
 11
522.6643016435703
 21
513.969118972
 31
0.0
  0
LINE
  5
3E8
330
1F
100
AcDbEntity
  8
0
100
AcDbLine
 10
522.1643006302704
 20
503.9691191955
 30
0.0
 11
522.1643006302704
 21
493.4691202684
 31
0.0
  0
LINE
  5
3E9
330
1F
100
AcDbEntity
  8
0
100
AcDbLine
 10
522.1643006302704
 20
493.4691202684
 30
0.0
 11
618.1642940141703
 21
493.4691202684
 31
0.0
  0
ARC
  5
3EA
330
1F
100
AcDbEntity
  8
0
100
AcDbCircle
 10
522.4643013287703
 20
517.2691194041
 30
0.0
 40
0.2999999999999985
100
AcDbArc
 50
180.0
 51
212.079778868013
  0
ARC
  5
3EB
330
1F
100
AcDbEntity
  8
0
100
AcDbCircle
 10
522.4643013287703
 20
542.6691194041
 30
0.0
 40
0.2999999999999545
100
AcDbArc
 50
147.9990199793967
 51
180.0
  0
LINE
  5
3EC
330
1F
100
AcDbEntity
  8
0
100
AcDbLine
 10
522.1643006302704
 20
516.6505130796
 30
0.0
 11
522.1643006302704
 21
514.9691191359
 31
0.0
  0
LINE
  5
3ED
330
1F
100
AcDbEntity
  8
0
100
AcDbLine
 10
522.1643006302704
 20
544.969120328
 30
0.0
 11
522.1643006302704
 21
543.2862893535
 31
0.0
  0
LINE
  5
3EE
330
1F
100
AcDbEntity
  8
0
100
AcDbLine
 10
613.4175812699704
 20
544.969120328
 30
0.0
 11
522.1643006302704
 21
544.969120328
 31
0.0
  0
LINE
  5
3EF
330
1F
100
AcDbEntity
  8
0
100
AcDbLine
 10
585.2643033363704
 20
506.9691196873
 30
0.0
 11
585.2643033363704
 21
505.9691195233
 31
0.0
  0
LINE
  5
3F0
330
1F
100
AcDbEntity
  8
0
100
AcDbLine
 10
601.0643025733704
 20
505.9691195233
 30
0.0
 11
601.0643025733704
 21
506.9691196873
 31
0.0
  0
LINE
  5
3F1
330
1F
100
AcDbEntity
  8
0
100
AcDbLine
 10
540.2643015481704
 20
506.9691196873
 30
0.0
 11
540.2643015481704
 21
505.9691195233
 31
0.0
  0
LINE
  5
3F2
330
1F
100
AcDbEntity
  8
0
100
AcDbLine
 10
556.0643007852703
 20
505.9691195233
 30
0.0
 11
556.0643007852703
 21
506.9691196873
 31
0.0
  0
LINE
  5
3F3
330
1F
100
AcDbEntity
  8
0
100
AcDbLine
 10
660.4143014051704
 20
542.4691189869
 30
0.0
 11
660.4143014051704
 21
539.4691194265
 31
0.0
  0
LINE
  5
3F4
330
1F
100
AcDbEntity
  8
0
100
AcDbLine
 10
648.2845326759704
 20
542.4691189869
 30
0.0
 11
660.4143014051704
 21
542.4691189869
 31
0.0
  0
LINE
  5
3F5
330
1F
100
AcDbEntity
  8
0
100
AcDbLine
 10
647.1562316514703
 20
539.4691194265
 30
0.0
 11
660.4143014051704
 21
539.4691194265
 31
0.0
  0
LINE
  5
3F6
330
1F
100
AcDbEntity
  8
0
100
AcDbLine
 10
635.4142954446703
 20
527.9691194041
 30
0.0
 11
635.4142954446703
 21
514.9691191359
 31
0.0
  0
LINE
  5
3F7
330
1F
100
AcDbEntity
  8
0
100
AcDbLine
 10
635.4142954446703
 20
514.9691191359
 30
0.0
 11
616.6642984248704
 21
514.9691191359
 31
0.0
  0
ARC
  5
3F8
330
1F
100
AcDbEntity
  8
0
100
AcDbCircle
 10
616.6643013287703
 20
528.7191194041
 30
0.0
 40
13.75000000000011
100
AcDbArc
 50
134.8390027472996
 51
270.0
  0
SPLINE
  5
3F9
330
1F
100
AcDbEntity
  8
0
100
AcDbSpline
210
0.0
220
0.0
230
1.0
 70
     8
 71
     3
 72
    13
 73
     9
 74
     0
 42
0.000000001
 43
0.00000001
 40
0.0
 40
0.0
 40
0.0
 40
0.0
 40
0.1918344850214136
 40
0.380025686462279
 40
0.5556355806730411
 40
0.7224937102500301
 40
0.8807321812526901
 40
1.0
 40
1.0
 40
1.0
 40
1.0
 10
646.8856712676904
 20
538.4691192625722
 30
0.0
 10
646.7373381256666
 20
537.7858601889068
 30
0.0
 10
646.4434889560745
 20
536.4323183662655
 30
0.0
 10
646.2738944542284
 20
534.410461077021
 30
0.0
 10
646.3337835379176
 20
532.4727799998934
 30
0.0
 10
646.6705349083071
 20
530.6756501089775
 30
0.0
 10
647.2445283046173
 20
529.1412132021585
 30
0.0
 10
647.8409931308222
 20
528.3214434664674
 30
0.0
 10
648.097344289007
 20
527.9691193863932
 30
0.0
  0
LINE
  5
3FA
330
1F
100
AcDbEntity
  8
0
100
AcDbLine
 10
648.0973442889704
 20
527.9691193864
 30
0.0
 11
635.4142954446703
 21
527.9691194041
 31
0.0
  0
SPLINE
  5
3FB
330
1F
100
AcDbEntity
  8
0
100
AcDbSpline
210
0.0
220
0.0
230
1.0
 70
     8
 71
     3
 72
    14
 73
    10
 74
     0
 42
0.000000001
 43
0.00000001
 40
0.0
 40
0.0
 40
0.0
 40
0.0
 40
0.1163545795585166
 40
0.2359508553392611
 40
0.4105768359246088
 40
0.5899819142411983
 40
0.7919483299546793
 40
0.9979749531348077
 40
1.0
 40
1.0
 40
1.0
 40
1.0
 10
606.9689398505113
 20
538.4691192625722
 30
0.0
 10
607.2967669676826
 20
538.7769280580882
 30
0.0
 10
607.9615546278972
 20
539.4011213546348
 30
0.0
 10
609.2205701525859
 20
540.3169225308736
 30
0.0
 10
610.7368063595009
 20
541.1760171626057
 30
0.0
 10
612.576371178249
 20
541.8980290074637
 30
0.0
 10
614.5558749167133
 20
542.3602879091876
 30
0.0
 10
615.9506413601808
 20
542.4687829733155
 30
0.0
 10
616.6574190856633
 20
542.469115747878
 30
0.0
 10
616.6642984249017
 20
542.4691189869008
 30
0.0
  0
LINE
  5
3FC
330
1F
100
AcDbEntity
  8
0
100
AcDbLine
 10
616.6642984248704
 20
542.4691189869
 30
0.0
 11
648.2845326759704
 21
542.4691189869
 31
0.0
  0
SPLINE
  5
3FD
330
1F
100
AcDbEntity
  8
0
100
AcDbSpline
210
0.0
220
0.0
230
1.0
 70
     8
 71
     3
 72
    12
 73
     8
 74
     0
 42
0.000000001
 43
0.00000001
 40
0.0
 40
0.0
 40
0.0
 40
0.0
 40
0.1963496024301
 40
0.3923334048641327
 40
0.5979272833631641
 40
0.8194310894750181
 40
1.0
 40
1.0
 40
1.0
 40
1.0
 10
648.2845326759241
 20
542.4691189869008
 30
0.0
 10
648.2659803125604
 20
542.4297202369113
 30
0.0
 10
648.228910148951
 20
542.3509961369414
 30
0.0
 10
647.9582591976377
 20
541.7433341122135
 30
0.0
 10
647.593994421754
 20
540.8230532002643
 30
0.0
 10
647.2035202018949
 20
539.6803540600154
 30
0.0
 10
646.9841771640857
 20
538.844498119091
 30
0.0
 10
646.8856712676904
 20
538.4691192625722
 30
0.0
  0
LINE
  5
3FE
330
1F
100
AcDbEntity
  8
0
100
AcDbLine
 10
663.4143074847703
 20
539.4691194265
 30
0.0
 11
663.4143074847703
 21
527.9691194041
 31
0.0
  0
SPLINE
  5
3FF
330
1F
100
AcDbEntity
  8
0
100
AcDbSpline
210
0.0
220
0.0
230
1.0
 70
     8
 71
     3
 72
    15
 73
    11
 74
     0
 42
0.000000001
 43
0.00000001
 40
0.0
 40
0.0
 40
0.0
 40
0.0
 40
0.1102852424471468
 40
0.2236073628648147
 40
0.33874666967653
 40
0.4539582038763065
 40
0.5722215114760923
 40
0.6904083303077497
 40
0.8429115390242685
 40
0.9999999999999999
 40
0.9999999999999999
 40
0.9999999999999999
 40
0.9999999999999999
 10
659.8714372016809
 20
527.9691194041333
 30
0.0
 10
660.1226762375484
 20
528.3198528953482
 30
0.0
 10
660.6320725721121
 20
529.0309778772471
 30
0.0
 10
661.1733351473895
 20
530.2298364799467
 30
0.0
 10
661.6014764619982
 20
531.4857651640071
 30
0.0
 10
661.9243053656916
 20
532.7943993813848
 30
0.0
 10
662.1666342100971
 20
534.1373095883338
 30
0.0
 10
662.3200579116628
 20
535.6481898539804
 30
0.0
 10
662.3520785283318
 20
537.3385907885969
 30
0.0
 10
662.1752400975122
 20
538.5315875055899
 30
0.0
 10
662.0855113365076
 20
539.13692038941
 30
0.0
  0
LINE
  5
400
330
1F
100
AcDbEntity
  8
0
100
AcDbLine
 10
663.4143074847703
 20
527.9691194041
 30
0.0
 11
659.8714372016703
 21
527.9691194041
 31
0.0
  0
ARC
  5
401
330
1F
100
AcDbEntity
  8
0
100
AcDbCircle
 10
660.4143013287703
 20
539.4691194041
 30
0.0
 40
3.0
100
AcDbArc
 50
0.0
 51
82.1044851733
  0
SPLINE
  5
402
330
1F
100
AcDbEntity
  8
0
100
AcDbSpline
210
0.0
220
0.0
230
1.0
 70
     8
 71
     3
 72
    13
 73
     9
 74
     0
 42
0.000000001
 43
0.00000001
 40
0.0
 40
0.0
 40
0.0
 40
0.0
 40
0.1871406890263799
 40
0.3740332161642564
 40
0.5659135142437548
 40
0.7590709926972938
 40
0.9502986386155722
 40
1.0
 40
1.0
 40
1.0
 40
1.0
 10
662.0855113365076
 20
539.13692038941
 30
0.0
 10
662.0150427658037
 20
539.4588716045014
 30
0.0
 10
661.8741990707424
 20
540.102347104432
 30
0.0
 10
661.5609703674755
 20
541.0093914833606
 30
0.0
 10
661.2241793466285
 20
541.7543453456508
 30
0.0
 10
660.9419979345902
 20
542.2574047172247
 30
0.0
 10
660.8337505835196
 20
542.4289090568059
 30
0.0
 10
660.8276636048777
 20
542.4386671243014
 30
0.0
 10
660.826407919111
 20
542.4406801207623
 30
0.0
  0
LINE
  5
403
330
1F
100
AcDbEntity
  8
0
100
AcDbLine
 10
655.5643012620703
 20
527.9691194041
 30
0.0
 11
655.5643012620703
 21
536.9191191016
 31
0.0
  0
LINE
  5
404
330
1F
100
AcDbEntity
  8
0
100
AcDbLine
 10
655.5643012620703
 20
536.9191191016
 30
0.0
 11
658.1143071748703
 21
539.4691194265
 31
0.0
  0
LINE
  5
405
330
1F
100
AcDbEntity
  8
0
100
AcDbLine
 10
658.1143071748703
 20
539.4691194265
 30
0.0
 11
660.4143014051704
 21
539.4691194265
 31
0.0
  0
ARC
  5
406
330
1F
100
AcDbEntity
  8
0
100
AcDbCircle
 10
660.4143013287703
 20
539.4691194041
 30
0.0
 40
3.0
100
AcDbArc
 50
82.1044851733
 51
90.0
  0
LINE
  5
407
330
1F
100
AcDbEntity
  8
0
100
AcDbLine
 10
659.8714372016703
 20
527.9691194041
 30
0.0
 11
655.5643012620703
 21
527.9691194041
 31
0.0
  0
LINE
  5
408
330
1F
100
AcDbEntity
  8
0
100
AcDbLine
 10
650.2643009521703
 20
536.9191191016
 30
0.0
 11
650.2643009521703
 21
527.9691194041
 31
0.0
  0
LINE
  5
409
330
1F
100
AcDbEntity
  8
0
100
AcDbLine
 10
655.5643012620703
 20
536.9191191016
 30
0.0
 11
650.2643009521703
 21
536.9191191016
 31
0.0
  0
LINE
  5
40A
330
1F
100
AcDbEntity
  8
0
100
AcDbLine
 10
655.5643012620703
 20
527.9691194041
 30
0.0
 11
650.2643009521703
 21
527.9691194041
 31
0.0
  0
LINE
  5
40B
330
1F
100
AcDbEntity
  8
0
100
AcDbLine
 10
647.7142950393703
 20
539.4691194265
 30
0.0
 11
650.2643009521703
 21
536.9191191016
 31
0.0
  0
LINE
  5
40C
330
1F
100
AcDbEntity
  8
0
100
AcDbLine
 10
647.1562316514703
 20
539.4691194265
 30
0.0
 11
647.7142950393703
 21
539.4691194265
 31
0.0
  0
LINE
  5
40D
330
1F
100
AcDbEntity
  8
0
100
AcDbLine
 10
650.2643009521703
 20
527.9691194041
 30
0.0
 11
648.0973442889704
 21
527.9691193864
 31
0.0
  0
LINE
  5
40E
330
1F
100
AcDbEntity
  8
0
100
AcDbLine
 10
588.0810921885703
 20
506.9691196873
 30
0.0
 11
583.6642986036703
 21
506.9691196873
 31
0.0
  0
LINE
  5
40F
330
1F
100
AcDbEntity
  8
0
100
AcDbLine
 10
602.6642998553704
 20
506.9691196873
 30
0.0
 11
588.0810921885703
 21
506.9691196873
 31
0.0
  0
LINE
  5
410
330
1F
100
AcDbEntity
  8
0
100
AcDbLine
 10
550.7188966371704
 20
506.9691196873
 30
0.0
 11
538.6643005408703
 21
506.9691196873
 31
0.0
  0
LINE
  5
411
330
1F
100
AcDbEntity
  8
0
100
AcDbLine
 10
557.6642980672704
 20
506.9691196873
 30
0.0
 11
550.7188966371704
 21
506.9691196873
 31
0.0
  0
LINE
  5
412
330
1F
100
AcDbEntity
  8
0
100
AcDbLine
 10
626.6643037892703
 20
514.9691191359
 30
0.0
 11
626.6643037892703
 21
513.969118972
 31
0.0
  0
LINE
  5
413
330
1F
100
AcDbEntity
  8
0
100
AcDbLine
 10
626.6643037892703
 20
513.969118972
 30
0.0
 11
621.6643085576703
 21
513.969118972
 31
0.0
  0
LINE
  5
414
330
1F
100
AcDbEntity
  8
0
100
AcDbLine
 10
621.6643085576703
 20
513.969118972
 30
0.0
 11
529.6919612087704
 21
513.969118972
 31
0.0
  0
LINE
  5
415
330
1F
100
AcDbEntity
  8
0
100
AcDbLine
 10
529.6919612087704
 20
513.969118972
 30
0.0
 11
524.7801175214704
 21
513.969118972
 31
0.0
  0
LINE
  5
416
330
1F
100
AcDbEntity
  8
0
100
AcDbLine
 10
524.7801175214704
 20
513.969118972
 30
0.0
 11
522.6643016435703
 21
513.969118972
 31
0.0
  0
LINE
  5
417
330
1F
100
AcDbEntity
  8
0
100
AcDbLine
 10
607.1643015243703
 20
505.9691195233
 30
0.0
 11
607.1643015243703
 21
503.9691191955
 31
0.0
  0
LINE
  5
418
330
1F
100
AcDbEntity
  8
0
100
AcDbLine
 10
597.1643036104704
 20
505.9691195233
 30
0.0
 11
607.1643015243703
 21
505.9691195233
 31
0.0
  0
LINE
  5
419
330
1F
100
AcDbEntity
  8
0
100
AcDbLine
 10
597.1643036104704
 20
505.9691195233
 30
0.0
 11
540.1642998553704
 21
505.9691195233
 31
0.0
  0
LINE
  5
41A
330
1F
100
AcDbEntity
  8
0
100
AcDbLine
 10
530.1643019415703
 20
503.9691191955
 30
0.0
 11
530.1643019415703
 21
505.9691195233
 31
0.0
  0
LINE
  5
41B
330
1F
100
AcDbEntity
  8
0
100
AcDbLine
 10
530.1643019415703
 20
505.9691195233
 30
0.0
 11
540.1642998553704
 21
505.9691195233
 31
0.0
  0
LINE
  5
41C
330
1F
100
AcDbEntity
  8
0
100
AcDbLine
 10
525.3578392662703
 20
498.4691192253
 30
0.0
 11
618.1642940141703
 21
498.4691192253
 31
0.0
  0
SPLINE
  5
41D
330
1F
100
AcDbEntity
  8
0
100
AcDbSpline
210
0.0
220
0.0
230
1.0
 70
     8
 71
     3
 72
    11
 73
     7
 74
     0
 42
0.000000001
 43
0.00000001
 40
0.0
 40
0.0
 40
0.0
 40
0.0
 40
0.2474822242006775
 40
0.4949698468530093
 40
0.7474821770206782
 40
1.0
 40
1.0
 40
1.0
 40
1.0
 10
523.3716187872312
 20
494.9987952454647
 30
0.0
 10
523.5069061928053
 20
495.1815650668196
 30
0.0
 10
523.7774839550444
 20
495.5471086963775
 30
0.0
 10
524.2553466759405
 20
496.3357013659556
 30
0.0
 10
524.7785449030171
 20
497.2857467033821
 30
0.0
 10
525.1647397450561
 20
498.0746588578834
 30
0.0
 10
525.3578392662428
 20
498.4691192253193
 30
0.0
  0
LINE
  5
41E
330
1F
100
AcDbEntity
  8
0
100
AcDbLine
 10
618.1642940141703
 20
498.4691192253
 30
0.0
 11
618.1642940141703
 21
494.9987952455
 31
0.0
  0
LINE
  5
41F
330
1F
100
AcDbEntity
  8
0
100
AcDbLine
 10
525.3578392662703
 20
503.9691191955
 30
0.0
 11
618.1642940141703
 21
503.9691191955
 31
0.0
  0
LINE
  5
420
330
1F
100
AcDbEntity
  8
0
100
AcDbLine
 10
525.3578392662703
 20
503.9691191955
 30
0.0
 11
525.3578392662703
 21
498.4691192253
 31
0.0
  0
LINE
  5
421
330
1F
100
AcDbEntity
  8
0
100
AcDbLine
 10
618.1642940141703
 20
503.9691191955
 30
0.0
 11
618.1642940141703
 21
498.4691192253
 31
0.0
  0
SPLINE
  5
422
330
1F
100
AcDbEntity
  8
0
100
AcDbSpline
210
0.0
220
0.0
230
1.0
 70
     8
 71
     3
 72
    11
 73
     7
 74
     0
 42
0.000000001
 43
0.00000001
 40
0.0
 40
0.0
 40
0.0
 40
0.0
 40
0.2340569322782825
 40
0.485066161330405
 40
0.7420981605740063
 40
1.0
 40
1.0
 40
1.0
 40
1.0
 10
522.1696203448198
 20
493.4757624610027
 30
0.0
 10
522.1804367213399
 20
493.4894112364283
 30
0.0
 10
522.2028528838824
 20
493.5176973420273
 30
0.0
 10
522.4313939743151
 20
493.8066977043963
 30
0.0
 10
522.8001850584117
 20
494.2732603892537
 30
0.0
 10
523.180926491379
 20
494.7566780926365
 30
0.0
 10
523.3716187872312
 20
494.9987952454647
 30
0.0
  0
LINE
  5
423
330
1F
100
AcDbEntity
  8
0
100
AcDbLine
 10
525.3578392662703
 20
503.9691191955
 30
0.0
 11
522.1643006302704
 21
503.9691191955
 31
0.0
  0
LINE
  5
424
330
1F
100
AcDbEntity
  8
0
100
AcDbLine
 10
618.1642940141703
 20
494.9987952455
 30
0.0
 11
618.1642940141703
 21
493.4691202684
 31
0.0
  0
LINE
  5
425
330
1F
100
AcDbEntity
  8
0
100
AcDbLine
 10
522.1643006302704
 20
517.2691189541
 30
0.0
 11
522.1643006302704
 21
542.6691195785
 31
0.0
  0
CIRCLE
  5
426
330
1F
100
AcDbEntity
  8
0
100
AcDbCircle
 10
592.1643013287703
 20
522.9691194041
 30
0.0
 40
3.995000000000006
  0
LINE
  5
427
330
1F
100
AcDbEntity
  8
0
100
AcDbLine
 10
590.4429485894703
 20
522.7768842919
 30
0.0
 11
591.4701079823703
 21
521.382269249
 31
0.0
  0
LINE
  5
428
330
1F
100
AcDbEntity
  8
0
100
AcDbLine
 10
591.4701079823703
 20
521.382269249
 30
0.0
 11
593.1914603211703
 21
521.5745040073
 31
0.0
  0
LINE
  5
429
330
1F
100
AcDbEntity
  8
0
100
AcDbLine
 10
593.1914603211703
 20
521.5745040073
 30
0.0
 11
593.8856532670703
 21
523.1613542742
 31
0.0
  0
LINE
  5
42A
330
1F
100
AcDbEntity
  8
0
100
AcDbLine
 10
593.8856532670703
 20
523.1613542742
 30
0.0
 11
592.8584938742704
 21
524.5559697828
 31
0.0
  0
LINE
  5
42B
330
1F
100
AcDbEntity
  8
0
100
AcDbLine
 10
592.8584938742704
 20
524.5559697828
 30
0.0
 11
591.1371489860703
 21
524.3637347917
 31
0.0
  0
LINE
  5
42C
330
1F
100
AcDbEntity
  8
0
100
AcDbLine
 10
591.1371489860703
 20
524.3637347917
 30
0.0
 11
590.4429485894703
 21
522.7768842919
 31
0.0
  0
CIRCLE
  5
42D
330
1F
100
AcDbEntity
  8
0
100
AcDbCircle
 10
592.1643013287703
 20
522.9691194041
 30
0.0
 40
3.599999999964008
  0
CIRCLE
  5
42E
330
1F
100
AcDbEntity
  8
0
100
AcDbCircle
 10
592.1643013287703
 20
522.9691194041
 30
0.0
 40
3.899999999999978
  0
ARC
  5
42F
330
1F
100
AcDbEntity
  8
0
100
AcDbCircle
 10
592.1643013287703
 20
522.9691194041
 30
0.0
 40
1.499999999999982
100
AcDbArc
 50
336.3722114304018
 51
36.37221143039969
  0
ARC
  5
430
330
1F
100
AcDbEntity
  8
0
100
AcDbCircle
 10
592.1643013287703
 20
522.9691194041
 30
0.0
 40
1.499999999999982
100
AcDbArc
 50
276.372211430401
 51
336.3722114304018
  0
ARC
  5
431
330
1F
100
AcDbEntity
  8
0
100
AcDbCircle
 10
592.1643013287703
 20
522.9691194041
 30
0.0
 40
1.499999999998889
100
AcDbArc
 50
216.3722114303993
 51
276.3722114304053
  0
ARC
  5
432
330
1F
100
AcDbEntity
  8
0
100
AcDbCircle
 10
592.1643013287703
 20
522.9691194041
 30
0.0
 40
1.499999999999001
100
AcDbArc
 50
36.37221143040024
 51
96.37221143039623
  0
ARC
  5
433
330
1F
100
AcDbEntity
  8
0
100
AcDbCircle
 10
592.1643013287703
 20
522.9691194041
 30
0.0
 40
1.499999999999001
100
AcDbArc
 50
96.37221143039623
 51
156.3722114303998
  0
ARC
  5
434
330
1F
100
AcDbEntity
  8
0
100
AcDbCircle
 10
592.1643013287703
 20
522.9691194041
 30
0.0
 40
1.499999999998954
100
AcDbArc
 50
156.3722114303981
 51
216.3722114304028
  0
LINE
  5
435
330
1F
100
AcDbEntity
  8
0
100
AcDbLine
 10
525.3578392662703
 20
514.9691191359
 30
0.0
 11
616.6642984248704
 21
514.9691191359
 31
0.0
  0
LINE
  5
436
330
1F
100
AcDbEntity
  8
0
100
AcDbLine
 10
525.3578392662703
 20
514.9691191359
 30
0.0
 11
525.3578392662703
 21
540.6987269266
 31
0.0
  0
CIRCLE
  5
437
330
1F
100
AcDbEntity
  8
0
100
AcDbCircle
 10
592.1643013287703
 20
522.9691194041
 30
0.0
 40
4.5
  0
SPLINE
  5
438
330
1F
100
AcDbEntity
  8
0
100
AcDbSpline
210
0.0
220
0.0
230
1.0
 70
     8
 71
     3
 72
    11
 73
     7
 74
     0
 42
0.000000001
 43
0.00000001
 40
0.0
 40
0.0
 40
0.0
 40
0.0
 40
0.2468775329952118
 40
0.4936495781587099
 40
0.7433800539508509
 40
1.0
 40
1.0
 40
1.0
 40
1.0
 10
525.3578392662428
 20
540.6987269266209
 30
0.0
 10
525.3553323555245
 20
540.809083558726
 30
0.0
 10
525.3503196052613
 20
541.0297496688609
 30
0.0
 10
525.311410236073
 20
541.3224107999303
 30
0.0
 10
525.2546206118936
 20
541.5563287322367
 30
0.0
 10
525.2065774853737
 20
541.630920344638
 30
0.0
 10
525.1822290815733
 20
541.6687236024699
 30
0.0
  0
CIRCLE
  5
439
330
1F
100
AcDbEntity
  8
0
100
AcDbCircle
 10
592.1643013287703
 20
522.9691194041
 30
0.0
 40
4.0
  0
SPLINE
  5
43A
330
1F
100
AcDbEntity
  8
0
100
AcDbSpline
210
0.0
220
0.0
230
1.0
 70
     8
 71
     3
 72
    13
 73
     9
 74
     0
 42
0.000000001
 43
0.00000001
 40
0.0
 40
0.0
 40
0.0
 40
0.0
 40
0.1648638263528118
 40
0.3298378443162266
 40
0.4946913071929533
 40
0.6640346277227118
 40
0.8335112775275308
 40
1.0
 40
1.0
 40
1.0
 40
1.0
 10
525.1822290815733
 20
541.6687236024699
 30
0.0
 10
524.872335595084
 20
542.0083171101194
 30
0.0
 10
524.2523414956356
 20
542.6877311027756
 30
0.0
 10
523.5136429363984
 20
543.4956525784821
 30
0.0
 10
522.9149608788034
 20
544.1497930882238
 30
0.0
 10
522.4859533874508
 20
544.6182053201097
 30
0.0
 10
522.2142300399537
 20
544.9146895958255
 30
0.0
 10
522.1818311964807
 20
544.950009816239
 30
0.0
 10
522.1657758452318
 20
544.9675128652415
 30
0.0
  0
LWPOLYLINE
  5
43B
330
1F
100
AcDbEntity
  8
0
100
AcDbPolyline
 90
       19
 70
   128
 43
0.0
 10
522.1644608177703
 20
543.2862893535
 10
522.1643006302704
 20
543.2877170711
 10
522.1928736068703
 20
543.0332313149
 10
522.2739694513704
 20
542.2688520371
 10
522.3951717712703
 20
541.0389427884
 10
522.5377386309704
 20
539.3820482163
 10
522.6811027027703
 20
537.3624910458
 10
522.8019436694703
 20
535.0640148713
 10
522.8834343947703
 20
532.5610426112
 10
522.9115938641703
 20
529.9620274777
 10
522.8831438221703
 20
527.3636787638
 10
522.8013513483704
 20
524.8604256517
 10
522.6803203918703
 20
522.5629748634
 10
522.5368743635704
 20
520.5452668338
 10
522.3943671085703
 20
518.8908179148
 10
522.2733734049704
 20
517.6636150895
 10
522.1926240123703
 20
516.9033084853
 10
522.1643006302704
 20
516.6505130796
 10
522.1643006302704
 20
516.6505130796
  0
LINE
  5
43C
330
1F
100
AcDbEntity
  8
0
100
AcDbLine
 10
522.1643006302704
 20
514.9691191359
 30
0.0
 11
525.3578392662703
 21
514.9691191359
 31
0.0
  0
SPLINE
  5
43D
330
1F
100
AcDbEntity
  8
0
100
AcDbSpline
210
0.0
220
0.0
230
1.0
 70
     8
 71
     3
 72
    15
 73
    11
 74
     0
 42
0.000000001
 43
0.00000001
 40
0.0
 40
0.0
 40
0.0
 40
0.0
 40
0.026560773925726
 40
0.1189743842020513
 40
0.215631395729115
 40
0.3123615477396754
 40
0.5224998741962859
 40
0.7327033375791985
 40
0.9444421475881611
 40
1.0
 40
1.0
 40
1.0
 40
1.0
 10
613.417581269922
 20
544.9642569615206
 30
0.0
 10
613.4093213653562
 20
544.9656133635632
 30
0.0
 10
613.3723225541764
 20
544.9716891314683
 30
0.0
 10
613.5994733749494
 20
544.9356495260263
 30
0.0
 10
614.060297075733
 20
544.8540784386787
 30
0.0
 10
614.9426942111331
 20
544.6694462621564
 30
0.0
 10
616.2506162181203
 20
544.3114164764017
 30
0.0
 10
617.9658070340251
 20
543.6455513145343
 30
0.0
 10
619.2564942510899
 20
543.030777039102
 30
0.0
 10
619.9515031213828
 20
542.5657709268196
 30
0.0
 10
620.0959613420389
 20
542.4691189869008
 30
0.0
  0
LINE
  5
43E
330
1F
100
AcDbEntity
  8
0
  6
Continuous
 62
     8
370
     0
100
AcDbLine
 10
646.8856712676703
 20
538.4691192626
 30
0.0
 11
606.9689398504704
 21
538.4691192626
 31
0.0
  0
LWPOLYLINE
  5
43F
330
1F
100
AcDbEntity
  8
0
  6
Continuous
 62
     8
370
     0
100
AcDbPolyline
 90
        5
 70
   128
 43
0.0
 10
663.4143074847703
 20
539.4691194265
 10
663.3265247441703
 20
539.4471737413
 10
663.0670210220703
 20
539.3823006048
 10
662.6472106076703
 20
539.2773480012
 10
662.0855113364703
 20
539.1369203894
  0
LINE
  5
440
330
1F
100
AcDbEntity
  8
0
  6
Continuous
 62
     8
370
     0
100
AcDbLine
 10
621.6643085576703
 20
513.969118972
 30
0.0
 11
621.6643085576703
 21
514.9691191359
 31
0.0
  0
LINE
  5
441
330
1F
100
AcDbEntity
  8
0
  6
Continuous
 62
     8
370
     0
100
AcDbLine
 10
529.6919612087704
 20
514.9691191359
 30
0.0
 11
529.6919612087704
 21
513.969118972
 31
0.0
  0
LINE
  5
442
330
1F
100
AcDbEntity
  8
0
  6
Continuous
 62
     8
370
     0
100
AcDbLine
 10
524.7801175214704
 20
513.969118972
 30
0.0
 11
524.7801175214704
 21
514.9691191359
 31
0.0
  0
LINE
  5
443
330
1F
100
AcDbEntity
  8
0
  6
Continuous
 62
     8
370
     0
100
AcDbLine
 10
597.1643036104704
 20
503.9691191955
 30
0.0
 11
597.1643036104704
 21
505.9691195233
 31
0.0
  0
LINE
  5
444
330
1F
100
AcDbEntity
  8
0
  6
Continuous
 62
     8
370
     0
100
AcDbLine
 10
540.1642998553704
 20
505.9691195233
 30
0.0
 11
540.1642998553704
 21
503.9691191955
 31
0.0
  0
LINE
  5
445
330
1F
100
AcDbEntity
  8
0
  6
Continuous
 62
     8
370
     0
100
AcDbLine
 10
523.3716187872703
 20
494.9987952455
 30
0.0
 11
618.1642940141703
 21
494.9987952455
 31
0.0
  0
LINE
  5
446
330
1F
100
AcDbEntity
  8
0
  6
Continuous
 62
     8
370
     0
100
AcDbLine
 10
522.4643019832704
 20
540.2820178165
 30
0.0
 11
522.4643019832704
 21
519.7004697143
 31
0.0
  0
LINE
  5
447
330
1F
100
AcDbEntity
  8
0
  6
Continuous
 62
     8
370
     0
100
AcDbLine
 10
609.9831690885703
 20
540.6987269266
 30
0.0
 11
525.3578392662703
 21
540.6987269266
 31
0.0
  0
LINE
  5
448
330
1F
100
AcDbEntity
  8
0
  6
Continuous
 62
     8
370
     0
100
AcDbLine
 10
525.1822290815703
 20
541.6687236025
 30
0.0
 11
612.1104365088704
 21
541.6687236025
 31
0.0
  0
HATCH
  5
449
330
1F
100
AcDbEntity
  8
TRATTEGGIO
 62
     4
100
AcDbHatch
 10
0.0
 20
0.0
 30
0.0
210
0.0
220
0.0
230
1.0
  2
ANSI38
 70
     0
 71
     0
 91
        1
 92
        0
 93
        3
 72
     4
 94
        3
 73
     1
 74
     0
 95
        9
 96
        5
 40
0.2087121620111609
 40
0.2087121620111609
 40
0.2087121620111609
 40
0.2087121620111609
 40
0.3828401526290769
 40
0.4659451054491182
 40
0.4659451054491182
 40
0.4659451054491182
 40
0.4659451054491182
 10
660.8264023512966
 20
542.44068006265
 42
1.0
 10
662.5778677575225
 20
539.6504076031522
 42
1.0
 10
662.6556945568952
 20
533.9553769118346
 42
1.0
 10
660.8268230736645
 20
529.1591417461784
 42
1.0
 10
659.871431254942
 20
527.969119404122
 42
1.0
 97
        0
 72
     4
 94
        3
 73
     1
 74
     0
 95
       14
 96
       10
 40
0.0
 40
0.0
 40
0.0
 40
0.0
 40
0.0026238457265908
 40
0.0026238457265908
 40
0.0026238457265908
 40
0.0081218741813611
 40
0.0081218741813611
 40
0.0081218741813611
 40
0.0117790773910942
 40
0.0117790773910942
 40
0.0117790773910942
 40
0.0117790773910942
 10
659.871431254951
 20
527.9691194041333
 42
1.0
 10
660.417562874481
 20
528.649373113879
 42
1.0
 10
660.8308828332774
 20
529.430531583671
 42
1.0
 10
661.1506370410774
 20
530.2298879273146
 42
1.0
 10
661.8174903125537
 20
531.8969602592213
 42
1.0
 10
662.1759599290481
 20
533.7017219354618
 42
1.0
 10
662.2900235956902
 20
535.5183512950721
 42
1.0
 10
662.3656834081107
 20
536.7233435650206
 42
1.0
 10
662.3122308318749
 20
537.9659916752256
 42
1.0
 10
662.0855062706788
 20
539.136920639607
 42
1.0
 97
        0
 72
     4
 94
        3
 73
     1
 74
     0
 95
       23
 96
       19
 40
0.0
 40
0.0
 40
0.0
 40
0.0
 40
0.000981683283763
 40
0.000981683283763
 40
0.000981683283763
 40
0.0019613401411802
 40
0.0019613401411802
 40
0.0019613401411802
 40
0.0029677721439568
 40
0.0029677721439568
 40
0.0029677721439568
 40
0.0039813147925417
 40
0.0039813147925417
 40
0.0039813147925417
 40
0.0049845276348951
 40
0.0049845276348951
 40
0.0049845276348951
 40
0.0052417801036633
 40
0.0052417801036633
 40
0.0052417801036633
 40
0.0052417801036633
 10
662.085506270679
 20
539.136920639607
 42
1.0
 10
662.0241866133044
 20
539.453608706074
 42
1.0
 10
661.946531313059
 20
539.7812887588027
 42
1.0
 10
661.8575354642893
 20
540.0917652184542
 42
1.0
 10
661.7686575586849
 20
540.4018302142349
 42
1.0
 10
661.6660288397417
 20
540.7033804340053
 42
1.0
 10
661.5604661920912
 20
540.9737071719438
 42
1.0
 10
661.4520864173637
 20
541.2512480598688
 42
1.0
 10
661.3378403450696
 20
541.5034264855248
 42
1.0
 10
661.2344183141959
 20
541.7116065291137
 42
1.0
 10
661.1303076751689
 20
541.9211726842902
 42
1.0
 10
661.0347880289868
 20
542.0919935476268
 42
1.0
 10
660.9643754309711
 20
542.212705330246
 42
1.0
 10
660.8946663451278
 20
542.33221104732
 42
1.0
 10
660.8479873453743
 20
542.4062003937747
 42
1.0
 10
660.8324658497556
 20
542.4310051629153
 42
1.0
 10
660.8284317137176
 20
542.4374520811482
 42
1.0
 10
660.8264023512966
 20
542.44068006265
 42
1.0
 10
660.8264023512966
 20
542.44068006265
 42
1.0
 97
        0
 97
        0
 75
     0
 76
     1
 52
0.0
 41
1.0
 77
     0
 78
     2
 53
45.0
 43
113.6745263636703
 44
0.0
 45
-2.245064030267288
 46
2.245064030267288
 79
     0
 53
135.0
 43
113.6745263636703
 44
0.0
 45
-6.735192090801864
 46
2.245064030267289
 79
     2
 49
7.9375
 49
-4.7625
 98
        1
 10
113.6745263636703
 20
0.0
  0
HATCH
  5
44A
330
1F
100
AcDbEntity
  8
TRATTEGGIO
 62
     4
100
AcDbHatch
 10
0.0
 20
0.0
 30
0.0
210
0.0
220
0.0
230
1.0
  2
ANSI38
 70
     0
 71
     0
 91
        1
 92
        0
 93
        7
 72
     1
 10
660.4143013287843
 20
542.4691194041333
 11
660.4143013287843
 21
539.4691194041333
 72
     1
 10
660.4143013287843
 20
539.4691194041333
 11
658.1143013287842
 21
539.4691194041333
 72
     1
 10
658.1143013287842
 20
539.4691194041333
 11
655.5643013287843
 21
536.9191194041333
 72
     1
 10
655.5643013287843
 20
536.9191194041333
 11
655.5643013287843
 21
527.9691194041333
 72
     1
 10
655.5643013287843
 20
527.9691194041333
 11
659.871431254942
 21
527.969119404122
 72
     4
 94
        3
 73
     1
 74
     0
 95
        9
 96
        5
 40
0.5340548945508821
 40
0.5340548945508821
 40
0.5340548945508821
 40
0.5340548945508821
 40
0.6171598473709231
 40
0.7912878379888387
 40
0.7912878379888387
 40
0.7912878379888387
 40
0.7912878379888387
 10
659.871431254942
 20
527.969119404122
 42
1.0
 10
660.8268230736645
 20
529.1591417461784
 42
1.0
 10
662.6556945568952
 20
533.9553769118346
 42
1.0
 10
662.5778677575225
 20
539.6504076031522
 42
1.0
 10
660.8264023512966
 20
542.44068006265
 42
1.0
 97
        0
 72
     2
 10
660.4143013287843
 20
539.4691194041333
 40
3.000000000000001
 50
82.10448517327116
 51
90.0
 73
     1
 97
        0
 75
     0
 76
     1
 52
0.0
 41
1.0
 77
     0
 78
     2
 53
45.0
 43
113.6745263636703
 44
0.0
 45
-2.245064030267288
 46
2.245064030267288
 79
     0
 53
135.0
 43
113.6745263636703
 44
0.0
 45
-6.735192090801864
 46
2.245064030267289
 79
     2
 49
7.9375
 49
-4.7625
 98
        1
 10
113.6745263636703
 20
0.0
  0
HATCH
  5
44B
330
1F
100
AcDbEntity
  8
TRATTEGGIO
 62
     4
100
AcDbHatch
 10
0.0
 20
0.0
 30
0.0
210
0.0
220
0.0
230
1.0
  2
ANSI38
 70
     0
 71
     0
 91
        1
 92
        0
 93
        5
 72
     1
 10
650.2643013287842
 20
527.9691194041333
 11
650.2643013287842
 21
536.9191194041333
 72
     1
 10
650.2643013287842
 20
536.9191194041333
 11
647.7143013287842
 21
539.4691194041333
 72
     1
 10
647.7143013287842
 20
539.4691194041333
 11
647.1562329418115
 21
539.4691194041353
 72
     4
 94
        3
 73
     1
 74
     0
 95
        8
 96
        4
 40
0.1071111816632749
 40
0.1071111816632749
 40
0.1071111816632749
 40
0.1071111816632749
 40
0.305555749297363
 40
0.305555749297363
 40
0.305555749297363
 40
0.305555749297363
 10
647.1562329418115
 20
539.4691194041352
 42
1.0
 10
645.9399824921247
 20
535.3540426004682
 42
1.0
 10
645.8419465278502
 20
530.6896788694248
 42
1.0
 10
648.0973420951997
 20
527.9691193863932
 42
1.0
 97
        0
 72
     1
 10
648.0973420951997
 20
527.9691193863932
 11
650.2643013287842
 21
527.9691194041333
 97
        0
 75
     0
 76
     1
 52
0.0
 41
1.0
 77
     0
 78
     2
 53
45.0
 43
113.6745263636703
 44
0.0
 45
-2.245064030267288
 46
2.245064030267288
 79
     0
 53
135.0
 43
113.6745263636703
 44
0.0
 45
-6.735192090801864
 46
2.245064030267289
 79
     2
 49
7.9375
 49
-4.7625
 98
        1
 10
113.6745263636703
 20
0.0
  0
HATCH
  5
44C
330
1F
100
AcDbEntity
  8
TRATTEGGIO
 62
     4
100
AcDbHatch
 10
0.0
 20
0.0
 30
0.0
210
0.0
220
0.0
230
1.0
  2
ANSI38
 70
     0
 71
     0
 91
        1
 92
        0
 93
        4
 72
     4
 94
        3
 73
     1
 74
     0
 95
        8
 96
        4
 40
0.6944442507026372
 40
0.6944442507026372
 40
0.6944442507026372
 40
0.6944442507026372
 40
0.8928888183367242
 40
0.8928888183367242
 40
0.8928888183367242
 40
0.8928888183367242
 10
648.0973420951997
 20
527.9691193863932
 42
1.0
 10
645.8419465278502
 20
530.6896788694248
 42
1.0
 10
645.9399824921247
 20
535.3540426004681
 42
1.0
 10
647.1562329418114
 20
539.4691194041352
 42
1.0
 97
        0
 72
     4
 94
        3
 73
     1
 74
     0
 95
        8
 96
        4
 40
0.8928888183367245
 40
0.8928888183367245
 40
0.8928888183367245
 40
0.8928888183367245
 40
0.9435004187378154
 40
0.9435004187378154
 40
0.9435004187378154
 40
0.9435004187378154
 10
647.1562329418115
 20
539.4691194041352
 42
1.0
 10
647.4664272821307
 20
540.5186347690054
 42
1.0
 10
647.849357188888
 20
541.53242112453
 42
1.0
 10
648.2845310633189
 20
542.4691194041333
 42
1.0
 97
        0
 72
     4
 94
        3
 73
     1
 74
     0
 95
       20
 96
       16
 40
0.0
 40
0.0
 40
0.0
 40
0.0
 40
0.0012629387880008
 40
0.0012629387880008
 40
0.0012629387880008
 40
0.0025217344045769
 40
0.0025217344045769
 40
0.0025217344045769
 40
0.0038421699999762
 40
0.0038421699999762
 40
0.0038421699999762
 40
0.0052669470456262
 40
0.0052669470456262
 40
0.0052669470456262
 40
0.0064234570011469
 40
0.0064234570011469
 40
0.0064234570011469
 40
0.0064234570011469
 10
648.2845310633188
 20
542.4691194041333
 42
1.0
 10
648.2845310633188
 20
542.4691194041333
 42
1.0
 10
648.2522246543252
 20
542.4004220581002
 42
1.0
 10
648.1936849760112
 20
542.270774232801
 42
1.0
 10
648.1352542462981
 20
542.1413676959679
 42
1.0
 10
648.0497124499543
 20
541.9484222233212
 42
1.0
 10
647.9499817579465
 20
541.7090360332235
 42
1.0
 10
647.8453609894547
 20
541.4579120645624
 42
1.0
 10
647.7228257362237
 20
541.1495733327935
 42
1.0
 10
647.5975587262608
 20
540.8066195590216
 42
1.0
 10
647.4625980026245
 20
540.4371265097682
 42
1.0
 10
647.3210401372371
 20
540.0174531390759
 42
1.0
 10
647.1890643769478
 20
539.5791675227878
 42
1.0
 10
647.0814780047399
 20
539.2218779770104
 42
1.0
 10
646.9780477435557
 20
538.8450828032591
 42
1.0
 10
646.8856701655347
 20
538.4691194041333
 42
1.0
 97
        0
 72
     4
 94
        3
 73
     1
 74
     0
 95
        8
 96
        4
 40
0.1230359063999316
 40
0.1230359063999316
 40
0.1230359063999316
 40
0.1230359063999316
 40
0.3055557492973619
 40
0.3055557492973619
 40
0.3055557492973619
 40
0.3055557492973619
 10
646.8856701655349
 20
538.469119404134
 42
1.0
 10
645.9394035524369
 20
534.6179509717014
 42
1.0
 10
646.0229368870749
 20
530.4713601650457
 42
1.0
 10
648.0973420951997
 20
527.9691193863933
 42
1.0
 97
        0
 97
        0
 75
     0
 76
     1
 52
0.0
 41
1.0
 77
     0
 78
     2
 53
45.0
 43
113.6745263636703
 44
0.0
 45
-2.245064030267288
 46
2.245064030267288
 79
     0
 53
135.0
 43
113.6745263636703
 44
0.0
 45
-6.735192090801864
 46
2.245064030267289
 79
     2
 49
7.9375
 49
-4.7625
 98
        1
 10
113.6745263636703
 20
0.0
  0
HATCH
  5
44D
330
1F
100
AcDbEntity
  8
TRATTEGGIO
 62
     4
100
AcDbHatch
 10
0.0
 20
0.0
 30
0.0
210
0.0
220
0.0
230
1.0
  2
ANSI38
 70
     0
 71
     0
 91
        1
 92
        0
 93
        3
 72
     4
 94
        3
 73
     1
 74
     0
 95
        8
 96
        4
 40
0.8928888183367241
 40
0.8928888183367241
 40
0.8928888183367241
 40
0.8928888183367241
 40
0.9435004190633052
 40
0.9435004190633052
 40
0.9435004190633052
 40
0.9435004190633052
 10
533.481706578141
 20
539.4691194041352
 42
1.0
 10
533.7919009204552
 20
540.518634775755
 42
1.0
 10
534.1748308301429
 20
541.5324211375695
 42
1.0
 10
534.6100047080446
 20
542.4691194222054
 42
1.0
 97
        0
 72
     1
 10
534.6100047080445
 20
542.4691194222054
 11
534.6100046996486
 21
542.4691194041334
 72
     4
 94
        3
 73
     1
 74
     0
 95
        8
 96
        4
 40
0.0564995812621844
 40
0.0564995812621844
 40
0.0564995812621844
 40
0.0564995812621844
 40
0.1071111816632765
 40
0.1071111816632765
 40
0.1071111816632765
 40
0.1071111816632765
 10
534.6100046996486
 20
542.4691194041334
 42
1.0
 10
534.1748308252177
 20
541.53242112453
 42
1.0
 10
533.7919009184603
 20
540.5186347690054
 42
1.0
 10
533.4817065781411
 20
539.4691194041352
 42
1.0
 97
        0
 97
        0
 75
     0
 76
     1
 52
0.0
 41
1.0
 77
     0
 78
     2
 53
45.0
 43
0.0
 44
0.0
 45
-2.245064030267288
 46
2.245064030267288
 79
     0
 53
135.0
 43
0.0
 44
0.0
 45
-6.735192090801864
 46
2.245064030267289
 79
     2
 49
7.9375
 49
-4.7625
 98
        1
 10
0.0
 20
0.0
  0
HATCH
  5
44E
330
1F
100
AcDbEntity
  8
TRATTEGGIO
 62
     4
100
AcDbHatch
 10
0.0
 20
0.0
 30
0.0
210
0.0
220
0.0
230
1.0
  2
ANSI38
 70
     0
 71
     0
 91
        1
 92
        0
 93
        4
 72
     1
 10
647.1562329418115
 20
539.4691194041353
 11
660.4143013287843
 21
539.4691194041333
 72
     1
 10
660.4143013287843
 20
539.4691194041333
 11
660.4143013287843
 21
542.4691194041333
 72
     1
 10
660.4143013287843
 20
542.4691194041333
 11
648.2845310717148
 21
542.4691194222054
 72
     4
 94
        3
 73
     1
 74
     0
 95
        8
 96
        4
 40
0.0564995809366954
 40
0.0564995809366954
 40
0.0564995809366954
 40
0.0564995809366954
 40
0.1071111816632749
 40
0.1071111816632749
 40
0.1071111816632749
 40
0.1071111816632749
 10
648.2845310717149
 20
542.4691194222054
 42
1.0
 10
647.8493571938133
 20
541.5324211375695
 42
1.0
 10
647.4664272841256
 20
540.518634775755
 42
1.0
 10
647.1562329418116
 20
539.4691194041352
 42
1.0
 97
        0
 97
        0
 75
     0
 76
     1
 52
0.0
 41
1.0
 77
     0
 78
     2
 53
45.0
 43
113.6745263636703
 44
0.0
 45
-2.245064030267288
 46
2.245064030267288
 79
     0
 53
135.0
 43
113.6745263636703
 44
0.0
 45
-6.735192090801864
 46
2.245064030267289
 79
     2
 49
7.9375
 49
-4.7625
 98
        1
 10
113.6745263636703
 20
0.0
  0
LINE
  5
44F
330
1F
100
AcDbEntity
  8
ASSI
  6
CENTER
100
AcDbLine
 10
652.9143013287703
 20
525.9691194041
 30
0.0
 11
652.9143013287703
 21
538.9191194041
 31
0.0
  0
LINE
  5
450
330
1F
100
AcDbEntity
  8
0
100
AcDbLine
 10
583.6642986036703
 20
309.3741631061
 30
0.0
 11
583.6642986036703
 21
302.3741638214
 31
0.0
  0
LINE
  5
451
330
1F
100
AcDbEntity
  8
0
100
AcDbLine
 10
602.6642998553704
 20
302.3741638214
 30
0.0
 11
602.6642998553704
 21
309.3741631061
 31
0.0
  0
LINE
  5
452
330
1F
100
AcDbEntity
  8
0
100
AcDbLine
 10
538.6643005408703
 20
309.3741631061
 30
0.0
 11
538.6643005408703
 21
302.3741638214
 31
0.0
  0
LINE
  5
453
330
1F
100
AcDbEntity
  8
0
100
AcDbLine
 10
557.6642980672704
 20
302.3741638214
 30
0.0
 11
557.6642980672704
 21
309.3741631061
 31
0.0
  0
LINE
  5
454
330
1F
100
AcDbEntity
  8
0
100
AcDbLine
 10
522.6643016435703
 20
302.3741638214
 30
0.0
 11
522.6643016435703
 21
301.3741636575
 31
0.0
  0
LINE
  5
455
330
1F
100
AcDbEntity
  8
0
100
AcDbLine
 10
522.1643006302704
 20
322.874162525
 30
0.0
 11
522.1643006302704
 21
312.3741635979
 31
0.0
  0
LINE
  5
456
330
1F
100
AcDbEntity
  8
0
100
AcDbLine
 10
618.1642940141703
 20
322.874162525
 30
0.0
 11
522.1643006302704
 21
322.874162525
 31
0.0
  0
ARC
  5
457
330
1F
100
AcDbEntity
  8
0
100
AcDbCircle
 10
522.4643013287703
 20
273.6741633893
 30
0.0
 40
0.2999999999999545
100
AcDbArc
 50
180.0
 51
212.0538242487078
  0
ARC
  5
458
330
1F
100
AcDbEntity
  8
0
100
AcDbCircle
 10
522.4643013287703
 20
299.0741633893
 30
0.0
 40
0.3000000000000005
100
AcDbArc
 50
148.0155462371945
 51
180.0
  0
LINE
  5
459
330
1F
100
AcDbEntity
  8
0
100
AcDbLine
 10
522.1643006302704
 20
273.0569934399
 30
0.0
 11
522.1643006302704
 21
271.3741624654
 31
0.0
  0
LINE
  5
45A
330
1F
100
AcDbEntity
  8
0
100
AcDbLine
 10
522.1643006302704
 20
301.3741636575
 30
0.0
 11
522.1643006302704
 21
299.6927697138
 31
0.0
  0
LINE
  5
45B
330
1F
100
AcDbEntity
  8
0
100
AcDbLine
 10
522.1643006302704
 20
271.3741624654
 30
0.0
 11
613.4175812699704
 21
271.3741624654
 31
0.0
  0
LINE
  5
45C
330
1F
100
AcDbEntity
  8
0
100
AcDbLine
 10
556.0643007852703
 20
309.3741631061
 30
0.0
 11
556.0643007852703
 21
310.3741632701
 31
0.0
  0
LINE
  5
45D
330
1F
100
AcDbEntity
  8
0
100
AcDbLine
 10
540.2643015481704
 20
310.3741632701
 30
0.0
 11
540.2643015481704
 21
309.3741631061
 31
0.0
  0
LINE
  5
45E
330
1F
100
AcDbEntity
  8
0
100
AcDbLine
 10
601.0643025733704
 20
309.3741631061
 30
0.0
 11
601.0643025733704
 21
310.3741632701
 31
0.0
  0
LINE
  5
45F
330
1F
100
AcDbEntity
  8
0
100
AcDbLine
 10
585.2643033363704
 20
310.3741632701
 30
0.0
 11
585.2643033363704
 21
309.3741631061
 31
0.0
  0
LINE
  5
460
330
1F
100
AcDbEntity
  8
0
100
AcDbLine
 10
635.4142954446703
 20
301.3741636575
 30
0.0
 11
616.6642984248704
 21
301.3741636575
 31
0.0
  0
LINE
  5
461
330
1F
100
AcDbEntity
  8
0
100
AcDbLine
 10
635.4142954446703
 20
288.3741633893
 30
0.0
 11
635.4142954446703
 21
301.3741636575
 31
0.0
  0
LINE
  5
462
330
1F
100
AcDbEntity
  8
0
100
AcDbLine
 10
659.4142993785704
 20
288.3741633893
 30
0.0
 11
635.4142954446703
 21
288.3741633893
 31
0.0
  0
ARC
  5
463
330
1F
100
AcDbEntity
  8
0
100
AcDbCircle
 10
616.6643013287703
 20
287.6241633893
 30
0.0
 40
13.75000000000007
100
AcDbArc
 50
90.0
 51
225.1609972527002
  0
LINE
  5
464
330
1F
100
AcDbEntity
  8
0
100
AcDbLine
 10
660.4143014051704
 20
273.8741638065
 30
0.0
 11
616.6642984248704
 21
273.8741638065
 31
0.0
  0
SPLINE
  5
465
330
1F
100
AcDbEntity
  8
0
100
AcDbSpline
210
0.0
220
0.0
230
1.0
 70
     8
 71
     3
 72
    14
 73
    10
 74
     0
 42
0.000000001
 43
0.00000001
 40
0.0
 40
0.0
 40
0.0
 40
0.0
 40
0.0020249792419287
 40
0.2060700831063416
 40
0.4100196175830959
 40
0.5871810082902165
 40
0.7640523225747239
 40
0.882128053887708
 40
1.0
 40
1.0
 40
1.0
 40
1.0
 10
616.6642984249017
 20
273.8741638065045
 30
0.0
 10
616.6574190770152
 20
273.874167044309
 30
0.0
 10
615.95734879416
 20
273.8744965363983
 30
0.0
 10
614.5630812674908
 20
273.9820471021283
 30
0.0
 10
612.5901061353993
 20
274.4407637686589
 30
0.0
 10
610.7451530422845
 20
275.1643070645061
 30
0.0
 10
609.2319093553645
 20
276.0182592211057
 30
0.0
 10
607.9668078188558
 20
276.9391488660863
 30
0.0
 10
607.301370929986
 20
277.5626714856058
 30
0.0
 10
606.9689398505113
 20
277.874163530833
 30
0.0
  0
LINE
  5
466
330
1F
100
AcDbEntity
  8
0
100
AcDbLine
 10
663.4143074847703
 20
288.3741633893
 30
0.0
 11
663.4143074847703
 21
276.8741633669
 31
0.0
  0
LINE
  5
467
330
1F
100
AcDbEntity
  8
0
100
AcDbLine
 10
659.4142993785704
 20
288.3741633893
 30
0.0
 11
663.4143074847703
 21
288.3741633893
 31
0.0
  0
ARC
  5
468
330
1F
100
AcDbEntity
  8
0
100
AcDbCircle
 10
660.4143013287703
 20
276.8741633893
 30
0.0
 40
3.0
100
AcDbArc
 50
270.0
 51
0.0
  0
LINE
  5
469
330
1F
100
AcDbEntity
  8
0
100
AcDbLine
 10
583.6642986036703
 20
309.3741631061
 30
0.0
 11
602.6642998553704
 21
309.3741631061
 31
0.0
  0
LINE
  5
46A
330
1F
100
AcDbEntity
  8
0
100
AcDbLine
 10
538.6643005408703
 20
309.3741631061
 30
0.0
 11
557.6642980672704
 21
309.3741631061
 31
0.0
  0
LINE
  5
46B
330
1F
100
AcDbEntity
  8
0
100
AcDbLine
 10
524.7801175214704
 20
302.3741638214
 30
0.0
 11
529.6919612087704
 21
302.3741638214
 31
0.0
  0
LINE
  5
46C
330
1F
100
AcDbEntity
  8
0
100
AcDbLine
 10
529.6919612087704
 20
302.3741638214
 30
0.0
 11
621.6643085576703
 21
302.3741638214
 31
0.0
  0
LINE
  5
46D
330
1F
100
AcDbEntity
  8
0
100
AcDbLine
 10
626.6643037892703
 20
302.3741638214
 30
0.0
 11
626.6643037892703
 21
301.3741636575
 31
0.0
  0
LINE
  5
46E
330
1F
100
AcDbEntity
  8
0
100
AcDbLine
 10
621.6643085576703
 20
302.3741638214
 30
0.0
 11
626.6643037892703
 21
302.3741638214
 31
0.0
  0
LINE
  5
46F
330
1F
100
AcDbEntity
  8
0
100
AcDbLine
 10
522.6643016435703
 20
302.3741638214
 30
0.0
 11
524.7801175214704
 21
302.3741638214
 31
0.0
  0
LINE
  5
470
330
1F
100
AcDbEntity
  8
0
100
AcDbLine
 10
530.1643019415703
 20
310.3741632701
 30
0.0
 11
530.1643019415703
 21
312.3741635979
 31
0.0
  0
LINE
  5
471
330
1F
100
AcDbEntity
  8
0
100
AcDbLine
 10
540.1642998553704
 20
310.3741632701
 30
0.0
 11
530.1643019415703
 21
310.3741632701
 31
0.0
  0
LINE
  5
472
330
1F
100
AcDbEntity
  8
0
100
AcDbLine
 10
540.1642998553704
 20
310.3741632701
 30
0.0
 11
597.1643036104704
 21
310.3741632701
 31
0.0
  0
LINE
  5
473
330
1F
100
AcDbEntity
  8
0
100
AcDbLine
 10
607.1643015243703
 20
312.3741635979
 30
0.0
 11
607.1643015243703
 21
310.3741632701
 31
0.0
  0
LINE
  5
474
330
1F
100
AcDbEntity
  8
0
100
AcDbLine
 10
607.1643015243703
 20
310.3741632701
 30
0.0
 11
597.1643036104704
 21
310.3741632701
 31
0.0
  0
LINE
  5
475
330
1F
100
AcDbEntity
  8
0
100
AcDbLine
 10
522.1643006302704
 20
312.3741635979
 30
0.0
 11
525.3578392662703
 21
312.3741635979
 31
0.0
  0
SPLINE
  5
476
330
1F
100
AcDbEntity
  8
0
100
AcDbSpline
210
0.0
220
0.0
230
1.0
 70
     8
 71
     3
 72
    12
 73
     8
 74
     0
 42
0.000000001
 43
0.00000001
 40
0.0
 40
0.0
 40
0.0
 40
0.0
 40
0.2438883717082304
 40
0.487957666853143
 40
0.7318361978702084
 40
0.9828402841710734
 40
1.0
 40
1.0
 40
1.0
 40
1.0
 10
523.3716187872312
 20
321.3444875479405
 30
0.0
 10
523.1910620941517
 20
321.5737734670263
 30
0.0
 10
522.8298147658243
 20
322.0325153961135
 30
0.0
 10
522.4594355580457
 20
322.501233425055
 30
0.0
 10
522.2351844823775
 20
322.7845937597002
 30
0.0
 10
522.1427376227346
 20
322.9014720473077
 30
0.0
 10
522.1680035840459
 20
322.8695622313102
 30
0.0
 10
522.1696203448198
 20
322.8675203324025
 30
0.0
  0
SPLINE
  5
477
330
1F
100
AcDbEntity
  8
0
100
AcDbSpline
210
0.0
220
0.0
230
1.0
 70
     8
 71
     3
 72
    11
 73
     7
 74
     0
 42
0.000000001
 43
0.00000001
 40
0.0
 40
0.0
 40
0.0
 40
0.0
 40
0.2475240258686577
 40
0.4950438913440369
 40
0.7475248950197537
 40
1.0
 40
1.0
 40
1.0
 40
1.0
 10
525.3578392662428
 20
317.8741635680859
 30
0.0
 10
525.1684930351164
 20
318.2611402053006
 30
0.0
 10
524.7898037554021
 20
319.0350869754118
 30
0.0
 10
524.2687316092206
 20
319.9843170038635
 30
0.0
 10
523.7860232389938
 20
320.7839964783685
 30
0.0
 10
523.5097525287242
 20
321.1576586464072
 30
0.0
 10
523.3716187872312
 20
321.3444875479405
 30
0.0
  0
LINE
  5
478
330
1F
100
AcDbEntity
  8
0
100
AcDbLine
 10
525.3578392662703
 20
312.3741635979
 30
0.0
 11
525.3578392662703
 21
317.8741635681
 31
0.0
  0
LINE
  5
479
330
1F
100
AcDbEntity
  8
0
100
AcDbLine
 10
618.1642940141703
 20
321.3444875479
 30
0.0
 11
618.1642940141703
 21
317.8741635681
 31
0.0
  0
LINE
  5
47A
330
1F
100
AcDbEntity
  8
0
100
AcDbLine
 10
525.3578392662703
 20
317.8741635681
 30
0.0
 11
618.1642940141703
 21
317.8741635681
 31
0.0
  0
LINE
  5
47B
330
1F
100
AcDbEntity
  8
0
100
AcDbLine
 10
618.1642940141703
 20
317.8741635681
 30
0.0
 11
618.1642940141703
 21
312.3741635979
 31
0.0
  0
LINE
  5
47C
330
1F
100
AcDbEntity
  8
0
100
AcDbLine
 10
525.3578392662703
 20
312.3741635979
 30
0.0
 11
618.1642940141703
 21
312.3741635979
 31
0.0
  0
LINE
  5
47D
330
1F
100
AcDbEntity
  8
0
100
AcDbLine
 10
618.1642940141703
 20
322.874162525
 30
0.0
 11
618.1642940141703
 21
321.3444875479
 31
0.0
  0
LINE
  5
47E
330
1F
100
AcDbEntity
  8
0
100
AcDbLine
 10
522.1643006302704
 20
273.6741632149
 30
0.0
 11
522.1643006302704
 21
299.0741638393
 31
0.0
  0
LINE
  5
47F
330
1F
100
AcDbEntity
  8
0
100
AcDbLine
 10
525.3578392662703
 20
301.3741636575
 30
0.0
 11
522.1643006302704
 21
301.3741636575
 31
0.0
  0
LINE
  5
480
330
1F
100
AcDbEntity
  8
0
100
AcDbLine
 10
525.3578392662703
 20
301.3741636575
 30
0.0
 11
525.3578392662703
 21
275.6445558668
 31
0.0
  0
SPLINE
  5
481
330
1F
100
AcDbEntity
  8
0
100
AcDbSpline
210
0.0
220
0.0
230
1.0
 70
     8
 71
     3
 72
    11
 73
     7
 74
     0
 42
0.000000001
 43
0.00000001
 40
0.0
 40
0.0
 40
0.0
 40
0.0
 40
0.2605112438886217
 40
0.521190289520231
 40
0.7773449785853862
 40
1.0
 40
1.0
 40
1.0
 40
1.0
 10
525.1822290815733
 20
274.6745591909354
 30
0.0
 10
525.2069379653847
 20
274.7131229106165
 30
0.0
 10
525.2563716486117
 20
274.7902751898255
 30
0.0
 10
525.3144619908387
 20
275.035481537003
 30
0.0
 10
525.3513952005196
 20
275.3313579014819
 30
0.0
 10
525.3557938268552
 20
275.5451423161086
 30
0.0
 10
525.3578392662428
 20
275.6445558667843
 30
0.0
  0
SPLINE
  5
482
330
1F
100
AcDbEntity
  8
0
100
AcDbSpline
210
0.0
220
0.0
230
1.0
 70
     8
 71
     3
 72
    14
 73
    10
 74
     0
 42
0.000000001
 43
0.00000001
 40
0.0
 40
0.0
 40
0.0
 40
0.0
 40
0.0028500965591485
 40
0.1667453231984409
 40
0.3307653409234284
 40
0.4946644532786215
 40
0.6630629937669922
 40
0.8315903222714224
 40
1.0
 40
1.0
 40
1.0
 40
1.0
 10
522.1657758452318
 20
271.3757699281638
 30
0.0
 10
522.1652851207118
 20
271.3752350499855
 30
0.0
 10
522.1365752096634
 20
271.3439419225921
 30
0.0
 10
522.2360310830774
 20
271.4523678676157
 30
0.0
 10
522.4713649860684
 20
271.7091650130109
 30
0.0
 10
522.8934193516975
 20
272.1699616724503
 30
0.0
 10
523.483532604451
 20
272.8147099730076
 30
0.0
 10
524.2333809646223
 20
273.63478014938
 30
0.0
 10
524.8660200103345
 20
274.3280468680989
 30
0.0
 10
525.1822290815733
 20
274.6745591909354
 30
0.0
  0
SPLINE
  5
483
330
1F
100
AcDbEntity
  8
0
100
AcDbSpline
210
0.0
220
0.0
230
1.0
 70
     8
 71
     3
 72
    23
 73
    19
 74
     0
 42
0.000000001
 43
0.00000001
 40
0.0
 40
0.0
 40
0.0
 40
0.0
 40
0.0626669383883285
 40
0.1251858053269046
 40
0.1878343565759668
 40
0.2503606387949462
 40
0.3128429115175944
 40
0.3753334806818877
 40
0.4376410975400175
 40
0.5000606199870415
 40
0.5623289980981478
 40
0.6247430195455801
 40
0.6871685876507714
 40
0.7495658728017802
 40
0.8121407509480397
 40
0.8746122429932496
 40
0.9373768157745338
 40
1.0
 40
1.0
 40
1.0
 40
1.0
 10
522.1643006302736
 20
299.6927697137659
 30
0.0
 10
522.169924807969
 20
299.6445304936495
 30
0.0
 10
522.1811598743725
 20
299.5481660345915
 30
0.0
 10
522.26733902201
 20
298.7490274513359
 30
0.0
 10
522.3907757379321
 20
297.5236261554328
 30
0.0
 10
522.5373193698265
 20
295.8499103866579
 30
0.0
 10
522.6844391240433
 20
293.8238424474167
 30
0.0
 10
522.8084762345668
 20
291.5039514544739
 30
0.0
 10
522.892639533039
 20
288.9901232376167
 30
0.0
 10
522.9210766038759
 20
286.3737991284066
 30
0.0
 10
522.8926122121356
 20
283.7559886710021
 30
0.0
 10
522.8084118674692
 20
281.2439771598025
 30
0.0
 10
522.6845729775717
 20
278.9236863159811
 30
0.0
 10
522.5373827909685
 20
276.8997934941968
 30
0.0
 10
522.391009961626
 20
275.2276657292908
 30
0.0
 10
522.2674725140733
 20
273.9999739892459
 30
0.0
 10
522.1811209241278
 20
273.2014701359354
 30
0.0
 10
522.1700100102858
 20
273.1051161219511
 30
0.0
 10
522.1644608177564
 20
273.0569934398596
 30
0.0
  0
LINE
  5
484
330
1F
100
AcDbEntity
  8
0
100
AcDbLine
 10
616.6642984248704
 20
301.3741636575
 30
0.0
 11
525.3578392662703
 21
301.3741636575
 31
0.0
  0
SPLINE
  5
485
330
1F
100
AcDbEntity
  8
0
100
AcDbSpline
210
0.0
220
0.0
230
1.0
 70
     8
 71
     3
 72
    14
 73
    10
 74
     0
 42
0.000000001
 43
0.00000001
 40
0.0
 40
0.0
 40
0.0
 40
0.0
 40
0.1103010752811904
 40
0.3819222746786414
 40
0.5201229268372048
 40
0.6586737681595225
 40
0.7965851564149914
 40
0.9339110580786376
 40
1.0
 40
1.0
 40
1.0
 40
1.0
 10
620.0543274976633
 20
273.8741638065045
 30
0.0
 10
619.7672764596259
 20
273.6856362644075
 30
0.0
 10
618.7733497447992
 20
273.0328514431021
 30
0.0
 10
617.3769462485146
 20
272.4423165676963
 30
0.0
 10
615.8913780003077
 20
271.9421461036277
 30
0.0
 10
614.8060114309689
 20
271.6599750544181
 30
0.0
 10
613.9408379183149
 20
271.4692105439827
 30
0.0
 10
613.431788634342
 20
271.3810519749117
 30
0.0
 10
613.4210652643314
 20
271.3795226918771
 30
0.0
 10
613.417581269922
 20
271.3790258318846
 30
0.0
  0
LINE
  5
486
330
1F
100
AcDbEntity
  8
0
  6
Continuous
 62
     8
370
     0
100
AcDbLine
 10
659.4142993785704
 20
277.8741635308
 30
0.0
 11
659.4142993785704
 21
288.3741633893
 31
0.0
  0
LINE
  5
487
330
1F
100
AcDbEntity
  8
0
  6
Continuous
 62
     8
370
     0
100
AcDbLine
 10
606.9689398504704
 20
277.8741635308
 30
0.0
 11
659.4142993785704
 21
277.8741635308
 31
0.0
  0
LWPOLYLINE
  5
488
330
1F
100
AcDbEntity
  8
0
  6
Continuous
 62
     8
370
     0
100
AcDbPolyline
 90
       10
 70
   128
 43
0.0
 10
659.4142993785704
 20
277.8741635308
 10
659.5879426099704
 20
277.1795710475
 10
659.7563257314704
 20
276.506083265
 10
659.9143078424703
 20
275.874163203
 10
660.0570907689703
 20
275.3030128703
 10
660.1803531743703
 20
274.8099856005
 10
660.2803250648703
 20
274.4100617171
 10
660.3539964057703
 20
274.1153931171
 10
660.3991022206703
 20
273.9349326045
 10
660.4143014051704
 20
273.8741638065
  0
LWPOLYLINE
  5
489
330
1F
100
AcDbEntity
  8
0
  6
Continuous
 62
     8
370
     0
100
AcDbPolyline
 90
       10
 70
   128
 43
0.0
 10
659.4142993785704
 20
277.8741635308
 10
660.1088872052703
 20
277.7005156428
 10
660.7823749877704
 20
277.5321436972
 10
661.4143034316703
 20
277.3741634489
 10
661.9854500390703
 20
277.2313758657
 10
662.4784847594703
 20
277.1081190482
 10
662.8784021236703
 20
277.0081378446
 10
663.1730725862703
 20
276.9344711602
 10
663.3535256482703
 20
276.8893560321
 10
663.4143074847703
 20
276.8741633669
  0
LINE
  5
48A
330
1F
100
AcDbEntity
  8
0
  6
Continuous
 62
     8
370
     0
100
AcDbLine
 10
524.7801175214704
 20
301.3741636575
 30
0.0
 11
524.7801175214704
 21
302.3741638214
 31
0.0
  0
LINE
  5
48B
330
1F
100
AcDbEntity
  8
0
  6
Continuous
 62
     8
370
     0
100
AcDbLine
 10
529.6919612087704
 20
302.3741638214
 30
0.0
 11
529.6919612087704
 21
301.3741636575
 31
0.0
  0
LINE
  5
48C
330
1F
100
AcDbEntity
  8
0
  6
Continuous
 62
     8
370
     0
100
AcDbLine
 10
621.6643085576703
 20
301.3741636575
 30
0.0
 11
621.6643085576703
 21
302.3741638214
 31
0.0
  0
LINE
  5
48D
330
1F
100
AcDbEntity
  8
0
  6
Continuous
 62
     8
370
     0
100
AcDbLine
 10
540.1642998553704
 20
312.3741635979
 30
0.0
 11
540.1642998553704
 21
310.3741632701
 31
0.0
  0
LINE
  5
48E
330
1F
100
AcDbEntity
  8
0
  6
Continuous
 62
     8
370
     0
100
AcDbLine
 10
597.1643036104704
 20
310.3741632701
 30
0.0
 11
597.1643036104704
 21
312.3741635979
 31
0.0
  0
LINE
  5
48F
330
1F
100
AcDbEntity
  8
0
  6
Continuous
 62
     8
370
     0
100
AcDbLine
 10
523.3716187872703
 20
321.3444875479
 30
0.0
 11
618.1642940141703
 21
321.3444875479
 31
0.0
  0
LINE
  5
490
330
1F
100
AcDbEntity
  8
0
  6
Continuous
 62
     8
370
     0
100
AcDbLine
 10
522.4643019832704
 20
296.6801674963
 30
0.0
 11
522.4643019832704
 21
276.0902048946
 31
0.0
  0
LINE
  5
491
330
1F
100
AcDbEntity
  8
0
  6
Continuous
 62
     8
370
     0
100
AcDbLine
 10
525.3578392662703
 20
275.6445558668
 30
0.0
 11
609.9855681754703
 21
275.6445558668
 31
0.0
  0
LINE
  5
492
330
1F
100
AcDbEntity
  8
0
  6
Continuous
 62
     8
370
     0
100
AcDbLine
 10
612.1096616484704
 20
274.6745591909
 30
0.0
 11
525.1822290815703
 21
274.6745591909
 31
0.0
  0
LINE
  5
498
330
1F
100
AcDbEntity
  8
0
100
AcDbLine
 10
488.5560827925704
 20
413.3267832449
 30
0.0
 11
481.5560835078703
 21
413.3267832449
 31
0.0
  0
LINE
  5
499
330
1F
100
AcDbEntity
  8
0
100
AcDbLine
 10
481.5560835078703
 20
394.3267857185
 30
0.0
 11
488.5560827925704
 21
394.3267857185
 31
0.0
  0
ARC
  5
49A
330
1F
100
AcDbEntity
  8
0
100
AcDbCircle
 10
494.3560830756703
 20
403.8267845562
 30
0.0
 40
1.5
100
AcDbArc
 50
271.3162148215974
 51
90.0
  0
ARC
  5
49B
330
1F
100
AcDbEntity
  8
0
100
AcDbCircle
 10
494.3560830756703
 20
403.8267845562
 30
0.0
 40
1.499999999999982
100
AcDbArc
 50
214.0097350794996
 51
271.3162148215975
  0
ARC
  5
49C
330
1F
100
AcDbEntity
  8
0
100
AcDbCircle
 10
494.3560830756703
 20
403.8267845562
 30
0.0
 40
1.50000000000004
100
AcDbArc
 50
90.0
 51
145.9664642951986
  0
LINE
  5
49D
330
1F
100
AcDbEntity
  8
0
100
AcDbLine
 10
493.0338202640703
 20
404.4219238212
 30
0.0
 11
493.0338202640703
 21
403.2316451421
 31
0.0
  0
LINE
  5
49E
330
1F
100
AcDbEntity
  8
0
100
AcDbLine
 10
488.5560827925704
 20
395.9267830005
 30
0.0
 11
489.5560829564704
 21
395.9267830005
 31
0.0
  0
LINE
  5
49F
330
1F
100
AcDbEntity
  8
0
100
AcDbLine
 10
489.5560829564704
 20
411.7267859628
 30
0.0
 11
488.5560827925704
 21
411.7267859628
 31
0.0
  0
LINE
  5
4A0
330
1F
100
AcDbEntity
  8
0
100
AcDbLine
 10
453.0560834929704
 20
367.5767845934
 30
0.0
 11
453.0560834929704
 21
440.0767815759
 31
0.0
  0
LINE
  5
4A1
330
1F
100
AcDbEntity
  8
0
100
AcDbLine
 10
457.0560832172703
 20
448.8267881324
 30
0.0
 11
467.5560830756704
 21
448.8267881324
 31
0.0
  0
LINE
  5
4A2
330
1F
100
AcDbEntity
  8
0
100
AcDbLine
 10
467.5560830756704
 20
448.8267881324
 30
0.0
 11
467.5560830756704
 21
444.8267874768
 31
0.0
  0
ARC
  5
4A3
330
1F
100
AcDbEntity
  8
0
100
AcDbCircle
 10
457.0560830756704
 20
444.8267845562
 30
0.0
 40
4.0
100
AcDbArc
 50
90.0
 51
180.0
  0
LINE
  5
4A4
330
1F
100
AcDbEntity
  8
0
100
AcDbLine
 10
467.5560830756704
 20
444.8267874768
 30
0.0
 11
467.5560830756704
 21
362.8267847462
 31
0.0
  0
LINE
  5
4A5
330
1F
100
AcDbEntity
  8
0
100
AcDbLine
 10
453.0560834929704
 20
366.8267849361
 30
0.0
 11
453.0560834929704
 21
362.8267847462
 31
0.0
  0
LINE
  5
4A6
330
1F
100
AcDbEntity
  8
0
100
AcDbLine
 10
453.0560834929704
 20
366.8267849361
 30
0.0
 11
453.0560834929704
 21
440.8267868211
 31
0.0
  0
LINE
  5
4A7
330
1F
100
AcDbEntity
  8
0
100
AcDbLine
 10
453.0560834929704
 20
444.8267874768
 30
0.0
 11
453.0560834929704
 21
440.8267868211
 31
0.0
  0
LINE
  5
4A8
330
1F
100
AcDbEntity
  8
0
100
AcDbLine
 10
467.5560830756704
 20
358.8267845562
 30
0.0
 11
457.0560832172703
 21
358.8267845562
 31
0.0
  0
LINE
  5
4A9
330
1F
100
AcDbEntity
  8
0
100
AcDbLine
 10
467.5560830756704
 20
362.8267847462
 30
0.0
 11
467.5560830756704
 21
358.8267845562
 31
0.0
  0
ARC
  5
4AA
330
1F
100
AcDbEntity
  8
0
100
AcDbCircle
 10
457.0560830756704
 20
362.8267845562
 30
0.0
 40
4.0
100
AcDbArc
 50
180.0
 51
270.0
  0
ELLIPSE
  5
4AB
330
1F
100
AcDbEntity
  8
0
100
AcDbEllipse
 10
472.7444952024703
 20
436.3267845562
 30
0.0
 11
5.320888862379603
 21
0.0
 31
0.0
210
0.0
220
0.0
230
1.0
 40
0.9396926208
 41
4.119067740299789
 42
8.447302874059396
  0
LINE
  5
4AC
330
1F
100
AcDbEntity
  8
0
100
AcDbLine
 10
469.7694920133704
 20
437.2686875513
 30
0.0
 11
469.7694920133704
 21
440.4722285917
 31
0.0
  0
ELLIPSE
  5
4AD
330
1F
100
AcDbEntity
  8
0
100
AcDbEllipse
 10
474.5158920127703
 20
436.3267845562
 30
0.0
 11
4.866872737070707
 21
0.0
 31
0.0
210
0.0
220
0.0
230
1.0
 40
0.875239649
 41
2.918628828446041
 42
3.364556478733587
  0
LINE
  5
4AE
330
1F
100
AcDbEntity
  8
0
100
AcDbLine
 10
469.7694920133704
 20
432.1813417127
 30
0.0
 11
469.7694920133704
 21
435.3848827531
 31
0.0
  0
ELLIPSE
  5
4AF
330
1F
100
AcDbEntity
  8
0
100
AcDbEllipse
 10
472.7444952024703
 20
371.3267845562
 30
0.0
 11
5.320888862379603
 21
0.0
 31
0.0
210
0.0
220
0.0
230
1.0
 40
0.9396926208
 41
4.119067740299794
 42
8.447302874059396
  0
LINE
  5
4B0
330
1F
100
AcDbEntity
  8
0
100
AcDbLine
 10
469.7694920133704
 20
372.2686890041
 30
0.0
 11
469.7694920133704
 21
375.4722253879
 31
0.0
  0
ELLIPSE
  5
4B1
330
1F
100
AcDbEntity
  8
0
100
AcDbEllipse
 10
474.5158920127703
 20
371.3267845562
 30
0.0
 11
4.866872737070764
 21
0.0
 31
0.0
210
0.0
220
0.0
230
1.0
 40
0.8752396490000001
 41
2.918628828446067
 42
3.364556478733574
  0
LINE
  5
4B2
330
1F
100
AcDbEntity
  8
0
100
AcDbLine
 10
469.7694920133704
 20
367.1813431656
 30
0.0
 11
469.7694920133704
 21
370.3848795494
 31
0.0
  0
LINE
  5
4B3
330
1F
100
AcDbEntity
  8
0
100
AcDbLine
 10
480.5560833439704
 20
448.8267881324
 30
0.0
 11
480.5560833439704
 21
358.8267845562
 31
0.0
  0
LINE
  5
4B4
330
1F
100
AcDbEntity
  8
0
100
AcDbLine
 10
467.5560830756704
 20
358.8267845562
 30
0.0
 11
480.5560833439704
 21
358.8267845562
 31
0.0
  0
LINE
  5
4B5
330
1F
100
AcDbEntity
  8
0
100
AcDbLine
 10
467.5560830756704
 20
448.8267881324
 30
0.0
 11
480.5560833439704
 21
448.8267881324
 31
0.0
  0
ARC
  5
4B6
330
1F
100
AcDbEntity
  8
0
100
AcDbCircle
 10
472.1503464143703
 20
436.3267851522
 30
0.0
 40
5.013722765380662
100
AcDbArc
 50
274.6830041921
 51
85.31699580790001
  0
LWPOLYLINE
  5
4B7
330
1F
100
AcDbEntity
  8
0
100
AcDbPolyline
 90
       28
 70
   128
 43
0.0
 10
469.7694920133704
 20
437.2686875513
 10
470.0097900014703
 20
437.8273097327
 10
470.3536042608703
 20
438.320843642
 10
470.7860224544704
 20
438.7278912118
 10
471.2882898412704
 20
439.0308020165
 10
471.8386223204703
 20
439.2164332321
 10
472.4131500944703
 20
439.2767307809
 10
472.9869556277704
 20
439.2090869596
 10
473.5351507216703
 20
439.0164298465
 10
474.0339601077703
 20
438.7071115425
 10
474.4617482311703
 20
438.2945654442
 10
474.7999617494704
 20
437.7966654947
 10
475.0339314006703
 20
437.235010927
 10
475.1535094939703
 20
436.6339651396
 10
475.1535094939703
 20
436.0195977142
 10
475.0339314006703
 20
435.4185593774
 10
474.7999617494704
 20
434.8569048097
 10
474.4617482311703
 20
434.3590048602
 10
474.0339601077703
 20
433.9464513114
 10
473.5351507216703
 20
433.6371404579
 10
472.9869556277704
 20
433.4444833448
 10
472.4131500944703
 20
433.3768395236
 10
471.8386223204703
 20
433.4371370723
 10
471.2882898412704
 20
433.6227682879
 10
470.7860224544704
 20
433.9256790927
 10
470.3536042608703
 20
434.3327266624
 10
470.0097900014703
 20
434.8262605717
 10
469.7694920133704
 20
435.3848827531
  0
LWPOLYLINE
  5
4B8
330
1F
100
AcDbEntity
  8
0
100
AcDbPolyline
 90
       28
 70
   128
 43
0.0
 10
469.9232289232704
 20
436.3267851522
 10
469.9852862060703
 20
435.7617778232
 10
470.1681129764704
 20
435.2272284677
 10
470.4618523493704
 20
434.7519559314
 10
470.8506692796703
 20
434.3615827611
 10
471.3136024903704
 20
434.0771568468
 10
471.8256950974703
 20
433.9140040329
 10
472.3593396730703
 20
433.8809309056
 10
472.8857678957704
 20
433.9797107031
 10
473.3765991069704
 20
434.205023711
 10
473.8053735010703
 20
434.5447180321
 10
474.1489751860704
 20
434.9804875901
 10
474.3888801559704
 20
435.4888332536
 10
474.5121555998703
 20
436.0423592379
 10
474.5121555998703
 20
436.6112110665
 10
474.3888801559704
 20
437.1647370508
 10
474.1489751860704
 20
437.6730827143
 10
473.8053735010703
 20
438.1088522723
 10
473.3765991069704
 20
438.4485465934
 10
472.8857678957704
 20
438.6738596013
 10
472.3593396730703
 20
438.7726393988
 10
471.8256950974703
 20
438.7395662716
 10
471.3136024903704
 20
438.5764134576
 10
470.8506692796703
 20
438.2919875434
 10
470.4618523493704
 20
437.901614373
 10
470.1681129764704
 20
437.4263418367
 10
469.9852862060703
 20
436.8917924812
 10
469.9232289232704
 20
436.3267851522
  0
ARC
  5
4B9
330
1F
100
AcDbEntity
  8
0
100
AcDbCircle
 10
472.1503478564703
 20
371.3267842768
 30
0.0
 40
5.013720327108471
100
AcDbArc
 50
274.6829899392007
 51
85.31701006079929
  0
LWPOLYLINE
  5
4BA
330
1F
100
AcDbEntity
  8
0
100
AcDbPolyline
 90
       28
 70
   128
 43
0.0
 10
469.7694920133704
 20
372.2686890041
 10
470.0097900014703
 20
372.8273065289
 10
470.3536042608703
 20
373.3208432322
 10
470.7860224544704
 20
373.7278935959
 10
471.2882898412704
 20
374.0308016067
 10
471.8386223204703
 20
374.216431891
 10
472.4131500944703
 20
374.2767313024
 10
472.9869556277704
 20
374.2090856185
 10
473.5351507216703
 20
374.0164275741
 10
474.0339601077703
 20
373.707114858
 10
474.4617482311703
 20
373.2945622405
 10
474.7999617494704
 20
372.7966622909
 10
475.0339314006703
 20
372.2350105172
 10
475.1535094939703
 20
371.6339675238
 10
475.1535094939703
 20
371.0196010297
 10
475.0339314006703
 20
370.4185580363
 10
474.7999617494704
 20
369.8569071939
 10
474.4617482311703
 20
369.3590072444
 10
474.0339601077703
 20
368.9464546269
 10
473.5351507216703
 20
368.6371409794
 10
472.9869556277704
 20
368.4444838663
 10
472.4131500944703
 20
368.3768381825
 10
471.8386223204703
 20
368.4371375939
 10
471.2882898412704
 20
368.6227669468
 10
470.7860224544704
 20
368.9256758889
 10
470.3536042608703
 20
369.3327262526
 10
470.0097900014703
 20
369.8262620246
 10
469.7694920133704
 20
370.3848795494
  0
LWPOLYLINE
  5
4BB
330
1F
100
AcDbEntity
  8
0
100
AcDbPolyline
 90
       28
 70
   128
 43
0.0
 10
469.9232289232704
 20
371.3267847424
 10
469.9852862060703
 20
370.7617755508
 10
470.1681129764704
 20
370.2272261953
 10
470.4618523493704
 20
369.7519545903
 10
470.8506692796703
 20
369.3615823513
 10
471.3136024903704
 20
369.0771555057
 10
471.8256950974703
 20
368.9140054857
 10
472.3593396730703
 20
368.8809295645
 10
472.8857678957704
 20
368.9797102934
 10
473.3765991069704
 20
369.2050223699
 10
473.8053735010703
 20
369.544719485
 10
474.1489751860704
 20
369.9804871803
 10
474.3888801559704
 20
370.4888356378
 10
474.5121555998703
 20
371.0423569655
 10
474.5121555998703
 20
371.6112125194
 10
474.3888801559704
 20
372.164733847
 10
474.1489751860704
 20
372.6730813732
 10
473.8053735010703
 20
373.1088499999
 10
473.3765991069704
 20
373.448547115
 10
472.8857678957704
 20
373.6738591915
 10
472.3593396730703
 20
373.7726399204
 10
471.8256950974703
 20
373.7395639991
 10
471.3136024903704
 20
373.5764139792
 10
470.8506692796703
 20
373.2919862023
 10
470.4618523493704
 20
372.9016139632
 10
470.1681129764704
 20
372.4263423582
 10
469.9852862060703
 20
371.8917930027
 10
469.9232289232704
 20
371.3267847424
  0
LWPOLYLINE
  5
4BC
330
1F
100
AcDbEntity
  8
0
100
AcDbPolyline
 90
        3
 70
   128
 43
0.0
 10
470.9803778342703
 20
369.6273073083
 10
470.5480474177704
 20
369.6789584583
 10
470.5134571660703
 20
369.6887345513
  0
ARC
  5
4BD
330
1F
100
AcDbEntity
  8
0
100
AcDbCircle
 10
470.8885646038703
 20
371.3158875742
 30
0.0
 40
1.691074505683667
100
AcDbArc
 50
273.1122806441971
 51
102.8157197548981
  0
LINE
  5
4BE
330
1F
100
AcDbEntity
  8
0
100
AcDbLine
 10
471.6478511355704
 20
370.0950594148
 30
0.0
 11
472.2966886721704
 21
371.3625661557
 31
0.0
  0
LINE
  5
4BF
330
1F
100
AcDbEntity
  8
0
100
AcDbLine
 10
472.2966886721704
 20
371.3625661557
 30
0.0
 11
471.5896132066703
 21
372.5942914834
 31
0.0
  0
LINE
  5
4C0
330
1F
100
AcDbEntity
  8
0
100
AcDbLine
 10
471.5896132066703
 20
372.5942914834
 30
0.0
 11
470.2353572603704
 21
372.5585529109
 31
0.0
  0
LINE
  5
4C1
330
1F
100
AcDbEntity
  8
0
100
AcDbLine
 10
470.2919385991704
 20
370.0592780014
 30
0.0
 11
470.0902641881703
 21
370.4105952283
 31
0.0
  0
LINE
  5
4C2
330
1F
100
AcDbEntity
  8
0
100
AcDbLine
 10
470.2919385991704
 20
370.0592780014
 30
0.0
 11
471.6478511355704
 21
370.0950594148
 31
0.0
  0
LINE
  5
4C3
330
1F
100
AcDbEntity
  8
0
100
AcDbLine
 10
470.2766269575703
 20
370.08595108
 30
0.0
 11
470.6217909362704
 21
370.0950594148
 31
0.0
  0
LINE
  5
4C4
330
1F
100
AcDbEntity
  8
0
100
AcDbLine
 10
471.6478511355704
 20
370.0950594148
 30
0.0
 11
470.6217909362704
 21
370.0950594148
 31
0.0
  0
LINE
  5
4C5
330
1F
100
AcDbEntity
  8
0
100
AcDbLine
 10
470.5788646489704
 20
372.5676184049
 30
0.0
 11
471.2706282399704
 21
371.3625661557
 31
0.0
  0
LINE
  5
4C6
330
1F
100
AcDbEntity
  8
0
100
AcDbLine
 10
472.2966886721704
 20
371.3625661557
 30
0.0
 11
471.2706282399704
 21
371.3625661557
 31
0.0
  0
LINE
  5
4C7
330
1F
100
AcDbEntity
  8
0
100
AcDbLine
 10
471.2706282399704
 20
371.3625661557
 30
0.0
 11
470.6217909362704
 21
370.0950594148
 31
0.0
  0
LWPOLYLINE
  5
4C8
330
1F
100
AcDbEntity
  8
0
100
AcDbPolyline
 90
        3
 70
   128
 43
0.0
 10
471.2490667253703
 20
434.6587417176
 10
470.8147423472703
 20
434.6320835402
 10
470.5134571660703
 20
434.6887377551
  0
ARC
  5
4C9
330
1F
100
AcDbEntity
  8
0
100
AcDbCircle
 10
470.8741684505703
 20
436.3102088215
 30
0.0
 40
1.693485255810229
100
AcDbArc
 50
282.7899094548969
 51
102.2981808764006
  0
LINE
  5
4CA
330
1F
100
AcDbEntity
  8
0
100
AcDbLine
 10
471.8328765258703
 20
435.2395591786
 30
0.0
 11
472.2716086208703
 21
436.6053325584
 31
0.0
  0
LINE
  5
4CB
330
1F
100
AcDbEntity
  8
0
100
AcDbLine
 10
472.2716086208703
 20
436.6053325584
 30
0.0
 11
471.3795079979703
 21
437.692558532
 31
0.0
  0
LINE
  5
4CC
330
1F
100
AcDbEntity
  8
0
100
AcDbLine
 10
471.3795079979703
 20
437.692558532
 30
0.0
 11
470.1748054604703
 21
437.4404085329
 31
0.0
  0
LINE
  5
4CD
330
1F
100
AcDbEntity
  8
0
100
AcDbLine
 10
470.5020440407703
 20
434.9610043218
 30
0.0
 11
470.0572383254703
 21
435.5031011155
 31
0.0
  0
LINE
  5
4CE
330
1F
100
AcDbEntity
  8
0
100
AcDbLine
 10
470.5020440407703
 20
434.9610043218
 30
0.0
 11
471.8328765258703
 21
435.2395591786
 31
0.0
  0
LINE
  5
4CF
330
1F
100
AcDbEntity
  8
0
100
AcDbLine
 10
470.3516550026703
 20
435.1442886045
 30
0.0
 11
470.8068163264703
 21
435.2395591786
 31
0.0
  0
LINE
  5
4D0
330
1F
100
AcDbEntity
  8
0
100
AcDbLine
 10
471.8328765258703
 20
435.2395591786
 30
0.0
 11
470.8068163264703
 21
435.2395591786
 31
0.0
  0
LINE
  5
4D1
330
1F
100
AcDbEntity
  8
0
100
AcDbLine
 10
470.5038366038704
 20
437.5092816999
 30
0.0
 11
471.2455481886703
 21
436.6053325584
 31
0.0
  0
LINE
  5
4D2
330
1F
100
AcDbEntity
  8
0
100
AcDbLine
 10
472.2716086208703
 20
436.6053325584
 30
0.0
 11
471.2455481886703
 21
436.6053325584
 31
0.0
  0
LINE
  5
4D3
330
1F
100
AcDbEntity
  8
0
100
AcDbLine
 10
471.2455481886703
 20
436.6053325584
 30
0.0
 11
470.8068163264703
 21
435.2395591786
 31
0.0
  0
LINE
  5
4D4
330
1F
100
AcDbEntity
  8
0
100
AcDbLine
 10
488.5560827925704
 20
413.3267832449
 30
0.0
 11
488.5560827925704
 21
394.3267857185
 31
0.0
  0
LINE
  5
4D5
330
1F
100
AcDbEntity
  8
0
100
AcDbLine
 10
480.5560833439704
 20
430.326787894
 30
0.0
 11
481.5560835078703
 21
430.326787894
 31
0.0
  0
LINE
  5
4D6
330
1F
100
AcDbEntity
  8
0
100
AcDbLine
 10
481.5560835078703
 20
430.326787894
 30
0.0
 11
481.5560835078703
 21
425.3267852118
 31
0.0
  0
LINE
  5
4D7
330
1F
100
AcDbEntity
  8
0
100
AcDbLine
 10
481.5560835078703
 20
425.3267852118
 30
0.0
 11
481.5560835078703
 21
382.3267837515
 31
0.0
  0
LINE
  5
4D8
330
1F
100
AcDbEntity
  8
0
100
AcDbLine
 10
481.5560835078703
 20
377.3267847946
 30
0.0
 11
480.5560833439704
 21
377.3267847946
 31
0.0
  0
LINE
  5
4D9
330
1F
100
AcDbEntity
  8
0
100
AcDbLine
 10
481.5560835078703
 20
382.3267837515
 30
0.0
 11
481.5560835078703
 21
377.3267847946
 31
0.0
  0
LINE
  5
4DA
330
1F
100
AcDbEntity
  8
0
100
AcDbLine
 10
489.5560829564704
 20
425.3267852118
 30
0.0
 11
491.5560832843703
 21
425.3267852118
 31
0.0
  0
LINE
  5
4DB
330
1F
100
AcDbEntity
  8
0
100
AcDbLine
 10
489.5560829564704
 20
415.3267835727
 30
0.0
 11
489.5560829564704
 21
425.3267852118
 31
0.0
  0
LINE
  5
4DC
330
1F
100
AcDbEntity
  8
0
100
AcDbLine
 10
489.5560829564704
 20
410.0767841091
 30
0.0
 11
491.5560832843703
 21
410.0767841091
 31
0.0
  0
LINE
  5
4DD
330
1F
100
AcDbEntity
  8
0
100
AcDbLine
 10
489.5560829564704
 20
415.3267835727
 30
0.0
 11
489.5560829564704
 21
410.0767841091
 31
0.0
  0
LINE
  5
4DE
330
1F
100
AcDbEntity
  8
0
100
AcDbLine
 10
489.5560829564704
 20
397.5767848542
 30
0.0
 11
491.5560832843703
 21
397.5767848542
 31
0.0
  0
LINE
  5
4DF
330
1F
100
AcDbEntity
  8
0
100
AcDbLine
 10
489.5560829564704
 20
397.5767848542
 30
0.0
 11
489.5560829564704
 21
392.3267853906
 31
0.0
  0
LINE
  5
4E0
330
1F
100
AcDbEntity
  8
0
100
AcDbLine
 10
491.5560832843703
 20
382.3267837515
 30
0.0
 11
489.5560829564704
 21
382.3267837515
 31
0.0
  0
LINE
  5
4E1
330
1F
100
AcDbEntity
  8
0
100
AcDbLine
 10
489.5560829564704
 20
382.3267837515
 30
0.0
 11
489.5560829564704
 21
392.3267853906
 31
0.0
  0
LINE
  5
4E2
330
1F
100
AcDbEntity
  8
0
100
AcDbLine
 10
489.5560829564704
 20
410.0767841091
 30
0.0
 11
489.5560829564704
 21
397.5767848542
 31
0.0
  0
LINE
  5
4E3
330
1F
100
AcDbEntity
  8
0
100
AcDbLine
 10
491.5560832843703
 20
376.3267846307
 30
0.0
 11
497.0560832545704
 21
376.3267846307
 31
0.0
  0
LINE
  5
4E4
330
1F
100
AcDbEntity
  8
0
100
AcDbLine
 10
491.5560832843703
 20
431.32678247
 30
0.0
 11
491.5560832843703
 21
376.3267846307
 31
0.0
  0
LINE
  5
4E5
330
1F
100
AcDbEntity
  8
0
100
AcDbLine
 10
497.0560832545704
 20
431.32678247
 30
0.0
 11
491.5560832843703
 21
431.32678247
 31
0.0
  0
ARC
  5
4E6
330
1F
100
AcDbEntity
  8
0
100
AcDbCircle
 10
461.1704820043703
 20
413.656933517
 30
0.0
 40
40.00000000000006
100
AcDbArc
 50
10.29579353659998
 51
26.21535359590001
  0
ARC
  5
4E7
330
1F
100
AcDbEntity
  8
0
100
AcDbCircle
 10
407.0560830756704
 20
403.8267845562
 30
0.0
 40
95.00000000000006
100
AcDbArc
 50
349.7042064633999
 51
10.29579353660001
  0
ARC
  5
4E8
330
1F
100
AcDbEntity
  8
0
100
AcDbCircle
 10
461.1704820043703
 20
393.9966355954
 30
0.0
 40
40.00000000000005
100
AcDbArc
 50
333.7846464041
 51
349.7042064633999
  0
CIRCLE
  5
4E9
330
1F
100
AcDbEntity
  8
0
100
AcDbCircle
 10
494.5560830756704
 20
403.8267845562
 30
0.0
 40
1.749999999999943
  0
SPLINE
  5
4EA
330
1F
100
AcDbEntity
  8
0
100
AcDbSpline
210
0.0
220
0.0
230
1.0
 70
     8
 71
     3
 72
    12
 73
     8
 74
     0
 42
0.000000001
 43
0.00000001
 40
0.0
 40
0.0
 40
0.0
 40
0.0
 40
0.2466574382738236
 40
0.4224785627050329
 40
0.6463431956894508
 40
0.8442582238222952
 40
0.9999999999999999
 40
0.9999999999999999
 40
0.9999999999999999
 40
0.9999999999999999
 10
493.3892949149147
 20
403.8267863443027
 30
0.0
 10
493.3171516176939
 20
403.7548723387617
 30
0.0
 10
493.1935834953133
 20
403.6316969506125
 30
0.0
 10
493.0768106213511
 20
403.4455235980692
 30
0.0
 10
493.0264798864212
 20
403.277900327148
 30
0.0
 10
493.0338915718944
 20
403.1204418718361
 30
0.0
 10
493.0940881019454
 20
403.0320536908685
 30
0.0
 10
493.1205971762673
 20
402.993129705442
 30
0.0
  0
SPLINE
  5
4EB
330
1F
100
AcDbEntity
  8
0
100
AcDbSpline
210
0.0
220
0.0
230
1.0
 70
     8
 71
     3
 72
    12
 73
     8
 74
     0
 42
0.000000001
 43
0.00000001
 40
0.0
 40
0.0
 40
0.0
 40
0.0
 40
0.15632867174832
 40
0.3541363370476885
 40
0.5778158831650863
 40
0.7535365332980738
 40
1.0
 40
1.0
 40
1.0
 40
1.0
 10
493.1209007874266
 20
404.6609682490954
 30
0.0
 10
493.0942663776243
 20
404.6218715414344
 30
0.0
 10
493.0339305977486
 20
404.5333045198713
 30
0.0
 10
493.0264681462837
 20
404.3756596122983
 30
0.0
 10
493.0768203193277
 20
404.2080310190096
 30
0.0
 10
493.193588244744
 20
404.0218656997683
 30
0.0
 10
493.3171574458285
 20
403.8986925852192
 30
0.0
 10
493.3892949149147
 20
403.8267863443027
 30
0.0
  0
LINE
  5
4EC
330
1F
100
AcDbEntity
  8
0
100
AcDbLine
 10
494.3560822531704
 20
402.3267833045
 30
0.0
 11
494.3560822531704
 21
402.0882492414
 31
0.0
  0
LINE
  5
4ED
330
1F
100
AcDbEntity
  8
0
100
AcDbLine
 10
494.3560822531704
 20
405.565319722
 30
0.0
 11
494.3560822531704
 21
405.3267856588
 31
0.0
  0
LINE
  5
4EE
330
1F
100
AcDbEntity
  8
0
100
AcDbLine
 10
493.3026055470704
 20
402.6055989316
 30
0.0
 11
493.3026055470704
 21
402.7589914849
 31
0.0
  0
LINE
  5
4EF
330
1F
100
AcDbEntity
  8
0
100
AcDbLine
 10
493.3026055470704
 20
404.8945774784
 30
0.0
 11
493.3026055470704
 21
405.0479700318
 31
0.0
  0
SPLINE
  5
4F0
330
1F
100
AcDbEntity
  8
0
100
AcDbSpline
210
0.0
220
0.0
230
1.0
 70
     8
 71
     3
 72
    21
 73
    17
 74
     0
 42
0.000000001
 43
0.00000001
 40
0.0
 40
0.0
 40
0.0
 40
0.0
 40
0.0550325984531115
 40
0.1905527677686459
 40
0.2595053230978804
 40
0.3286325985699821
 40
0.3974408312424755
 40
0.4659569466493366
 40
0.5122395391642091
 40
0.558545157356382
 40
0.6069770134215842
 40
0.6554455179338392
 40
0.7607393711157096
 40
0.8660658624082495
 40
0.9721616686798917
 40
1.0
 40
1.0
 40
1.0
 40
1.0
 10
453.0560834929482
 20
426.9425404718051
 30
0.0
 10
452.8675541398918
 20
426.1167003668716
 30
0.0
 10
452.2147630480603
 20
423.2571930538834
 30
0.0
 10
451.6243083387956
 20
419.3166268429263
 30
0.0
 10
451.1239401782555
 20
415.1570807276431
 30
0.0
 10
450.8423736150364
 20
411.9846338427408
 30
0.0
 10
450.6493530037324
 20
408.7496313382099
 30
0.0
 10
450.5617799167819
 20
405.800055500772
 30
0.0
 10
450.5505157650696
 20
403.1758500289103
 30
0.0
 10
450.5873026587082
 20
400.8906633485238
 30
0.0
 10
450.6717237047397
 20
398.611788377703
 30
0.0
 10
450.8553769960328
 20
395.4494126896997
 30
0.0
 10
451.2139180103146
 20
391.4611290942204
 30
0.0
 10
451.8796142402059
 20
386.6539882818522
 30
0.0
 10
452.4944273977738
 20
383.0352458282902
 30
0.0
 10
452.959431889801
 20
381.0257006745437
 30
0.0
 10
453.0560834929482
 20
380.6080149015317
 30
0.0
  0
LINE
  5
4F1
330
1F
100
AcDbEntity
  8
0
  6
Continuous
 62
     8
370
     0
100
AcDbLine
 10
467.5560830756704
 20
444.8267874768
 30
0.0
 11
456.0560830533703
 21
444.8267874768
 31
0.0
  0
ELLIPSE
  5
4F2
330
1F
100
AcDbEntity
  8
0
  6
Continuous
 62
     8
370
     0
100
AcDbEllipse
 10
457.0560830756704
 20
444.8267845562
 30
0.0
 11
0.0
 21
4.0
 31
0.0
210
0.0
220
0.0
230
1.0
 40
0.25
 41
0.0
 42
1.570796326794897
  0
LINE
  5
4F3
330
1F
100
AcDbEntity
  8
0
  6
Continuous
 62
     8
370
     0
100
AcDbLine
 10
456.0560830533703
 20
444.8267874768
 30
0.0
 11
453.0560834929704
 21
444.8267874768
 31
0.0
  0
LINE
  5
4F4
330
1F
100
AcDbEntity
  8
0
  6
Continuous
 62
     8
370
     0
100
AcDbLine
 10
456.0560830533703
 20
362.8267847462
 30
0.0
 11
467.5560830756704
 21
362.8267847462
 31
0.0
  0
LINE
  5
4F5
330
1F
100
AcDbEntity
  8
0
  6
Continuous
 62
     8
370
     0
100
AcDbLine
 10
456.0560830533703
 20
444.8267874768
 30
0.0
 11
456.0560830533703
 21
362.8267847462
 31
0.0
  0
LINE
  5
4F6
330
1F
100
AcDbEntity
  8
0
  6
Continuous
 62
     8
370
     0
100
AcDbLine
 10
453.0560834929704
 20
362.8267847462
 30
0.0
 11
456.0560830533703
 21
362.8267847462
 31
0.0
  0
ELLIPSE
  5
4F7
330
1F
100
AcDbEntity
  8
0
  6
Continuous
 62
     8
370
     0
100
AcDbEllipse
 10
457.0560830756704
 20
362.8267845562
 30
0.0
 11
0.0
 21
4.0
 31
0.0
210
0.0
220
0.0
230
1.0
 40
0.25
 41
1.570796326794897
 42
3.141592653589793
  0
LINE
  5
4F8
330
1F
100
AcDbEntity
  8
0
  6
Continuous
 62
     8
370
     0
100
AcDbLine
 10
481.5560835078703
 20
425.3267852118
 30
0.0
 11
480.5560833439704
 21
425.3267852118
 31
0.0
  0
LINE
  5
4F9
330
1F
100
AcDbEntity
  8
0
  6
Continuous
 62
     8
370
     0
100
AcDbLine
 10
480.5560833439704
 20
382.3267837515
 30
0.0
 11
481.5560835078703
 21
382.3267837515
 31
0.0
  0
LINE
  5
4FA
330
1F
100
AcDbEntity
  8
0
  6
Continuous
 62
     8
370
     0
100
AcDbLine
 10
491.5560832843703
 20
415.3267835727
 30
0.0
 11
489.5560829564704
 21
415.3267835727
 31
0.0
  0
LINE
  5
4FB
330
1F
100
AcDbEntity
  8
0
  6
Continuous
 62
     8
370
     0
100
AcDbLine
 10
489.5560829564704
 20
392.3267853906
 30
0.0
 11
491.5560832843703
 21
392.3267853906
 31
0.0
  0
LINE
  5
4FC
330
1F
100
AcDbEntity
  8
0
100
AcDbLine
 10
736.6107745379703
 20
431.4628151705
 30
0.0
 11
735.6107743740704
 21
431.8267834833
 31
0.0
  0
LINE
  5
4FD
330
1F
100
AcDbEntity
  8
0
100
AcDbLine
 10
719.6107745454703
 20
431.8267834833
 30
0.0
 11
718.6107743814704
 21
431.4628151705
 31
0.0
  0
LINE
  5
4FE
330
1F
100
AcDbEntity
  8
0
100
AcDbLine
 10
736.6107745379703
 20
431.32678247
 30
0.0
 11
736.6107745379703
 21
431.4628151705
 31
0.0
  0
LINE
  5
4FF
330
1F
100
AcDbEntity
  8
0
100
AcDbLine
 10
718.6107743814704
 20
431.4628151705
 30
0.0
 11
718.6107743814704
 21
431.32678247
 31
0.0
  0
LINE
  5
500
330
1F
100
AcDbEntity
  8
0
100
AcDbLine
 10
718.6107743814704
 20
376.3267846307
 30
0.0
 11
718.6107743814704
 21
376.1907556554
 31
0.0
  0
LINE
  5
501
330
1F
100
AcDbEntity
  8
0
100
AcDbLine
 10
736.6107745379703
 20
376.1907556554
 30
0.0
 11
736.6107745379703
 21
376.3267846307
 31
0.0
  0
LINE
  5
502
330
1F
100
AcDbEntity
  8
0
100
AcDbLine
 10
718.6107743814704
 20
376.1907556554
 30
0.0
 11
719.6107745454703
 21
375.82678548
 31
0.0
  0
LINE
  5
503
330
1F
100
AcDbEntity
  8
0
100
AcDbLine
 10
735.6107743740704
 20
375.82678548
 30
0.0
 11
736.6107745379703
 21
376.1907556554
 31
0.0
  0
LINE
  5
504
330
1F
100
AcDbEntity
  8
0
100
AcDbLine
 10
704.6107748806703
 20
394.3267857185
 30
0.0
 11
711.6107741654704
 21
394.3267857185
 31
0.0
  0
LINE
  5
505
330
1F
100
AcDbEntity
  8
0
100
AcDbLine
 10
711.6107741654704
 20
413.3267832449
 30
0.0
 11
704.6107748806703
 21
413.3267832449
 31
0.0
  0
LINE
  5
506
330
1F
100
AcDbEntity
  8
0
100
AcDbLine
 10
704.6107748806703
 20
411.7267859628
 30
0.0
 11
703.6107747167704
 21
411.7267859628
 31
0.0
  0
LINE
  5
507
330
1F
100
AcDbEntity
  8
0
100
AcDbLine
 10
703.6107747167704
 20
395.9267830005
 30
0.0
 11
704.6107748806703
 21
395.9267830005
 31
0.0
  0
LINE
  5
508
330
1F
100
AcDbEntity
  8
0
100
AcDbLine
 10
732.8607743889703
 20
375.7267837873
 30
0.0
 11
732.8607743889703
 21
375.82678548
 31
0.0
  0
LINE
  5
509
330
1F
100
AcDbEntity
  8
0
100
AcDbLine
 10
732.8607743889703
 20
431.8267834833
 30
0.0
 11
732.8607743889703
 21
431.9267851761
 31
0.0
  0
LINE
  5
50A
330
1F
100
AcDbEntity
  8
0
100
AcDbLine
 10
722.3607745305703
 20
375.82678548
 30
0.0
 11
722.3607745305703
 21
375.7267837873
 31
0.0
  0
LINE
  5
50B
330
1F
100
AcDbEntity
  8
0
100
AcDbLine
 10
722.3607745305703
 20
431.9267851761
 30
0.0
 11
722.3607745305703
 21
431.8267834833
 31
0.0
  0
LINE
  5
50C
330
1F
100
AcDbEntity
  8
0
100
AcDbLine
 10
740.1107741803703
 20
431.9267851761
 30
0.0
 11
740.1107741803703
 21
427.0739538124
 31
0.0
  0
LINE
  5
50D
330
1F
100
AcDbEntity
  8
0
100
AcDbLine
 10
740.1107741803703
 20
380.5726078799
 30
0.0
 11
740.1107741803703
 21
375.7267837873
 31
0.0
  0
LINE
  5
50E
330
1F
100
AcDbEntity
  8
0
100
AcDbLine
 10
737.1107746199704
 20
431.9267851761
 30
0.0
 11
737.1107746199704
 21
431.32678247
 31
0.0
  0
LINE
  5
50F
330
1F
100
AcDbEntity
  8
0
100
AcDbLine
 10
737.1107746199704
 20
376.3267846307
 30
0.0
 11
737.1107746199704
 21
375.7267837873
 31
0.0
  0
LINE
  5
510
330
1F
100
AcDbEntity
  8
0
100
AcDbLine
 10
712.6107743293703
 20
364.3038013479
 30
0.0
 11
712.6107743293703
 21
358.8267845562
 31
0.0
  0
LINE
  5
511
330
1F
100
AcDbEntity
  8
0
100
AcDbLine
 10
712.6471862480703
 20
364.1767847812
 30
0.0
 11
712.6107743293703
 21
364.3038013479
 31
0.0
  0
SPLINE
  5
512
330
1F
100
AcDbEntity
  8
0
100
AcDbSpline
210
0.0
220
0.0
230
1.0
 70
     8
 71
     3
 72
    13
 73
     9
 74
     0
 42
0.000000001
 43
0.00000001
 40
0.0
 40
0.0
 40
0.0
 40
0.0
 40
0.203562815697458
 40
0.4068066458162417
 40
0.6183489305423737
 40
0.7289970881663365
 40
0.8396185313725447
 40
1.0
 40
1.0
 40
1.0
 40
1.0
 10
713.5520862699155
 20
368.1767845054994
 30
0.0
 10
713.5356818748792
 20
367.7448863889192
 30
0.0
 10
713.5028987907069
 20
366.8817669457228
 30
0.0
 10
713.2727143042093
 20
365.7235532248901
 30
0.0
 10
713.0402819721132
 20
364.9577189217118
 30
0.0
 10
712.8667449208234
 20
364.5193882115666
 30
0.0
 10
712.7330194821764
 20
364.2422212913805
 30
0.0
 10
712.6790976031516
 20
364.2011129768233
 30
0.0
 10
712.6471862480645
 20
364.1767847811709
 30
0.0
  0
LINE
  5
513
330
1F
100
AcDbEntity
  8
0
100
AcDbLine
 10
713.5520862698703
 20
375.7267837873
 30
0.0
 11
713.5520862698703
 21
368.1767845055
 31
0.0
  0
LINE
  5
514
330
1F
100
AcDbEntity
  8
0
100
AcDbLine
 10
740.1107741803703
 20
375.7267837873
 30
0.0
 11
713.5520862698703
 21
375.7267837873
 31
0.0
  0
LINE
  5
515
330
1F
100
AcDbEntity
  8
0
100
AcDbLine
 10
740.1107741803703
 20
375.7267837873
 30
0.0
 11
740.1107741803703
 21
362.8267847462
 31
0.0
  0
SPLINE
  5
516
330
1F
100
AcDbEntity
  8
0
100
AcDbSpline
210
0.0
220
0.0
230
1.0
 70
     8
 71
     3
 72
    14
 73
    10
 74
     0
 42
0.000000001
 43
0.00000001
 40
0.0
 40
0.0
 40
0.0
 40
0.0
 40
0.1163545795585166
 40
0.2359508553392611
 40
0.4105768359246088
 40
0.5899819142411983
 40
0.7919483299546793
 40
0.9979749531348077
 40
1.0
 40
1.0
 40
1.0
 40
1.0
 10
736.1107744560246
 20
358.8267845561633
 30
0.0
 10
736.4185832515406
 20
358.8485330278702
 30
0.0
 10
737.0427765480873
 20
358.892635894479
 30
0.0
 10
737.9585777243261
 20
359.2357949240296
 30
0.0
 10
738.8176723560583
 20
359.8115834116324
 30
0.0
 10
739.5396842009162
 20
360.669346560661
 30
0.0
 10
740.0019431026401
 20
361.6896009661935
 30
0.0
 10
740.110438166768
 20
362.4418089607624
 30
0.0
 10
740.1107709413304
 20
362.8230737494332
 30
0.0
 10
740.1107741803531
 20
362.8267847461531
 30
0.0
  0
LINE
  5
517
330
1F
100
AcDbEntity
  8
0
100
AcDbLine
 10
712.6107743293703
 20
358.8267845562
 30
0.0
 11
736.1107744560703
 21
358.8267845562
 31
0.0
  0
LINE
  5
518
330
1F
100
AcDbEntity
  8
0
100
AcDbLine
 10
713.5520862698703
 20
431.9267851761
 30
0.0
 11
740.1107741803703
 21
431.9267851761
 31
0.0
  0
LINE
  5
519
330
1F
100
AcDbEntity
  8
0
100
AcDbLine
 10
713.5520862698703
 20
439.4767863205
 30
0.0
 11
713.5520862698703
 21
431.9267851761
 31
0.0
  0
SPLINE
  5
51A
330
1F
100
AcDbEntity
  8
0
100
AcDbSpline
210
0.0
220
0.0
230
1.0
 70
     8
 71
     3
 72
    13
 73
     9
 74
     0
 42
0.000000001
 43
0.00000001
 40
0.0
 40
0.0
 40
0.0
 40
0.0
 40
0.2107217429465835
 40
0.4211684375443627
 40
0.6384904032436874
 40
0.7489029783120652
 40
0.8592748235555315
 40
1.0
 40
1.0
 40
1.0
 40
1.0
 10
712.6471862480645
 20
443.4767869761119
 30
0.0
 10
712.6927456174941
 20
443.4331787793738
 30
0.0
 10
712.7838048891657
 20
443.3460193062816
 30
0.0
 10
713.0541236253234
 20
442.6763547521497
 30
0.0
 10
713.2901886679624
 20
441.8447924493543
 30
0.0
 10
713.4395364058659
 20
441.0316355959803
 30
0.0
 10
713.5312523215808
 20
440.3063464976759
 30
0.0
 10
713.5446036385858
 20
439.7747275878681
 30
0.0
 10
713.5520862699155
 20
439.4767863204608
 30
0.0
  0
LINE
  5
51B
330
1F
100
AcDbEntity
  8
0
100
AcDbLine
 10
712.6107743293703
 20
443.3497694781
 30
0.0
 11
712.6471862480703
 21
443.4767869761
 31
0.0
  0
LINE
  5
51C
330
1F
100
AcDbEntity
  8
0
100
AcDbLine
 10
712.6107743293703
 20
448.8267881324
 30
0.0
 11
712.6107743293703
 21
443.3497694781
 31
0.0
  0
LINE
  5
51D
330
1F
100
AcDbEntity
  8
0
100
AcDbLine
 10
712.6107743293703
 20
448.8267881324
 30
0.0
 11
736.1107744560703
 21
448.8267881324
 31
0.0
  0
SPLINE
  5
51E
330
1F
100
AcDbEntity
  8
0
100
AcDbSpline
210
0.0
220
0.0
230
1.0
 70
     8
 71
     3
 72
    14
 73
    10
 74
     0
 42
0.000000001
 43
0.00000001
 40
0.0
 40
0.0
 40
0.0
 40
0.0
 40
0.0020249852443065
 40
0.204090121274227
 40
0.4100199317487511
 40
0.5849446208693136
 40
0.7640499570800823
 40
0.8806155112355768
 40
1.0
 40
1.0
 40
1.0
 40
1.0
 10
740.1107741803531
 20
444.8267874767909
 30
0.0
 10
740.1107709412177
 20
444.8304978511113
 30
0.0
 10
740.1104444817707
 20
445.2044515612218
 30
0.0
 10
740.0040027503727
 20
445.9566369494207
 30
0.0
 10
739.5482962844615
 20
446.9703610199495
 30
0.0
 10
738.8246402769751
 20
447.8353293068387
 30
0.0
 10
737.9739898608735
 20
448.4103367762119
 30
0.0
 10
737.0501846199015
 20
448.7588866772969
 30
0.0
 10
736.4263953488856
 20
448.8039747557897
 30
0.0
 10
736.1107744560246
 20
448.826788132442
 30
0.0
  0
LINE
  5
51F
330
1F
100
AcDbEntity
  8
0
100
AcDbLine
 10
740.1107741803703
 20
444.8267874768
 30
0.0
 11
740.1107741803703
 21
431.9267851761
 31
0.0
  0
LINE
  5
520
330
1F
100
AcDbEntity
  8
0
100
AcDbLine
 10
712.6107743293703
 20
364.3038013479
 30
0.0
 11
712.6107743293703
 21
368.1767845055
 31
0.0
  0
LINE
  5
521
330
1F
100
AcDbEntity
  8
0
100
AcDbLine
 10
712.6107743293703
 20
439.4767863205
 30
0.0
 11
712.6107743293703
 21
443.3497694781
 31
0.0
  0
LINE
  5
522
330
1F
100
AcDbEntity
  8
0
100
AcDbLine
 10
712.6107743293703
 20
375.7267837873
 30
0.0
 11
712.6107743293703
 21
368.1767845055
 31
0.0
  0
LINE
  5
523
330
1F
100
AcDbEntity
  8
0
100
AcDbLine
 10
712.6107743293703
 20
375.7267837873
 30
0.0
 11
713.5520862698703
 21
375.7267837873
 31
0.0
  0
LINE
  5
524
330
1F
100
AcDbEntity
  8
0
100
AcDbLine
 10
712.6107743293703
 20
439.4767863205
 30
0.0
 11
712.6107743293703
 21
431.9267851761
 31
0.0
  0
LINE
  5
525
330
1F
100
AcDbEntity
  8
0
100
AcDbLine
 10
713.5520862698703
 20
431.9267851761
 30
0.0
 11
712.6107743293703
 21
431.9267851761
 31
0.0
  0
LINE
  5
526
330
1F
100
AcDbEntity
  8
0
100
AcDbLine
 10
712.6107743293703
 20
431.9267851761
 30
0.0
 11
712.6107743293703
 21
431.32678247
 31
0.0
  0
LINE
  5
527
330
1F
100
AcDbEntity
  8
0
100
AcDbLine
 10
712.6107743293703
 20
376.3267846307
 30
0.0
 11
712.6107743293703
 21
375.7267837873
 31
0.0
  0
LINE
  5
528
330
1F
100
AcDbEntity
  8
0
100
AcDbLine
 10
735.6107743740704
 20
431.8267834833
 30
0.0
 11
719.6107745454703
 21
431.8267834833
 31
0.0
  0
LINE
  5
529
330
1F
100
AcDbEntity
  8
0
100
AcDbLine
 10
736.6107745379703
 20
431.4628151705
 30
0.0
 11
718.6107743814704
 21
431.4628151705
 31
0.0
  0
LINE
  5
52A
330
1F
100
AcDbEntity
  8
0
100
AcDbLine
 10
718.6107743814704
 20
376.1907556554
 30
0.0
 11
736.6107745379703
 21
376.1907556554
 31
0.0
  0
LINE
  5
52B
330
1F
100
AcDbEntity
  8
0
100
AcDbLine
 10
719.6107745454703
 20
375.82678548
 30
0.0
 11
735.6107743740704
 21
375.82678548
 31
0.0
  0
LINE
  5
52C
330
1F
100
AcDbEntity
  8
0
100
AcDbLine
 10
704.6107748806703
 20
394.3267857185
 30
0.0
 11
704.6107748806703
 21
413.3267832449
 31
0.0
  0
LINE
  5
52D
330
1F
100
AcDbEntity
  8
0
100
AcDbLine
 10
711.6107741654704
 20
381.3920022448
 30
0.0
 11
711.6107741654704
 21
426.2615648558
 31
0.0
  0
LINE
  5
52E
330
1F
100
AcDbEntity
  8
0
100
AcDbLine
 10
712.6107743293703
 20
377.3267847946
 30
0.0
 11
711.6107741654704
 21
377.3267847946
 31
0.0
  0
LINE
  5
52F
330
1F
100
AcDbEntity
  8
0
100
AcDbLine
 10
711.6107741654704
 20
377.3267847946
 30
0.0
 11
711.6107741654704
 21
381.3920022448
 31
0.0
  0
LINE
  5
530
330
1F
100
AcDbEntity
  8
0
100
AcDbLine
 10
711.6107741654704
 20
430.326787894
 30
0.0
 11
712.6107743293703
 21
430.326787894
 31
0.0
  0
LINE
  5
531
330
1F
100
AcDbEntity
  8
0
100
AcDbLine
 10
711.6107741654704
 20
426.2615648558
 30
0.0
 11
711.6107741654704
 21
430.326787894
 31
0.0
  0
LINE
  5
532
330
1F
100
AcDbEntity
  8
0
100
AcDbLine
 10
703.6107747167704
 20
382.3267837515
 30
0.0
 11
701.6107743889703
 21
382.3267837515
 31
0.0
  0
LINE
  5
533
330
1F
100
AcDbEntity
  8
0
100
AcDbLine
 10
703.6107747167704
 20
392.3267853906
 30
0.0
 11
703.6107747167704
 21
382.3267837515
 31
0.0
  0
LINE
  5
534
330
1F
100
AcDbEntity
  8
0
100
AcDbLine
 10
703.6107747167704
 20
392.3267853906
 30
0.0
 11
703.6107747167704
 21
415.3267835727
 31
0.0
  0
LINE
  5
535
330
1F
100
AcDbEntity
  8
0
100
AcDbLine
 10
701.6107743889703
 20
425.3267852118
 30
0.0
 11
703.6107747167704
 21
425.3267852118
 31
0.0
  0
LINE
  5
536
330
1F
100
AcDbEntity
  8
0
100
AcDbLine
 10
703.6107747167704
 20
425.3267852118
 30
0.0
 11
703.6107747167704
 21
415.3267835727
 31
0.0
  0
LINE
  5
537
330
1F
100
AcDbEntity
  8
0
100
AcDbLine
 10
701.6107743889703
 20
376.3267846307
 30
0.0
 11
701.6107743889703
 21
431.32678247
 31
0.0
  0
LINE
  5
538
330
1F
100
AcDbEntity
  8
0
100
AcDbLine
 10
701.6107743889703
 20
376.3267846307
 30
0.0
 11
696.1107744187703
 21
376.3267846307
 31
0.0
  0
SPLINE
  5
539
330
1F
100
AcDbEntity
  8
0
100
AcDbSpline
210
0.0
220
0.0
230
1.0
 70
     8
 71
     3
 72
    15
 73
    11
 74
     0
 42
0.000000001
 43
0.00000001
 40
0.0
 40
0.0
 40
0.0
 40
0.0
 40
0.1219449941198338
 40
0.2439804505576035
 40
0.3659205242992419
 40
0.4914233992974446
 40
0.6170310045360045
 40
0.7425347871973142
 40
0.8710499349944191
 40
1.0
 40
1.0
 40
1.0
 40
1.0
 10
692.6404504389171
 20
420.80613425876
 30
0.0
 10
692.4108819952896
 20
419.4445572548286
 30
0.0
 10
691.9515748075338
 20
416.7203931898272
 30
0.0
 10
691.4870975243507
 20
412.5816707910092
 30
0.0
 10
691.1874752254586
 20
408.3789677031735
 30
0.0
 10
691.0796697979712
 20
404.1195958724285
 30
0.0
 10
691.1628075695585
 20
399.8186524074041
 30
0.0
 10
691.4455782430545
 20
395.4976362803534
 30
0.0
 10
691.9156188496944
 20
391.1627852740151
 30
0.0
 10
692.3985679722649
 20
388.2875051364911
 30
0.0
 10
692.6404504389171
 20
386.8474365672002
 30
0.0
  0
SPLINE
  5
53A
330
1F
100
AcDbEntity
  8
0
100
AcDbSpline
210
0.0
220
0.0
230
1.0
 70
     8
 71
     3
 72
    11
 73
     7
 74
     0
 42
0.000000001
 43
0.00000001
 40
0.0
 40
0.0
 40
0.0
 40
0.0
 40
0.2475240258686577
 40
0.4950438913440369
 40
0.7475248950197537
 40
1.0
 40
1.0
 40
1.0
 40
1.0
 10
696.1107744187717
 20
431.3267824700008
 30
0.0
 10
695.7237977815571
 20
430.5004193227865
 30
0.0
 10
694.9498510114458
 20
428.8477069179014
 30
0.0
 10
694.0006209829943
 20
426.2482083381744
 30
0.0
 10
693.2009415084892
 20
423.5714684406299
 30
0.0
 10
692.8272793404504
 20
421.7279051407933
 30
0.0
 10
692.6404504389171
 20
420.80613425876
 30
0.0
  0
LINE
  5
53B
330
1F
100
AcDbEntity
  8
0
100
AcDbLine
 10
701.6107743889703
 20
431.32678247
 30
0.0
 11
696.1107744187703
 21
431.32678247
 31
0.0
  0
SPLINE
  5
53C
330
1F
100
AcDbEntity
  8
0
100
AcDbSpline
210
0.0
220
0.0
230
1.0
 70
     8
 71
     3
 72
    11
 73
     7
 74
     0
 42
0.000000001
 43
0.00000001
 40
0.0
 40
0.0
 40
0.0
 40
0.0
 40
0.2474822242006775
 40
0.4949698468530093
 40
0.7474821770206782
 40
1.0
 40
1.0
 40
1.0
 40
1.0
 10
692.6404504389171
 20
386.8474365672002
 30
0.0
 10
692.823220260272
 20
385.9438179143598
 30
0.0
 10
693.18876388983
 20
384.1365608976004
 30
0.0
 10
693.977356559408
 20
381.4757492136875
 30
0.0
 10
694.9274018968347
 20
378.8564199801544
 30
0.0
 10
695.7163140513359
 20
377.1700025277717
 30
0.0
 10
696.1107744187717
 20
376.3267846306691
 30
0.0
  0
LINE
  5
53D
330
1F
100
AcDbEntity
  8
0
100
AcDbLine
 10
716.1207083896703
 20
397.5348567119
 30
0.0
 11
716.0664094895703
 21
397.6350446692
 31
0.0
  0
LWPOLYLINE
  5
53E
330
1F
100
AcDbEntity
  8
0
100
AcDbPolyline
 90
        3
 70
   128
 43
0.0
 10
714.5867884442704
 20
402.4176058819
 10
714.5114453792703
 20
403.6941771855
 10
714.5335121363703
 20
404.5982865145
  0
LINE
  5
53F
330
1F
100
AcDbEntity
  8
0
100
AcDbLine
 10
738.9721317500704
 20
410.3482534638
 30
0.0
 11
739.1008405298703
 21
410.1187159767
 31
0.0
  0
CIRCLE
  5
544
330
1F
100
AcDbEntity
  8
0
100
AcDbCircle
 10
727.6107745975703
 20
403.8267845562
 30
0.0
 40
13.00000000000014
  0
LINE
  5
545
330
1F
100
AcDbEntity
  8
0
100
AcDbLine
 10
712.6107743293703
 20
431.32678247
 30
0.0
 11
712.6107743293703
 21
376.3267846307
 31
0.0
  0
LINE
  5
546
330
1F
100
AcDbEntity
  8
0
100
AcDbLine
 10
712.6107743293703
 20
431.32678247
 30
0.0
 11
738.3403821200703
 21
431.32678247
 31
0.0
  0
SPLINE
  5
547
330
1F
100
AcDbEntity
  8
0
100
AcDbSpline
210
0.0
220
0.0
230
1.0
 70
     8
 71
     3
 72
    11
 73
     7
 74
     0
 42
0.000000001
 43
0.00000001
 40
0.0
 40
0.0
 40
0.0
 40
0.0
 40
0.2605112438886217
 40
0.521190289520231
 40
0.7773449785853862
 40
1.0
 40
1.0
 40
1.0
 40
1.0
 10
739.3103787959222
 20
430.569900338901
 30
0.0
 10
739.2718150762413
 20
430.6775577570334
 30
0.0
 10
739.1946627970323
 20
430.8929419381069
 30
0.0
 10
738.9494564498548
 20
431.1421016898692
 30
0.0
 10
738.6535800853758
 20
431.2994585489049
 30
0.0
 10
738.439795670749
 20
431.3181094634188
 30
0.0
 10
738.3403821200733
 20
431.3267824700008
 30
0.0
  0
SPLINE
  5
548
330
1F
100
AcDbEntity
  8
0
100
AcDbSpline
210
0.0
220
0.0
230
1.0
 70
     8
 71
     3
 72
    19
 73
    15
 74
     0
 42
0.000000001
 43
0.00000001
 40
0.0
 40
0.0
 40
0.0
 40
0.0
 40
0.0824318066880911
 40
0.1649187091103092
 40
0.2473453340670517
 40
0.3320168849502357
 40
0.4167551003848303
 40
0.5014244042034856
 40
0.5833721233858472
 40
0.6653822381916611
 40
0.747331900234483
 40
0.8315312792501508
 40
0.9157950523570348
 40
1.0
 40
1.0
 40
1.0
 40
1.0
 10
739.3103787959222
 20
377.0836648991237
 30
0.0
 10
739.6499583868376
 20
378.5082263841819
 30
0.0
 10
740.3293445367236
 20
381.3583015020674
 30
0.0
 10
741.1374748893102
 20
385.7165686004246
 30
0.0
 10
741.7908149167735
 20
390.1622095545888
 30
0.0
 10
742.2622977677496
 20
394.6920633847096
 30
0.0
 10
742.5489241625494
 20
399.2908724352508
 30
0.0
 10
742.6422543273031
 20
403.8550335691115
 30
0.0
 10
742.5466700113869
 20
408.3693473704089
 30
0.0
 10
742.2720003143245
 20
412.820428829437
 30
0.0
 10
741.8160174359364
 20
417.2855999902508
 30
0.0
 10
741.1699469675154
 20
421.7486105843425
 30
0.0
 10
740.3502280642017
 20
426.2027668634851
 30
0.0
 10
739.656914522217
 20
429.1145280874658
 30
0.0
 10
739.3103787959222
 20
430.569900338901
 30
0.0
  0
SPLINE
  5
549
330
1F
100
AcDbEntity
  8
0
100
AcDbSpline
210
0.0
220
0.0
230
1.0
 70
     8
 71
     3
 72
    11
 73
     7
 74
     0
 42
0.000000001
 43
0.00000001
 40
0.0
 40
0.0
 40
0.0
 40
0.0
 40
0.2468775329952118
 40
0.4936495781587099
 40
0.7433800539508509
 40
1.0
 40
1.0
 40
1.0
 40
1.0
 10
738.3403821200733
 20
376.3267846306691
 30
0.0
 10
738.4507387521786
 20
376.3374105729839
 30
0.0
 10
738.6714048623134
 20
376.3586579172749
 30
0.0
 10
738.9640659933826
 20
376.5245123141497
 30
0.0
 10
739.1979839256892
 20
376.7682340602472
 30
0.0
 10
739.2725755380906
 20
376.9775718603094
 30
0.0
 10
739.3103787959222
 20
377.0836648991237
 30
0.0
  0
LINE
  5
54A
330
1F
100
AcDbEntity
  8
0
100
AcDbLine
 10
712.6107743293703
 20
376.3267846307
 30
0.0
 11
738.3403821200703
 21
376.3267846307
 31
0.0
  0
SPLINE
  5
54B
330
1F
100
AcDbEntity
  8
0
100
AcDbSpline
210
0.0
220
0.0
230
1.0
 70
    11
 71
     3
 72
    55
 73
    51
 74
     0
 42
0.000000001
 43
0.00000001
 40
0.0
 40
0.0
 40
0.0
 40
0.0
 40
0.0209569829511171
 40
0.0417008767899088
 40
0.0625923513466103
 40
0.083541295739449
 40
0.1042838588429265
 40
0.12517861817228
 40
0.1460656307551091
 40
0.1667735661333299
 40
0.1876642082160604
 40
0.2084888281751068
 40
0.2291539054610458
 40
0.2500280237016874
 40
0.2708377162187455
 40
0.2914953665960537
 40
0.3123694776457925
 40
0.3332399195161905
 40
0.3539224253302738
 40
0.3747803711510226
 40
0.3957033243506406
 40
0.4164248619033472
 40
0.4373022094798659
 40
0.4582720487869591
 40
0.4791091038562511
 40
0.5001721481555191
 40
0.5210384892709928
 40
0.541772634024576
 40
0.5627366108800368
 40
0.5836538831824734
 40
0.6043677117693907
 40
0.6252373588799808
 40
0.6461720862276567
 40
0.6668614399940065
 40
0.6876676452665017
 40
0.7085690304171118
 40
0.729251740646904
 40
0.7500835669551525
 40
0.7709102145152481
 40
0.7915959475183242
 40
0.8125087803421662
 40
0.833318086817951
 40
0.8540095955480618
 40
0.8749459615086166
 40
0.8958158529211783
 40
0.9165281841994718
 40
0.9374418931720588
 40
0.9583686167136681
 40
0.9791012227329481
 40
1.0
 40
1.0
 40
1.0
 40
1.0
 10
714.2921682730918
 20
403.8267863443027
 30
0.0
 10
714.313667723892
 20
404.4130656326809
 30
0.0
 10
714.3564480206055
 20
405.5796629633253
 30
0.0
 10
714.7096174097977
 20
407.3008751310546
 30
0.0
 10
715.2720915259197
 20
408.960457449402
 30
0.0
 10
716.0433458730331
 20
410.5346223336728
 30
0.0
 10
717.0140045485306
 20
411.9934823257271
 30
0.0
 10
718.168001274955
 20
413.3090851090535
 30
0.0
 10
719.4785316978615
 20
414.4672776158761
 30
0.0
 10
720.9317951714269
 20
415.441518106289
 30
0.0
 10
722.4996998370026
 20
416.2145305866291
 30
0.0
 10
724.1526212642599
 20
416.7822734988407
 30
0.0
 10
725.8671943075852
 20
417.1239321821632
 30
0.0
 10
727.6114386450496
 20
417.235196891316
 30
0.0
 10
729.355547879119
 20
417.124395505803
 30
0.0
 10
731.0692994951047
 20
416.7817712369437
 30
0.0
 10
732.7228050819713
 20
416.2140248394112
 30
0.0
 10
734.2912272778399
 20
415.4418095917308
 30
0.0
 10
735.7428378028488
 20
414.4687555422397
 30
0.0
 10
737.052181180732
 20
413.3103081314134
 30
0.0
 10
738.2054375273035
 20
411.9950092564071
 30
0.0
 10
739.1763716765748
 20
410.5383670392073
 30
0.0
 10
739.9471372855521
 20
408.9648188301053
 30
0.0
 10
740.5135176150726
 20
407.3024187467089
 30
0.0
 10
740.8551892746156
 20
405.5734883556757
 30
0.0
 10
740.9665619586602
 20
403.8175735096424
 30
0.0
 10
740.8554361113651
 20
402.0644760730828
 30
0.0
 10
740.5123580140739
 20
400.3444875420403
 30
0.0
 10
739.9450735524887
 20
398.684556469456
 30
0.0
 10
739.1743080951506
 20
397.1102317428829
 30
0.0
 10
738.2037427924544
 20
395.653966343366
 30
0.0
 10
737.0485863081655
 20
394.3396793555353
 30
0.0
 10
735.7374141130283
 20
393.182115322731
 30
0.0
 10
734.2856071112384
 20
392.2084458413999
 30
0.0
 10
732.7175570051776
 20
391.437250139482
 30
0.0
 10
731.0638438453748
 20
390.8710974071351
 30
0.0
 10
729.3479344485297
 20
390.5288697966483
 30
0.0
 10
727.6038104530528
 20
390.4182453835139
 30
0.0
 10
725.8597042541776
 20
390.530592680854
 30
0.0
 10
724.1439326574565
 20
390.8748361359994
 30
0.0
 10
722.4903727155267
 20
391.4429152104861
 30
0.0
 10
720.9227042713604
 20
392.2159353590052
 30
0.0
 10
719.4718424168757
 20
393.191376340134
 30
0.0
 10
718.1620455347631
 20
394.3506503649843
 30
0.0
 10
717.0084519684121
 20
395.666377021765
 30
0.0
 10
716.0398781175835
 20
397.1236366053682
 30
0.0
 10
715.2703172425803
 20
398.6976837169345
 30
0.0
 10
714.708770003841
 20
400.3571974881942
 30
0.0
 10
714.3555317951555
 20
402.0774295326704
 30
0.0
 10
714.3133455757367
 20
403.2421177932649
 30
0.0
 10
714.2921682730918
 20
403.8267863443027
 30
0.0
  0
SPLINE
  5
54C
330
1F
100
AcDbEntity
  8
0
100
AcDbSpline
210
0.0
220
0.0
230
1.0
 70
    11
 71
     3
 72
    82
 73
    78
 74
     0
 42
0.000000001
 43
0.00000001
 40
0.0
 40
0.0
 40
0.0
 40
0.0
 40
0.0099451243059145
 40
0.0200754850495018
 40
0.0303916559530572
 40
0.0408941152076846
 40
0.0515832423285405
 40
0.0624595231550922
 40
0.074469019442295
 40
0.0888805367119656
 40
0.1056935723440341
 40
0.1249073244230591
 40
0.1381007052776129
 40
0.1501832674395608
 40
0.1611548411459837
 40
0.1710154115583198
 40
0.1797649016204109
 40
0.1874033381705003
 40
0.2090260292794617
 40
0.2298638557478461
 40
0.2499204193323734
 40
0.2598546715783052
 40
0.2699840394582053
 40
0.2803090247835339
 40
0.2908301151327201
 40
0.3015477505364179
 40
0.3124623517573387
 40
0.3291167194598208
 40
0.3499357009506965
 40
0.3749163109791023
 40
0.3878591845616759
 40
0.3997894762495857
 40
0.4107071698838294
 40
0.4206121332097615
 40
0.4295044316130849
 40
0.4373840509135867
 40
0.4589899195798508
 40
0.4797989054831296
 40
0.4998146178368741
 40
0.5098499279604577
 40
0.5200555347656424
 40
0.5304318556454248
 40
0.5409794635433207
 40
0.5516987473143371
 40
0.5625901655711087
 40
0.5746018808484592
 40
0.5890186953928689
 40
0.6058400831714015
 40
0.6250652071779081
 40
0.6381842341849915
 40
0.6502203365001635
 40
0.661173394853844
 40
0.6710433988354542
 40
0.6798302848906227
 40
0.6875340519412534
 40
0.7090989927987225
 40
0.7299082179187887
 40
0.7499653614483627
 40
0.7599233557965073
 40
0.7700633665729939
 40
0.7803859049251987
 40
0.790891438577264
 40
0.801580428063187
 40
0.8124533049743377
 40
0.8243894959401394
 40
0.8387905492888929
 40
0.8556558692983464
 40
0.8749846216178793
 40
0.8880985349326915
 40
0.9001373693583368
 40
0.9111009527393072
 40
0.9209892344734576
 40
0.9298022007934664
 40
0.9375398719929021
 40
0.9590755564454864
 40
0.9798944391061826
 40
1.0
 40
1.0
 40
1.0
 40
1.0
 10
714.5107748270635
 20
403.8267863443027
 30
0.0
 10
714.5157111452655
 20
403.5537724347835
 30
0.0
 10
714.5256757248137
 20
403.0026594984073
 30
0.0
 10
714.6073009623841
 20
402.171675165855
 30
0.0
 10
714.7407446533668
 20
401.3324059170382
 30
0.0
 10
714.9332038002568
 20
400.4888466421109
 30
0.0
 10
715.1854512307391
 20
399.6453434404511
 30
0.0
 10
715.508757181073
 20
398.7822675394675
 30
0.0
 10
715.9357577879742
 20
397.8518919273108
 30
0.0
 10
716.5185216173655
 20
396.817957912298
 30
0.0
 10
717.3133804813273
 20
395.6837782877486
 30
0.0
 10
718.2096078023543
 20
394.6710252921406
 30
0.0
 10
719.1070708024706
 20
393.8439242983732
 30
0.0
 10
719.8893925585107
 20
393.2300646677395
 30
0.0
 10
720.6381698650035
 20
392.7255356936645
 30
0.0
 10
721.3392872845842
 20
392.3170424937377
 30
0.0
 10
721.9815548220304
 20
391.991520183605
 30
0.0
 10
722.9345200878448
 20
391.5685926415522
 30
0.0
 10
724.2411108908267
 20
391.1272399080211
 30
0.0
 10
725.929660388001
 20
390.7986254223666
 30
0.0
 10
727.3260263299663
 20
390.7097221036546
 30
0.0
 10
728.4272888823286
 20
390.7435531800633
 30
0.0
 10
729.2582639304106
 20
390.8216942553007
 30
0.0
 10
730.098321694186
 20
390.9555837431353
 30
0.0
 10
730.9434725078736
 20
391.1477433813139
 30
0.0
 10
731.7893230055928
 20
391.4004399097071
 30
0.0
 10
732.7735164378571
 20
391.7689325046372
 30
0.0
 10
733.9734160172083
 20
392.3409650942511
 30
0.0
 10
735.4255201603264
 20
393.2564588892537
 30
0.0
 10
736.6556383193554
 20
394.3062659602194
 30
0.0
 10
737.5829292078389
 20
395.3112090462855
 30
0.0
 10
738.1905262797991
 20
396.0825181166803
 30
0.0
 10
738.6944687042811
 20
396.8263250875979
 30
0.0
 10
739.1066220149115
 20
397.5295543167734
 30
0.0
 10
739.4387669132873
 20
398.1816611896877
 30
0.0
 10
739.8665376067817
 20
399.143528727587
 30
0.0
 10
740.3097152189138
 20
400.4551664143466
 30
0.0
 10
740.6382410377515
 20
402.1413030380564
 30
0.0
 10
740.7278222301144
 20
403.5384705979872
 30
0.0
 10
740.6941442433881
 20
404.6435015496775
 30
0.0
 10
740.6151638966893
 20
405.4807137322463
 30
0.0
 10
740.4800055079382
 20
406.324860843987
 30
0.0
 10
740.2865559178293
 20
407.1719658768362
 30
0.0
 10
740.0329451663159
 20
408.0176747667862
 30
0.0
 10
739.7084744475006
 20
408.8817013909161
 30
0.0
 10
739.2803782872677
 20
409.8122572957289
 30
0.0
 10
738.6964558847877
 20
410.8460353505716
 30
0.0
 10
737.9001163619505
 20
411.9800152139265
 30
0.0
 10
737.0038451690558
 20
412.990729759338
 30
0.0
 10
736.1079282564982
 20
413.8150514632052
 30
0.0
 10
735.3283447480906
 20
414.4261980652665
 30
0.0
 10
734.5807131724389
 20
414.9296992085442
 30
0.0
 10
733.8788333163451
 20
415.3384328441934
 30
0.0
 10
733.2337025068553
 20
415.6651219246443
 30
0.0
 10
732.2793132293178
 20
416.0878985410526
 30
0.0
 10
730.9729898438746
 20
416.5281401147701
 30
0.0
 10
729.2866227742995
 20
416.8555687947187
 30
0.0
 10
727.890343125383
 20
416.9439935993565
 30
0.0
 10
726.7881326457914
 20
416.9096558147561
 30
0.0
 10
725.9563236966251
 20
416.831002403592
 30
0.0
 10
725.1165421562422
 20
416.6966725881588
 30
0.0
 10
724.272734411725
 20
416.5043798850744
 30
0.0
 10
723.4292515376837
 20
416.252063834073
 30
0.0
 10
722.568157977367
 20
415.9295115105201
 30
0.0
 10
721.6398740941563
 20
415.5037395985563
 30
0.0
 10
720.6064100452242
 20
414.9219250123684
 30
0.0
 10
719.4684019869457
 20
414.1250138103045
 30
0.0
 10
718.4539455601442
 20
413.2269986589099
 30
0.0
 10
717.627242807173
 20
412.3294987840729
 30
0.0
 10
717.0155165248917
 20
411.5500786191525
 30
0.0
 10
716.5111406506661
 20
410.80199028311
 30
0.0
 10
716.101323930015
 20
410.0989805237012
 30
0.0
 10
715.7735308488789
 20
409.4520242086981
 30
0.0
 10
715.3500225225127
 20
408.496894186115
 30
0.0
 10
714.9126211752255
 20
407.1902741376415
 30
0.0
 10
714.5722083944906
 20
405.503049158095
 30
0.0
 10
714.5310133366622
 20
404.3790098674924
 30
0.0
 10
714.5107748270635
 20
403.8267863443027
 30
0.0
  0
LINE
  5
54D
330
1F
100
AcDbEntity
  8
0
100
AcDbLine
 10
731.0111421443703
 20
375.82678548
 30
0.0
 11
731.0111421443703
 21
375.7267837873
 31
0.0
  0
LINE
  5
54E
330
1F
100
AcDbEntity
  8
0
100
AcDbLine
 10
731.0111421443703
 20
431.8267834833
 30
0.0
 11
731.0111421443703
 21
431.9267851761
 31
0.0
  0
LINE
  5
54F
330
1F
100
AcDbEntity
  8
0
100
AcDbLine
 10
724.2104070078703
 20
375.82678548
 30
0.0
 11
724.2104070078703
 21
375.7267837873
 31
0.0
  0
LINE
  5
550
330
1F
100
AcDbEntity
  8
0
100
AcDbLine
 10
724.2104070078703
 20
431.8267834833
 30
0.0
 11
724.2104070078703
 21
431.9267851761
 31
0.0
  0
LINE
  5
551
330
1F
100
AcDbEntity
  8
0
  6
Continuous
 62
     8
370
     0
100
AcDbLine
 10
712.6107743293703
 20
368.1767845055
 30
0.0
 11
713.5520862698703
 21
368.1767845055
 31
0.0
  0
LINE
  5
552
330
1F
100
AcDbEntity
  8
0
  6
Continuous
 62
     8
370
     0
100
AcDbLine
 10
713.5520862698703
 20
439.4767863205
 30
0.0
 11
712.6107743293703
 21
439.4767863205
 31
0.0
  0
LINE
  5
553
330
1F
100
AcDbEntity
  8
0
  6
Continuous
 62
     8
370
     0
100
AcDbLine
 10
711.6107741654704
 20
381.3920022448
 30
0.0
 11
712.6107743293703
 21
381.3920022448
 31
0.0
  0
LINE
  5
554
330
1F
100
AcDbEntity
  8
0
  6
Continuous
 62
     8
370
     0
100
AcDbLine
 10
712.6107743293703
 20
426.2615648558
 30
0.0
 11
711.6107741654704
 21
426.2615648558
 31
0.0
  0
LINE
  5
555
330
1F
100
AcDbEntity
  8
0
  6
Continuous
 62
     8
370
     0
100
AcDbLine
 10
701.6107743889703
 20
392.3267853906
 30
0.0
 11
703.6107747167704
 21
392.3267853906
 31
0.0
  0
LINE
  5
556
330
1F
100
AcDbEntity
  8
0
  6
Continuous
 62
     8
370
     0
100
AcDbLine
 10
703.6107747167704
 20
415.3267835727
 30
0.0
 11
701.6107743889703
 21
415.3267835727
 31
0.0
  0
CIRCLE
  5
557
330
1F
100
AcDbEntity
  8
0
  6
Continuous
 62
     8
370
     0
100
AcDbCircle
 10
727.6107745975703
 20
403.8267845562
 30
0.0
 40
12.70000000000009
  0
LINE
  5
558
330
1F
100
AcDbEntity
  8
0
100
AcDbLine
 10
794.4928702909182
 20
290.1319625926739
 30
0.0
 11
793.4181221772182
 21
289.6501661938739
 31
0.0
  0
LINE
  5
559
330
1F
100
AcDbEntity
  8
0
100
AcDbLine
 10
815.3341235100181
 20
210.3859954155739
 30
0.0
 11
816.5388735449181
 21
210.9260700813739
 31
0.0
  0
SPLINE
  5
55A
330
1F
100
AcDbEntity
  8
0
100
AcDbSpline
210
0.0
220
0.0
230
1.0
 70
     8
 71
     3
 72
    10
 73
     6
 74
     0
 42
0.000000001
 43
0.00000001
 40
0.0
 40
0.0
 40
0.0
 40
0.0
 40
0.2726461553914084
 40
0.6750064569290631
 40
0.9999999999999999
 40
0.9999999999999999
 40
0.9999999999999999
 40
0.9999999999999999
 10
817.7323822530719
 20
205.5826804860663
 30
0.0
 10
817.8912811435849
 20
205.5616109723553
 30
0.0
 10
818.2846766673223
 20
205.5094479122204
 30
0.0
 10
818.8795722636557
 20
205.5833189434171
 30
0.0
 10
819.2774720533678
 20
205.741102175226
 30
0.0
 10
819.4552601593966
 20
205.8116022927724
 30
0.0
  0
LINE
  5
55B
330
1F
100
AcDbEntity
  8
0
100
AcDbLine
 10
772.1698796778182
 20
300.3519513005739
 30
0.0
 11
772.1698796778182
 21
284.0278019806739
 31
0.0
  0
LINE
  5
55C
330
1F
100
AcDbEntity
  8
0
100
AcDbLine
 10
773.2454267049181
 20
212.2179786914739
 30
0.0
 11
817.7322890940181
 21
205.5703404161739
 31
0.0
  0
LINE
  5
55D
330
1F
100
AcDbEntity
  8
0
100
AcDbLine
 10
819.4675520194181
 20
205.8087721428739
 30
0.0
 11
824.9537255747182
 21
208.2681564657739
 31
0.0
  0
LINE
  5
55E
330
1F
100
AcDbEntity
  8
0
100
AcDbLine
 10
772.1698796778182
 20
228.7515935662739
 30
0.0
 11
772.1698796778182
 21
213.4186234801739
 31
0.0
  0
LINE
  5
55F
330
1F
100
AcDbEntity
  8
0
100
AcDbLine
 10
700.6985568118182
 20
239.4314988711739
 30
0.0
 11
784.5603707466182
 21
226.9000913002739
 31
0.0
  0
ARC
  5
560
330
1F
100
AcDbEntity
  8
0
100
AcDbCircle
 10
813.0859826172182
 20
283.2295219432739
 30
0.0
 40
3.848202060993009
100
AcDbArc
 50
358.9119591126006
 51
77.75126364349937
  0
LINE
  5
561
330
1F
100
AcDbEntity
  8
0
100
AcDbLine
 10
794.8498434536182
 20
213.0460321545739
 30
0.0
 11
813.9024022336182
 21
210.1990226738739
 31
0.0
  0
ARC
  5
562
330
1F
100
AcDbEntity
  8
0
100
AcDbCircle
 10
795.6662718900182
 20
216.8066399014739
 30
0.0
 40
3.848210755402709
100
AcDbArc
 50
178.9120588480999
 51
257.7511573668992
  0
LINE
  5
563
330
1F
100
AcDbEntity
  8
0
100
AcDbLine
 10
791.8187548500182
 20
286.9093254248739
 30
0.0
 11
791.8187548500182
 21
216.8797059335739
 31
0.0
  0
ARC
  5
564
330
1F
100
AcDbEntity
  8
0
100
AcDbCircle
 10
794.5279202972182
 20
287.1375012664739
 30
0.0
 40
2.718757369622173
100
AcDbArc
 50
83.19975603660079
 51
184.8142983546006
  0
LINE
  5
565
330
1F
100
AcDbEntity
  8
0
100
AcDbLine
 10
813.9024022336182
 20
286.990122708074
 30
0.0
 11
794.8498434536182
 21
289.8371321887739
 31
0.0
  0
LINE
  5
566
330
1F
100
AcDbEntity
  8
0
100
AcDbLine
 10
816.9334908371181
 20
213.1268298875739
 30
0.0
 11
816.9334908371181
 21
283.1564493788739
 31
0.0
  0
ARC
  5
567
330
1F
100
AcDbEntity
  8
0
100
AcDbCircle
 10
814.2243199211182
 20
212.8986592928739
 30
0.0
 40
2.718762378840087
100
AcDbArc
 50
263.1998846936999
 51
4.814178494500121
  0
LINE
  5
568
330
1F
100
AcDbEntity
  8
0
100
AcDbLine
 10
816.9334908371181
 20
212.4023858488739
 30
0.0
 11
816.9334908371181
 21
283.8808988150739
 31
0.0
  0
SPLINE
  5
569
330
1F
100
AcDbEntity
  8
0
100
AcDbSpline
210
0.0
220
0.0
230
1.0
 70
     8
 71
     3
 72
    14
 73
    10
 74
     0
 42
0.000000001
 43
0.00000001
 40
0.0
 40
0.0
 40
0.0
 40
0.0
 40
0.0020249792419287
 40
0.2060700831063416
 40
0.4100196175830959
 40
0.5871810082902165
 40
0.7640523225747239
 40
0.882128053887708
 40
1.0
 40
1.0
 40
1.0
 40
1.0
 10
779.0448768406222
 20
293.4062697507838
 30
0.0
 10
779.0389207694934
 20
293.4107446645413
 30
0.0
 10
778.4328068661509
 20
293.8661299992726
 30
0.0
 10
777.2791110512485
 20
294.7979412064369
 30
0.0
 10
775.7998227990877
 20
296.1371771631763
 30
0.0
 10
774.5638181995834
 20
297.372060680787
 30
0.0
 10
773.6802868028939
 20
298.3133717735543
 30
0.0
 10
773.045121556401
 20
299.0181947928629
 30
0.0
 10
772.7805976157842
 20
299.2869561887629
 30
0.0
 10
772.6484498785651
 20
299.4212208237035
 30
0.0
  0
ARC
  5
56A
330
1F
100
AcDbEntity
  8
0
100
AcDbCircle
 10
813.6356168883182
 20
283.9435233490739
 30
0.0
 40
3.298468495329438
100
AcDbArc
 50
358.9121202459992
 51
77.75122460979983
  0
LINE
  5
56B
330
1F
100
AcDbEntity
  8
0
100
AcDbLine
 10
814.3354093606182
 20
287.1669043240739
 30
0.0
 11
794.4168363266182
 21
290.1433216612739
 31
0.0
  0
ARC
  5
56C
330
1F
100
AcDbEntity
  8
0
100
AcDbCircle
 10
794.1409030086181
 20
287.8293464813739
 30
0.0
 40
2.330369140071824
100
AcDbArc
 50
83.19979289750111
 51
184.8140972837017
  0
LINE
  5
56D
330
1F
100
AcDbEntity
  8
0
100
AcDbLine
 10
791.8187548500182
 20
287.6337748610739
 30
0.0
 11
791.8187548500182
 21
279.0370334179739
 31
0.0
  0
LINE
  5
56E
330
1F
100
AcDbEntity
  8
0
100
AcDbLine
 10
779.0448768406181
 20
280.9458243692739
 30
0.0
 11
791.8187548500182
 21
279.0370334179739
 31
0.0
  0
ARC
  5
56F
330
1F
100
AcDbEntity
  8
0
100
AcDbCircle
 10
822.3843867136181
 20
290.6899452111739
 30
0.0
 40
4.397977859073412
100
AcDbArc
 50
358.9123018448993
 51
77.75101248600035
  0
LINE
  5
570
330
1F
100
AcDbEntity
  8
0
100
AcDbLine
 10
826.7815721050182
 20
290.6064593921739
 30
0.0
 11
826.7815721050182
 21
211.4005389988739
 31
0.0
  0
LWPOLYLINE
  5
571
330
1F
100
AcDbEntity
  8
0
100
AcDbPolyline
 90
        3
 70
   128
 43
0.0
 10
794.0073151976181
 20
290.1682900994739
 10
793.7566139561181
 20
289.8506954000739
 10
793.7133700245182
 20
289.7825202471739
  0
LINE
  5
572
330
1F
100
AcDbEntity
  8
0
100
AcDbLine
 10
815.8354091408181
 20
210.5652687550739
 30
0.0
 11
816.2449295607182
 21
210.5402977091739
 31
0.0
  0
LINE
  5
573
330
1F
100
AcDbEntity
  8
0
100
AcDbLine
 10
815.7593870575182
 20
210.5766286775739
 30
0.0
 11
815.8354091408181
 21
210.5652687550739
 31
0.0
  0
LWPOLYLINE
  5
574
330
1F
100
AcDbEntity
  8
0
100
AcDbPolyline
 90
       22
 70
   128
 43
0.0
 10
792.7948767661181
 20
303.4339300269739
 10
791.4167129636181
 20
303.6139679436739
 10
789.9692470247181
 20
303.7528879910739
 10
788.4707384408182
 20
303.8489369482739
 10
786.9400802920181
 20
303.9009040235739
 10
785.3965555171181
 20
303.9081350077739
 10
783.8596341603181
 20
303.870537800274
 10
782.3486818792181
 20
303.7885867209739
 10
780.8827391962182
 20
303.6633161127739
 10
779.4803012481182
 20
303.4963025963739
 10
778.1590336428181
 20
303.2896533938739
 10
776.9355947978181
 20
303.0459729651739
 10
775.8254123447182
 20
302.7683321944739
 10
774.8424731597181
 20
302.4602321128739
 10
773.9991727353181
 20
302.1255556580739
 10
773.3061366779182
 20
301.7685223636739
 10
772.7721042834182
 20
301.3936323114739
 10
772.4038128410182
 20
301.0056104086739
 10
772.2058894951182
 20
300.6093501982739
 10
772.1808434729182
 20
300.2098448103739
 10
772.3289901296182
 20
299.8121297727739
 10
772.6484498785182
 20
299.4212208236739
  0
LINE
  5
575
330
1F
100
AcDbEntity
  8
0
100
AcDbLine
 10
809.0328505061182
 20
301.0075018648739
 30
0.0
 11
792.7948767661181
 21
303.4339300269739
 31
0.0
  0
LINE
  5
576
330
1F
100
AcDbEntity
  8
0
100
AcDbLine
 10
802.5328503720182
 20
298.0936315201739
 30
0.0
 11
809.0328505061182
 21
301.0075018648739
 31
0.0
  0
LINE
  5
577
330
1F
100
AcDbEntity
  8
0
100
AcDbLine
 10
823.3174634697182
 20
294.9878024698739
 30
0.0
 11
802.5328503720182
 21
298.0936315201739
 31
0.0
  0
LINE
  5
578
330
1F
100
AcDbEntity
  8
0
100
AcDbLine
 10
791.8187548500182
 20
224.7520006390739
 30
0.0
 11
779.0448768406181
 21
226.6607915903739
 31
0.0
  0
LINE
  5
579
330
1F
100
AcDbEntity
  8
0
100
AcDbLine
 10
791.8187548500182
 20
224.7520006390739
 30
0.0
 11
791.8187548500182
 21
216.1552618948739
 31
0.0
  0
ARC
  5
57A
330
1F
100
AcDbEntity
  8
0
100
AcDbCircle
 10
795.1166253167181
 20
216.0926328426739
 30
0.0
 40
3.298465099516077
100
AcDbArc
 50
178.9120406302
 51
257.751273700699
  0
LINE
  5
57B
330
1F
100
AcDbEntity
  8
0
100
AcDbLine
 10
794.4168363266182
 20
212.8692545865739
 30
0.0
 11
814.3354093606182
 21
209.8928372494739
 31
0.0
  0
ARC
  5
57C
330
1F
100
AcDbEntity
  8
0
100
AcDbCircle
 10
814.6113448759181
 20
212.2068102946739
 30
0.0
 40
2.33036728062387
100
AcDbArc
 50
263.1997330380003
 51
4.814198195800207
  0
LWPOLYLINE
  5
57D
330
1F
100
AcDbEntity
  8
0
100
AcDbPolyline
 90
       11
 70
   128
 43
0.0
 10
772.1698796778182
 20
284.0278019806739
 10
772.1872064298182
 20
283.8492095420739
 10
772.3476594160181
 20
283.4573776679739
 10
772.6744979466182
 20
283.0725379364739
 10
773.1637152529181
 20
282.6994081357739
 10
773.8093087422181
 20
282.3425634082739
 10
774.6033589523181
 20
282.0063790833739
 10
775.5361445606181
 20
281.6949742475739
 10
776.5962243331182
 20
281.4121674898739
 10
777.7705998287181
 20
281.1614264260739
 10
779.0448768406181
 20
280.9458243692739
  0
SPLINE
  5
57E
330
1F
100
AcDbEntity
  8
0
100
AcDbSpline
210
0.0
220
0.0
230
1.0
 70
     8
 71
     3
 72
    14
 73
    10
 74
     0
 42
0.000000001
 43
0.00000001
 40
0.0
 40
0.0
 40
0.0
 40
0.0
 40
0.1163545795585166
 40
0.2359508553392611
 40
0.4105768359246088
 40
0.5899819142411983
 40
0.7919483299546793
 40
0.9979749531348077
 40
1.0
 40
1.0
 40
1.0
 40
1.0
 10
772.6484498785651
 20
212.4878930032674
 30
0.0
 10
772.7784520923271
 20
212.3974830090147
 30
0.0
 10
773.0420784459218
 20
212.2141441532853
 30
0.0
 10
773.6745172859419
 20
212.1774105065183
 30
0.0
 10
774.558069043402
 20
212.3448032797914
 30
0.0
 10
775.7901729859168
 20
212.7734471257023
 30
0.0
 10
777.2733440594516
 20
213.399158073439
 30
0.0
 10
778.4269996997764
 20
213.9209206392775
 30
0.0
 10
779.0389207775918
 20
214.197655787927
 30
0.0
 10
779.0448768406222
 20
214.2003493574866
 30
0.0
  0
ARC
  5
57F
330
1F
100
AcDbEntity
  8
0
100
AcDbCircle
 10
823.4773819342182
 20
211.2291457890739
 30
0.0
 40
3.308632393847697
100
AcDbArc
 50
296.500756629701
 51
2.969355198699748
  0
LINE
  5
580
330
1F
100
AcDbEntity
  8
0
100
AcDbLine
 10
809.0328505061182
 20
301.0075018648739
 30
0.0
 11
809.0328505061182
 21
297.1223373424739
 31
0.0
  0
ARC
  5
581
330
1F
100
AcDbEntity
  8
0
100
AcDbCircle
 10
779.8711360268182
 20
239.9270955248739
 30
0.0
 40
13.29200979251346
100
AcDbArc
 50
238.0160306253995
 51
266.4360765048
  0
ARC
  5
582
330
1F
100
AcDbEntity
  8
0
100
AcDbCircle
 10
773.4335404885182
 20
213.4799796733739
 30
0.0
 40
1.265149487971196
100
AcDbArc
 50
182.7797746112004
 51
231.6435694768988
  0
LINE
  5
583
330
1F
100
AcDbEntity
  8
0
100
AcDbLine
 10
721.9711635604182
 20
302.0445216856739
 30
0.0
 11
772.1698802078181
 21
294.5433653389739
 31
0.0
  0
LINE
  5
584
330
1F
100
AcDbEntity
  8
0
100
AcDbLine
 10
719.2211635753181
 20
300.8117304180739
 30
0.0
 11
772.1698768181182
 21
292.8996441553739
 31
0.0
  0
LINE
  5
585
330
1F
100
AcDbEntity
  8
0
100
AcDbLine
 10
719.2211635753181
 20
300.8117304180739
 30
0.0
 11
721.9711635604182
 21
302.0445216856739
 31
0.0
  0
LINE
  5
586
330
1F
100
AcDbEntity
  8
0
100
AcDbLine
 10
718.5722594096181
 20
297.6212537566739
 30
0.0
 11
719.2211635753181
 21
300.8117304180739
 31
0.0
  0
SPLINE
  5
587
330
1F
100
AcDbEntity
  8
0
100
AcDbSpline
210
0.0
220
0.0
230
1.0
 70
     8
 71
     3
 72
    11
 73
     7
 74
     0
 42
0.000000001
 43
0.00000001
 40
0.0
 40
0.0
 40
0.0
 40
0.0
 40
0.4310335059478601
 40
0.7083067863518965
 40
0.8903853737780765
 40
1.0
 40
1.0
 40
1.0
 40
1.0
 10
785.0025950869298
 20
280.0051056171949
 30
0.0
 10
784.7462594958282
 20
279.9697069032376
 30
0.0
 10
784.3250295073117
 20
279.9115370649811
 30
0.0
 10
783.8465890410703
 20
279.6542658103782
 30
0.0
 10
783.5871647589486
 20
279.422795182399
 30
0.0
 10
783.5055572586101
 20
279.2698721943723
 30
0.0
 10
783.4748901905126
 20
279.2124056665651
 30
0.0
  0
LINE
  5
588
330
1F
100
AcDbEntity
  8
0
100
AcDbLine
 10
785.2510078872182
 20
280.0184440322739
 30
0.0
 11
785.0025950869182
 21
280.0051056171739
 31
0.0
  0
ARC
  5
589
330
1F
100
AcDbEntity
  8
0
100
AcDbCircle
 10
782.4683020071182
 20
280.8155606014739
 30
0.0
 40
53.99587957266918
100
AcDbArc
 50
272.6901619727
 51
279.9721635632999
  0
SPLINE
  5
58A
330
1F
100
AcDbEntity
  8
0
100
AcDbSpline
210
0.0
220
0.0
230
1.0
 70
     8
 71
     3
 72
    11
 73
     7
 74
     0
 42
0.000000001
 43
0.00000001
 40
0.0
 40
0.0
 40
0.0
 40
0.0
 40
0.181314831542905
 40
0.4281013079884197
 40
0.8057867480623218
 40
1.0
 40
1.0
 40
1.0
 40
1.0
 10
783.4748901905126
 20
227.5486695043066
 30
0.0
 10
783.5310636023938
 20
227.4590680532703
 30
0.0
 10
783.6636942917635
 20
227.2475106309687
 30
0.0
 10
784.080907222492
 20
227.0038207731828
 30
0.0
 10
784.5502418572394
 20
226.8766735619447
 30
0.0
 10
784.887921255701
 20
226.8785500235934
 30
0.0
 10
785.0025950869298
 20
226.8791872583415
 30
0.0
  0
SPLINE
  5
58B
330
1F
100
AcDbEntity
  8
0
100
AcDbSpline
210
0.0
220
0.0
230
1.0
 70
     8
 71
     3
 72
    21
 73
    17
 74
     0
 42
0.000000001
 43
0.00000001
 40
0.0
 40
0.0
 40
0.0
 40
0.0
 40
0.1169499071806939
 40
0.2339050874071026
 40
0.2934117909209216
 40
0.3530692795606846
 40
0.4124514312648713
 40
0.4715814830224462
 40
0.5115237954934347
 40
0.5514859793404119
 40
0.5932831264618618
 40
0.6351119015376726
 40
0.7259814867648441
 40
0.816879238988374
 40
0.9084409172716649
 40
1.0
 40
1.0
 40
1.0
 40
1.0
 10
783.4748901905126
 20
279.2124056665651
 30
0.0
 10
782.6268574890672
 20
277.2346197951852
 30
0.0
 10
780.9307538500175
 20
273.2789588778753
 30
0.0
 10
778.9448212043101
 20
268.3517206063569
 30
0.0
 10
777.4090990059148
 20
264.4146590263855
 30
0.0
 10
776.3311496103292
 20
261.4270749025652
 30
0.0
 10
775.4735255065898
 20
258.3728148908798
 30
0.0
 10
774.994045888997
 20
255.5692080964937
 30
0.0
 10
774.9232745143569
 20
253.0416329290957
 30
0.0
 10
775.1444119006773
 20
250.8122552316881
 30
0.0
 10
775.6007381033755
 20
248.5680964602879
 30
0.0
 10
776.4514981118778
 20
245.4411090582392
 30
0.0
 10
777.7668897749306
 20
241.5003590352928
 30
0.0
 10
779.5811765286484
 20
236.7805061181931
 30
0.0
 10
781.4842160080293
 20
232.117546687859
 30
0.0
 10
782.8113383998989
 20
229.0716141744677
 30
0.0
 10
783.4748901905126
 20
227.5486695043066
 30
0.0
  0
SPLINE
  5
58C
330
1F
100
AcDbEntity
  8
0
100
AcDbSpline
210
0.0
220
0.0
230
1.0
 70
     8
 71
     3
 72
    15
 73
    11
 74
     0
 42
0.000000001
 43
0.00000001
 40
0.0
 40
0.0
 40
0.0
 40
0.0
 40
0.1236775892931224
 40
0.2473476725484761
 40
0.3743874028575426
 40
0.5014238684459523
 40
0.6243761229037887
 40
0.7473311518751626
 40
0.873661502846647
 40
1.0
 40
1.0
 40
1.0
 40
1.0
 10
700.2192784907458
 20
239.9894927326997
 30
0.0
 10
699.5769588586722
 20
242.0064155940857
 30
0.0
 10
698.2923585771368
 20
246.0401389090773
 30
0.0
 10
696.9699021102203
 20
252.3690838746009
 30
0.0
 10
696.1370298873547
 20
258.8769161427316
 30
0.0
 10
695.8645822019716
 20
265.4681960201999
 30
0.0
 10
696.1374545741864
 20
272.0315298934842
 30
0.0
 10
696.9441675465288
 20
278.5786161358355
 30
0.0
 10
698.2538646450832
 20
285.1481424835973
 30
0.0
 10
699.5641264610057
 20
289.4848201522179
 30
0.0
 10
700.2192784907458
 20
291.6532288949583
 30
0.0
  0
LINE
  5
58D
330
1F
100
AcDbEntity
  8
0
100
AcDbLine
 10
772.1698764910182
 20
289.6122008241739
 30
0.0
 11
713.7211636051181
 21
298.3461478829739
 31
0.0
  0
ARC
  5
58E
330
1F
100
AcDbEntity
  8
0
100
AcDbCircle
 10
780.6872208421182
 20
296.2270410169739
 30
0.0
 40
15.41293114996364
100
AcDbArc
 50
250.8547156449995
 51
259.7878717038997
  0
LINE
  5
58F
330
1F
100
AcDbEntity
  8
0
100
AcDbLine
 10
781.0628763377182
 20
280.6442733691739
 30
0.0
 11
780.0868789028182
 21
280.7396573769739
 31
0.0
  0
LINE
  5
590
330
1F
100
AcDbEntity
  8
0
100
AcDbLine
 10
713.7211636051181
 20
298.3461478829739
 30
0.0
 11
700.8563597097182
 21
292.5790140695739
 31
0.0
  0
SPLINE
  5
591
330
1F
100
AcDbEntity
  8
0
100
AcDbSpline
210
0.0
220
0.0
230
1.0
 70
     8
 71
     3
 72
     9
 73
     5
 74
     0
 42
0.000000001
 43
0.00000001
 40
0.0
 40
0.0
 40
0.0
 40
0.0
 40
0.8151043073005348
 40
1.0
 40
1.0
 40
1.0
 40
1.0
 10
777.95461496704
 20
281.0582799678318
 30
0.0
 10
778.5131371494239
 20
280.9606830557191
 30
0.0
 10
779.1983527437733
 20
280.8409475675876
 30
0.0
 10
779.9482298549366
 20
280.755463088896
 30
0.0
 10
780.0868789028445
 20
280.7396573769933
 30
0.0
  0
SPLINE
  5
592
330
1F
100
AcDbEntity
  8
0
100
AcDbSpline
210
0.0
220
0.0
230
1.0
 70
     8
 71
     3
 72
    11
 73
     7
 74
     0
 42
0.000000001
 43
0.00000001
 40
0.0
 40
0.0
 40
0.0
 40
0.0
 40
0.2605112438886217
 40
0.521190289520231
 40
0.7773449785853862
 40
1.0
 40
1.0
 40
1.0
 40
1.0
 10
700.2192784907458
 20
291.6532288949583
 30
0.0
 10
700.2599588716662
 20
291.7626642319626
 30
0.0
 10
700.3413458367478
 20
291.9816053959814
 30
0.0
 10
700.5142567224198
 20
292.2697192907528
 30
0.0
 10
700.6941800024862
 20
292.4832537086045
 30
0.0
 10
700.804881531948
 20
292.5486183501049
 30
0.0
 10
700.8563597097574
 20
292.5790140696037
 30
0.0
  0
SPLINE
  5
593
330
1F
100
AcDbEntity
  8
0
100
AcDbSpline
210
0.0
220
0.0
230
1.0
 70
     8
 71
     3
 72
    11
 73
     7
 74
     0
 42
0.000000001
 43
0.00000001
 40
0.0
 40
0.0
 40
0.0
 40
0.0
 40
0.0290889013598204
 40
0.3472227082508219
 40
0.6691704673975967
 40
1.0
 40
1.0
 40
1.0
 40
1.0
 10
700.6989307378806
 20
239.4359971168074
 30
0.0
 10
700.6936578763647
 20
239.4352957422036
 30
0.0
 10
700.630717814341
 20
239.4269237110145
 30
0.0
 10
700.5040006969466
 20
239.5163399671417
 30
0.0
 10
700.3382487989122
 20
239.6990678617479
 30
0.0
 10
700.2592933528531
 20
239.8918102828281
 30
0.0
 10
700.2192784907458
 20
239.9894927326997
 30
0.0
  0
LINE
  5
594
330
1F
100
AcDbEntity
  8
0
  6
Continuous
 62
     8
370
     0
100
AcDbLine
 10
813.9024022336182
 20
286.990122708074
 30
0.0
 11
814.3064085695181
 21
287.1712337937739
 31
0.0
  0
LINE
  5
595
330
1F
100
AcDbEntity
  8
0
  6
Continuous
 62
     8
370
     0
100
AcDbLine
 10
794.8498434536182
 20
289.8371321887739
 30
0.0
 11
795.2538497895182
 21
290.0182432744739
 31
0.0
  0
ELLIPSE
  5
596
330
1F
100
AcDbEntity
  8
0
  6
Continuous
 62
     8
370
     0
100
AcDbEllipse
 10
818.0674651586181
 20
288.7705848434739
 30
0.0
 11
-1.151216170257953
 21
3.848487701478462
 31
0.0
210
0.0
220
0.0
230
1.0
 40
0.709735889
 41
4.313509313998347
 42
5.884305640793261
  0
ARC
  5
597
330
1F
100
AcDbEntity
  8
0
  6
Continuous
 62
     8
370
     0
100
AcDbCircle
 10
818.3918477975182
 20
296.404125876274
 30
0.0
 40
8.78146603578972
100
AcDbArc
 50
260.4404763984003
 51
287.4937508297003
  0
ELLIPSE
  5
598
330
1F
100
AcDbEntity
  8
0
  6
Continuous
 62
     8
370
     0
100
AcDbEllipse
 10
818.0674651586181
 20
288.7705848434739
 30
0.0
 11
0.3144699853138492
 21
3.996686092407062
 31
0.0
210
0.0
220
0.0
230
1.0
 40
0.2726004718
 41
0.2810000410653502
 42
1.851796367860245
  0
ARC
  5
599
330
1F
100
AcDbEntity
  8
0
  6
Continuous
 62
     8
370
     0
100
AcDbCircle
 10
818.3918477975182
 20
217.1982054829739
 30
0.0
 40
8.781466035789961
100
AcDbArc
 50
260.4404763984999
 51
287.4937508296999
  0
LINE
  5
59A
330
1F
100
AcDbEntity
  8
0
  6
Continuous
 62
     8
370
     0
100
AcDbLine
 10
816.9334908371181
 20
212.4023858488739
 30
0.0
 11
816.9334908371181
 21
208.5386823601739
 31
0.0
  0
LINE
  5
59B
330
1F
100
AcDbEntity
  8
0
  6
Continuous
 62
     8
370
     0
100
AcDbLine
 10
816.9334908371181
 20
287.7446027534739
 30
0.0
 11
816.9334908371181
 21
283.8808988150739
 31
0.0
  0
LINE
  5
59C
330
1F
100
AcDbEntity
  8
0
  6
Continuous
 62
     8
370
     0
100
AcDbLine
 10
821.0315720938181
 20
288.0288049046739
 30
0.0
 11
821.0315720938181
 21
208.8228845113739
 31
0.0
  0
LINE
  5
59D
330
1F
100
AcDbEntity
  8
0
  6
Continuous
 62
     8
370
     0
100
AcDbLine
 10
772.6484498785182
 20
299.4212208236739
 30
0.0
 11
818.0674635405181
 21
292.6342918871739
 31
0.0
  0
LINE
  5
59E
330
1F
100
AcDbEntity
  8
0
  6
Continuous
 62
     8
370
     0
100
AcDbLine
 10
816.9334908371181
 20
287.7446027534739
 30
0.0
 11
779.0448768406181
 21
293.4062697507739
 31
0.0
  0
LINE
  5
59F
330
1F
100
AcDbEntity
  8
0
  6
Continuous
 62
     8
370
     0
100
AcDbLine
 10
779.0448768406181
 20
293.4062697507739
 30
0.0
 11
779.0448768406181
 21
280.9458243692739
 31
0.0
  0
LINE
  5
5A0
330
1F
100
AcDbEntity
  8
0
  6
Continuous
 62
     8
370
     0
100
AcDbLine
 10
818.0674635405181
 20
292.6342918871739
 30
0.0
 11
823.3174634697182
 21
294.9878024698739
 31
0.0
  0
LINE
  5
5A1
330
1F
100
AcDbEntity
  8
0
  6
Continuous
 62
     8
370
     0
100
AcDbLine
 10
826.7815721050182
 20
290.6064593921739
 30
0.0
 11
821.0315720938181
 21
288.0288049046739
 31
0.0
  0
LINE
  5
5A2
330
1F
100
AcDbEntity
  8
0
  6
Continuous
 62
     8
370
     0
100
AcDbLine
 10
821.0315720938181
 20
208.8228845113739
 30
0.0
 11
826.7815721050182
 21
211.4005389988739
 31
0.0
  0
LINE
  5
5A3
330
1F
100
AcDbEntity
  8
0
  6
Continuous
 62
     8
370
     0
100
AcDbLine
 10
791.8989156467181
 20
287.669709963074
 30
0.0
 11
791.8187548500182
 21
287.6337748610739
 31
0.0
  0
LINE
  5
5A4
330
1F
100
AcDbEntity
  8
0
  6
Continuous
 62
     8
370
     0
100
AcDbLine
 10
779.0448768406181
 20
214.2003493574739
 30
0.0
 11
816.9334908371181
 21
208.5386823601739
 31
0.0
  0
LINE
  5
5A5
330
1F
100
AcDbEntity
  8
0
  6
Continuous
 62
     8
370
     0
100
AcDbLine
 10
779.0448768406181
 20
226.6607915903739
 30
0.0
 11
779.0448768406181
 21
214.2003493574739
 31
0.0
  0
ELLIPSE
  5
5A6
330
1F
100
AcDbEntity
  8
0
  6
Continuous
 62
     8
370
     0
100
AcDbEllipse
 10
818.0674651586181
 20
209.5646670877739
 30
0.0
 11
-1.151216170257953
 21
3.84848770147849
 31
0.0
210
0.0
220
0.0
230
1.0
 40
0.709735889
 41
3.23286627962921
 42
4.313509313998358
  0
ELLIPSE
  5
5A7
330
1F
100
AcDbEntity
  8
0
  6
Continuous
 62
     8
370
     0
100
AcDbEllipse
 10
818.0674651586181
 20
209.5646670877739
 30
0.0
 11
0.3144699853138492
 21
3.996686092407062
 31
0.0
210
0.0
220
0.0
230
1.0
 40
0.2726004718
 41
1.851796367860231
 42
3.122467830062999
  0
LINE
  5
5A8
330
1F
100
AcDbEntity
  8
0
  6
Continuous
 62
     8
370
     0
100
AcDbLine
 10
815.8354091408181
 20
210.5652687550739
 30
0.0
 11
814.3354093606182
 21
209.8928372494739
 31
0.0
  0
LINE
  5
5A9
330
1F
100
AcDbEntity
  8
0
  6
Continuous
 62
     8
370
     0
100
AcDbLine
 10
794.8210969135182
 20
213.0504796498739
 30
0.0
 11
794.4168363266182
 21
212.8692545865739
 31
0.0
  0
LINE
  5
5AA
330
1F
100
AcDbEntity
  8
0
  6
Continuous
 62
     8
370
     0
100
AcDbLine
 10
791.8819381018182
 20
216.1835861717739
 30
0.0
 11
791.8187548500182
 21
216.1552618948739
 31
0.0
  0
LINE
  5
5AB
330
1F
100
AcDbEntity
  8
0
  6
Continuous
 62
     8
370
     0
100
AcDbLine
 10
783.4748901905182
 20
279.2124056665739
 30
0.0
 11
700.2192784907181
 21
291.6532288949739
 31
0.0
  0
LINE
  5
5AC
330
1F
100
AcDbEntity
  8
0
  6
Continuous
 62
     8
370
     0
100
AcDbLine
 10
700.2192784907181
 20
239.9894927326739
 30
0.0
 11
783.4748901905182
 21
227.5486695042739
 31
0.0
  0
LINE
  5
5AD
330
1F
100
AcDbEntity
  8
0
  6
Continuous
 62
     8
370
     0
100
AcDbLine
 10
780.0868789028182
 20
280.7396573769739
 30
0.0
 11
785.0025950869182
 21
280.0051056171739
 31
0.0
  0
LINE
  5
5AE
330
1F
100
AcDbEntity
  8
0
  6
Continuous
 62
     8
370
     0
100
AcDbLine
 10
700.8563597097182
 20
292.5790140695739
 30
0.0
 11
777.9546149670182
 21
281.0582799678739
 31
0.0
  0
HATCH
  5
7F2
330
1F
100
AcDbEntity
  8
TRATTEGGIO
 62
     4
100
AcDbHatch
 10
0.0
 20
0.0
 30
0.0
210
0.0
220
0.0
230
1.0
  2
ANSI38
 70
     0
 71
     0
 91
        1
 92
        0
 93
        2
 72
     4
 94
        3
 73
     1
 74
     0
 95
        8
 96
        4
 40
0.9006298123297564
 40
0.9006298123297564
 40
0.9006298123297564
 40
0.9006298123297564
 40
0.9522543839155664
 40
0.9522543839155664
 40
0.9522543839155664
 40
0.9522543839155664
 10
875.8589757229629
 20
538.8098833944739
 42
1.0
 10
876.1975845014309
 20
539.8682693196137
 42
1.0
 10
876.6086086468127
 20
540.882900138846
 42
1.0
 10
877.0703013764487
 20
541.809883394478
 42
1.0
 97
        0
 72
     4
 94
        3
 73
     1
 74
     0
 95
        8
 96
        4
 40
0.0477456160845579
 40
0.0477456160845579
 40
0.0477456160845579
 40
0.0477456160845579
 40
0.0993701876702432
 40
0.0993701876702432
 40
0.0993701876702432
 40
0.0993701876702432
 10
877.0703013764454
 20
541.8098833944712
 42
1.0
 10
876.6086086468108
 20
540.8829001388411
 42
1.0
 10
876.19758450143
 20
539.868269319611
 42
1.0
 10
875.8589757229629
 20
538.8098833944739
 42
1.0
 97
        0
 97
        0
 75
     0
 76
     1
 52
0.0
 41
1.0
 77
     0
 78
     2
 53
45.0
 43
0.0
 44
0.0
 45
-2.245064030267288
 46
2.245064030267288
 79
     0
 53
135.0
 43
0.0
 44
0.0
 45
-6.735192090801864
 46
2.245064030267289
 79
     2
 49
7.9375
 49
-4.7625
 98
        1
 10
0.0
 20
0.0
  0
CIRCLE
  5
F94
330
1F
100
AcDbEntity
  8
0
  6
HIDDEN
 62
     1
370
     0
100
AcDbCircle
 10
652.9143013287703
 20
437.8267845562
 30
0.0
 40
2.649999999999977
  0
CIRCLE
  5
F95
330
1F
100
AcDbEntity
  8
0
  6
HIDDEN
 62
     1
370
     0
100
AcDbCircle
 10
652.9143013287703
 20
437.8267845562
 30
0.0
 40
5.200000000000035
  0
CIRCLE
  5
F96
330
1F
100
AcDbEntity
  8
0
  6
HIDDEN
 62
     1
370
     0
100
AcDbCircle
 10
652.9143013287703
 20
425.8267845562
 30
0.0
 40
2.649999999999977
  0
CIRCLE
  5
F97
330
1F
100
AcDbEntity
  8
0
  6
HIDDEN
 62
     1
370
     0
100
AcDbCircle
 10
652.9143013287703
 20
425.8267845562
 30
0.0
 40
5.200000000000035
  0
CIRCLE
  5
F98
330
1F
100
AcDbEntity
  8
0
  6
HIDDEN
 62
     1
370
     0
100
AcDbCircle
 10
652.9143013287703
 20
381.8267845562
 30
0.0
 40
2.649999999999977
  0
CIRCLE
  5
F99
330
1F
100
AcDbEntity
  8
0
  6
HIDDEN
 62
     1
370
     0
100
AcDbCircle
 10
652.9143013287703
 20
381.8267845562
 30
0.0
 40
5.200000000000035
  0
CIRCLE
  5
F9A
330
1F
100
AcDbEntity
  8
0
  6
HIDDEN
 62
     1
370
     0
100
AcDbCircle
 10
652.9143013287703
 20
369.8267845562
 30
0.0
 40
2.649999999999977
  0
CIRCLE
  5
F9B
330
1F
100
AcDbEntity
  8
0
  6
HIDDEN
 62
     1
370
     0
100
AcDbCircle
 10
652.9143013287703
 20
369.8267845562
 30
0.0
 40
5.200000000000035
  0
CIRCLE
  5
FC6
330
1F
100
AcDbEntity
  8
0
  6
CENTER
 62
     1
100
AcDbCircle
 10
548.1643032662703
 20
403.8267824700001
 30
0.0
 40
10.0
  0
LINE
  5
FC7
330
1F
100
AcDbEntity
  8
0
  6
CENTER
 62
     1
100
AcDbLine
 10
534.1243032662703
 20
403.8267824700003
 30
0.0
 11
562.2043032662702
 21
403.8267824700003
 31
0.0
  0
LINE
  5
FC8
330
1F
100
AcDbEntity
  8
0
  6
CENTER
 62
     1
100
AcDbLine
 10
548.1643032662703
 20
389.7867824699998
 30
0.0
 11
548.1643032662703
 21
417.8667824700003
 31
0.0
  0
CIRCLE
  5
FC9
330
1F
100
AcDbEntity
  8
0
  6
CENTER
 62
     1
100
AcDbCircle
 10
593.1643032662703
 20
403.8267824700001
 30
0.0
 40
10.0
  0
LINE
  5
FCA
330
1F
100
AcDbEntity
  8
0
  6
CENTER
 62
     1
100
AcDbLine
 10
579.1243032662703
 20
403.8267824700003
 30
0.0
 11
607.2043032662702
 21
403.8267824700003
 31
0.0
  0
LINE
  5
FCB
330
1F
100
AcDbEntity
  8
0
  6
CENTER
 62
     1
100
AcDbLine
 10
593.1643032662703
 20
389.7867824699998
 30
0.0
 11
593.1643032662703
 21
417.8667824700003
 31
0.0
  0
LINE
  5
FF1
330
1F
100
AcDbEntity
  8
ASSI
100
AcDbLine
 10
548.1643013287703
 20
300.3741633892
 30
0.0
 11
548.1643013287703
 21
311.3741633892
 31
0.0
  0
LINE
  5
FF2
330
1F
100
AcDbEntity
  8
ASSI
100
AcDbLine
 10
593.1643013287703
 20
300.3741633892
 30
0.0
 11
593.1643013287703
 21
311.3741633892
 31
0.0
  0
CIRCLE
  5
1000
330
1F
100
AcDbEntity
  8
0
  6
Continuous
 62
     7
100
AcDbCircle
 10
727.6148470975704
 20
414.3153825561999
 30
0.0
 40
1.55
  0
CIRCLE
  5
1001
330
1F
100
AcDbEntity
  8
0
  6
Continuous
 62
     7
100
AcDbCircle
 10
717.1107750975702
 20
403.8194555561997
 30
0.0
 40
1.55
  0
CIRCLE
  5
1002
330
1F
100
AcDbEntity
  8
0
  6
Continuous
 62
     7
100
AcDbCircle
 10
738.1107740975704
 20
403.8113115562001
 30
0.0
 40
1.55
  0
CIRCLE
  5
1003
330
1F
100
AcDbEntity
  8
0
  6
Continuous
 62
     7
100
AcDbCircle
 10
727.6067020975704
 20
393.3153845561998
 30
0.0
 40
1.55
  0
LINE
  5
1004
330
1F
100
AcDbEntity
  8
0
  6
CENTER
 62
     1
100
AcDbLine
 10
727.6107740975704
 20
388.3267795562
 30
0.0
 11
727.6107740975704
 21
419.3267885562
 31
0.0
  0
LINE
  5
1005
330
1F
100
AcDbEntity
  8
0
  6
CENTER
 62
     1
100
AcDbLine
 10
712.1107700975704
 20
403.8267845562
 30
0.0
 11
742.6107750975702
 21
403.8153835562
 31
0.0
  0
LINE
  5
1006
330
1F
100
AcDbEntity
  8
0
  6
CENTER
 62
     1
100
AcDbLine
 10
738.1107740975704
 20
400.2613115562
 30
0.0
 11
738.1107740975704
 21
407.3613115561998
 31
0.0
  0
LINE
  5
1007
330
1F
100
AcDbEntity
  8
0
  6
CENTER
 62
     1
100
AcDbLine
 10
717.1107750975702
 20
400.2694555561999
 30
0.0
 11
717.1107750975702
 21
407.3694555562
 31
0.0
  0
LINE
  5
1008
330
1F
100
AcDbEntity
  8
0
  6
CENTER
 62
     1
100
AcDbLine
 10
724.0648470975702
 20
414.3153825561999
 30
0.0
 11
731.1648470975704
 21
414.3153825561999
 31
0.0
  0
LINE
  5
1009
330
1F
100
AcDbEntity
  8
0
  6
CENTER
 62
     1
100
AcDbLine
 10
724.0567020975705
 20
393.3153845561998
 30
0.0
 11
731.1567020975704
 21
393.3153845561998
 31
0.0
  0
LINE
  5
1016
330
1F
100
AcDbEntity
  8
0
  6
CENTER
 62
     1
100
AcDbLine
 10
592.1643013287703
 20
516.4691194041
 30
0.0
 11
592.1643013287703
 21
529.4691194041
 31
0.0
  0
LINE
  5
1017
330
1F
100
AcDbEntity
  8
0
  6
CENTER
 62
     1
100
AcDbLine
 10
585.6643013287703
 20
522.9691194041
 30
0.0
 11
598.6643013287703
 21
522.9691194041
 31
0.0
  0
ENDSEC
  0
SECTION
  2
OBJECTS
  0
DICTIONARY
  5
C
330
0
100
AcDbDictionary
281
     1
  3
ACAD_DETAILVIEWSTYLE
350
F90
  3
ACAD_GROUP
350
D
  3
ACAD_IMAGE_VARS
350
85F
  3
ACAD_LAYOUT
350
1A
  3
ACAD_MATERIAL
350
857
  3
ACAD_MLEADERSTYLE
350
869
  3
ACAD_MLINESTYLE
350
17
  3
ACAD_PLOTSETTINGS
350
19
  3
ACAD_PLOTSTYLENAME
350
E
  3
ACAD_SCALELIST
350
47
  3
ACAD_SECTIONVIEWSTYLE
350
F91
  3
ACAD_TABLESTYLE
350
85B
  3
ACAD_VISUALSTYLE
350
83E
  3
ACDB_RECOMPOSE_DATA
350
101F
  3
AcDbVariableDictionary
350
F8D
  3
APPDATA
350
85D
  0
SUN
  5
85E
330
29
100
AcDbSun
 90
        1
290
     0
 63
     7
421
 16777215
 40
1.0
291
     1
 91
  2455826
 92
 54000000
292
     0
 70
     2
 71
   256
280
     1
  0
DICTIONARY
  5
F90
102
{ACAD_REACTORS
330
C
102
}
330
C
100
AcDbDictionary
281
     1
  0
DICTIONARY
  5
D
102
{ACAD_REACTORS
330
C
102
}
330
C
100
AcDbDictionary
281
     1
  0
RASTERVARIABLES
  5
85F
102
{ACAD_REACTORS
330
C
102
}
330
C
100
AcDbRasterVariables
 90
        0
 70
     1
 71
     1
 72
     1
  0
DICTIONARY
  5
1A
102
{ACAD_REACTORS
330
C
102
}
330
C
100
AcDbDictionary
281
     1
  3
Layout1
350
1E
  3
Layout2
350
26
  3
Model
350
22
  0
DICTIONARY
  5
857
102
{ACAD_REACTORS
330
C
102
}
330
C
100
AcDbDictionary
281
     1
  3
ByBlock
350
859
  3
ByLayer
350
858
  3
Global
350
85A
  0
DICTIONARY
  5
869
102
{ACAD_REACTORS
330
C
102
}
330
C
100
AcDbDictionary
281
     1
  0
DICTIONARY
  5
17
102
{ACAD_REACTORS
330
C
102
}
330
C
100
AcDbDictionary
281
     1
  3
Standard
350
18
  0
DICTIONARY
  5
19
102
{ACAD_REACTORS
330
C
102
}
330
C
100
AcDbDictionary
281
     1
  0
ACDBDICTIONARYWDFLT
  5
E
102
{ACAD_REACTORS
330
C
102
}
330
C
100
AcDbDictionary
281
     1
  3
Normal
350
F
100
AcDbDictionaryWithDefault
340
F
  0
DICTIONARY
  5
47
102
{ACAD_REACTORS
330
C
102
}
330
C
100
AcDbDictionary
281
     1
  3
A0
350
48
  3
A1
350
49
  3
A2
350
4A
  3
A3
350
4B
  3
A4
350
4C
  3
A5
350
4D
  3
A6
350
4E
  3
A7
350
4F
  3
A8
350
50
  3
A9
350
51
  3
B0
350
52
  3
B1
350
53
  3
B2
350
54
  3
B3
350
55
  3
B4
350
56
  3
B5
350
57
  3
B6
350
58
  3
B7
350
59
  3
B8
350
5A
  3
B9
350
5B
  3
C0
350
5C
  3
C1
350
5D
  3
C2
350
5E
  3
C3
350
5F
  3
C4
350
60
  3
C5
350
61
  3
C6
350
62
  3
C7
350
63
  3
C8
350
64
  3
C9
350
65
  3
D0
350
66
  3
D1
350
67
  3
D2
350
68
  0
DICTIONARY
  5
F91
102
{ACAD_REACTORS
330
C
102
}
330
C
100
AcDbDictionary
281
     1
  0
DICTIONARY
  5
85B
102
{ACAD_REACTORS
330
C
102
}
330
C
100
AcDbDictionary
281
     1
  3
Standard
350
85C
  0
DICTIONARY
  5
83E
102
{ACAD_REACTORS
330
C
102
}
330
C
100
AcDbDictionary
281
     1
  3
2dWireframe
350
843
  3
Basic
350
846
  3
Brighten
350
84A
  3
ColorChange
350
84E
  3
Conceptual
350
848
  3
Dim
350
849
  3
EdgeColorOff
350
851
  3
Facepattern
350
84D
  3
Flat
350
83F
  3
FlatWithEdges
350
840
  3
Gouraud
350
841
  3
GouraudWithEdges
350
842
  3
Hidden
350
845
  3
JitterOff
350
84F
  3
Linepattern
350
84C
  3
OverhangOff
350
850
  3
Realistic
350
847
  3
Shaded
350
856
  3
Shaded with edges
350
855
  3
Shades of Gray
350
852
  3
Sketchy
350
853
  3
Thicken
350
84B
  3
Wireframe
350
844
  3
X-Ray
350
854
  0
XRECORD
  5
101F
102
{ACAD_REACTORS
330
C
102
}
330
C
100
AcDbXrecord
280
     1
 90
        1
330
85C
  0
DICTIONARY
  5
F8D
102
{ACAD_REACTORS
330
C
102
}
330
C
100
AcDbDictionary
281
     1
  3
CANNOSCALE
350
FD2
  3
CTABLESTYLE
350
F8E
  3
MSLTSCALE
350
F8F
  0
DICTIONARY
  5
85D
102
{ACAD_REACTORS
330
C
102
}
330
C
100
AcDbDictionary
281
     1
  0
LAYOUT
  5
1E
102
{ACAD_REACTORS
330
1A
102
}
330
1A
100
AcDbPlotSettings
  1

  2
none_device
  4

  6

 40
0.0
 41
0.0
 42
0.0
 43
0.0
 44
0.0
 45
0.0
 46
0.0
 47
0.0
 48
0.0
 49
0.0
140
0.0
141
0.0
142
1.0
143
1.0
 70
   688
 72
     1
 73
     0
 74
     5
  7

 75
    16
 76
     0
 77
     2
 78
   300
147
1.0
148
0.0
149
0.0
100
AcDbLayout
  1
Layout1
 70
     1
 71
     1
 10
0.0
 20
0.0
 11
420.0
 21
297.0
 12
0.0
 22
0.0
 32
0.0
 14
1.000000000000000E+20
 24
1.000000000000000E+20
 34
1.000000000000000E+20
 15
-1.000000000000000E+20
 25
-1.000000000000000E+20
 35
-1.000000000000000E+20
146
0.0
 13
0.0
 23
0.0
 33
0.0
 16
1.0
 26
0.0
 36
0.0
 17
0.0
 27
1.0
 37
0.0
 76
     0
330
1B
  0
LAYOUT
  5
26
102
{ACAD_REACTORS
330
1A
102
}
330
1A
100
AcDbPlotSettings
  1

  2
none_device
  4

  6

 40
0.0
 41
0.0
 42
0.0
 43
0.0
 44
0.0
 45
0.0
 46
0.0
 47
0.0
 48
0.0
 49
0.0
140
0.0
141
0.0
142
1.0
143
1.0
 70
   688
 72
     1
 73
     0
 74
     5
  7

 75
    16
 76
     0
 77
     2
 78
   300
147
1.0
148
0.0
149
0.0
100
AcDbLayout
  1
Layout2
 70
     1
 71
     2
 10
0.0
 20
0.0
 11
0.0
 21
0.0
 12
0.0
 22
0.0
 32
0.0
 14
0.0
 24
0.0
 34
0.0
 15
0.0
 25
0.0
 35
0.0
146
0.0
 13
0.0
 23
0.0
 33
0.0
 16
1.0
 26
0.0
 36
0.0
 17
0.0
 27
1.0
 37
0.0
 76
     0
330
23
  0
LAYOUT
  5
22
102
{ACAD_REACTORS
330
1A
102
}
330
1A
100
AcDbPlotSettings
  1

  2
none_device
  4
Letter_(8.50_x_11.00_Inches)
  6

 40
6.35
 41
6.35
 42
6.35000508
 43
6.35000508
 44
215.9
 45
279.4
 46
0.0
 47
0.0
 48
0.0
 49
0.0
140
0.0
141
0.0
142
1.0
143
1.0
 70
  1712
 72
     1
 73
     0
 74
     0
  7

 75
     0
 76
     0
 77
     2
 78
   300
147
1.0
148
0.0
149
0.0
100
AcDbLayout
  1
Model
 70
     1
 71
     0
 10
0.0
 20
0.0
 11
840.0
 21
594.0
 12
0.0
 22
0.0
 32
0.0
 14
450.5562706097609
 24
205.5375547749979
 34
0.0
 15
826.7860143280659
 25
544.969120328
 35
0.0
146
0.0
 13
0.0
 23
0.0
 33
0.0
 16
1.0
 26
0.0
 36
0.0
 17
0.0
 27
1.0
 37
0.0
 76
     0
330
1F
331
29
  0
MATERIAL
  5
859
102
{ACAD_REACTORS
330
857
102
}
330
857
100
AcDbMaterial
  1
ByBlock
 72
     1
 94
      127
  0
MATERIAL
  5
858
102
{ACAD_REACTORS
330
857
102
}
330
857
100
AcDbMaterial
  1
ByLayer
 72
     1
 94
      127
  0
MATERIAL
  5
85A
102
{ACAD_REACTORS
330
857
102
}
330
857
100
AcDbMaterial
  1
Global
 72
     1
 94
      127
  0
MLINESTYLE
  5
18
102
{ACAD_REACTORS
330
17
102
}
330
17
100
AcDbMlineStyle
  2
Standard
 70
     0
  3

 62
   256
 51
90.0
 52
90.0
 71
     2
 49
0.5
 62
   256
  6
BYLAYER
 49
-0.5
 62
   256
  6
BYLAYER
  0
ACDBPLACEHOLDER
  5
F
102
{ACAD_REACTORS
330
E
102
}
330
E
  0
SCALE
  5
48
102
{ACAD_REACTORS
330
47
102
}
330
47
100
AcDbScale
 70
     0
300
1:1
140
1.0
141
1.0
290
     1
  0
SCALE
  5
49
102
{ACAD_REACTORS
330
47
102
}
330
47
100
AcDbScale
 70
     0
300
1:2
140
1.0
141
2.0
290
     0
  0
SCALE
  5
4A
102
{ACAD_REACTORS
330
47
102
}
330
47
100
AcDbScale
 70
     0
300
1:4
140
1.0
141
4.0
290
     0
  0
SCALE
  5
4B
102
{ACAD_REACTORS
330
47
102
}
330
47
100
AcDbScale
 70
     0
300
1:5
140
1.0
141
5.0
290
     0
  0
SCALE
  5
4C
102
{ACAD_REACTORS
330
47
102
}
330
47
100
AcDbScale
 70
     0
300
1:8
140
1.0
141
8.0
290
     0
  0
SCALE
  5
4D
102
{ACAD_REACTORS
330
47
102
}
330
47
100
AcDbScale
 70
     0
300
1:10
140
1.0
141
10.0
290
     0
  0
SCALE
  5
4E
102
{ACAD_REACTORS
330
47
102
}
330
47
100
AcDbScale
 70
     0
300
1:16
140
1.0
141
16.0
290
     0
  0
SCALE
  5
4F
102
{ACAD_REACTORS
330
47
102
}
330
47
100
AcDbScale
 70
     0
300
1:20
140
1.0
141
20.0
290
     0
  0
SCALE
  5
50
102
{ACAD_REACTORS
330
47
102
}
330
47
100
AcDbScale
 70
     0
300
1:30
140
1.0
141
30.0
290
     0
  0
SCALE
  5
51
102
{ACAD_REACTORS
330
47
102
}
330
47
100
AcDbScale
 70
     0
300
1:40
140
1.0
141
40.0
290
     0
  0
SCALE
  5
52
102
{ACAD_REACTORS
330
47
102
}
330
47
100
AcDbScale
 70
     0
300
1:50
140
1.0
141
50.0
290
     0
  0
SCALE
  5
53
102
{ACAD_REACTORS
330
47
102
}
330
47
100
AcDbScale
 70
     0
300
1:100
140
1.0
141
100.0
290
     0
  0
SCALE
  5
54
102
{ACAD_REACTORS
330
47
102
}
330
47
100
AcDbScale
 70
     0
300
2:1
140
2.0
141
1.0
290
     0
  0
SCALE
  5
55
102
{ACAD_REACTORS
330
47
102
}
330
47
100
AcDbScale
 70
     0
300
4:1
140
4.0
141
1.0
290
     0
  0
SCALE
  5
56
102
{ACAD_REACTORS
330
47
102
}
330
47
100
AcDbScale
 70
     0
300
8:1
140
8.0
141
1.0
290
     0
  0
SCALE
  5
57
102
{ACAD_REACTORS
330
47
102
}
330
47
100
AcDbScale
 70
     0
300
10:1
140
10.0
141
1.0
290
     0
  0
SCALE
  5
58
102
{ACAD_REACTORS
330
47
102
}
330
47
100
AcDbScale
 70
     0
300
100:1
140
100.0
141
1.0
290
     0
  0
SCALE
  5
59
102
{ACAD_REACTORS
330
47
102
}
330
47
100
AcDbScale
 70
     0
300
1/128" = 1'-0"
140
0.0078125
141
12.0
290
     0
  0
SCALE
  5
5A
102
{ACAD_REACTORS
330
47
102
}
330
47
100
AcDbScale
 70
     0
300
1/64" = 1'-0"
140
0.015625
141
12.0
290
     0
  0
SCALE
  5
5B
102
{ACAD_REACTORS
330
47
102
}
330
47
100
AcDbScale
 70
     0
300
1/32" = 1'-0"
140
0.03125
141
12.0
290
     0
  0
SCALE
  5
5C
102
{ACAD_REACTORS
330
47
102
}
330
47
100
AcDbScale
 70
     0
300
1/16" = 1'-0"
140
0.0625
141
12.0
290
     0
  0
SCALE
  5
5D
102
{ACAD_REACTORS
330
47
102
}
330
47
100
AcDbScale
 70
     0
300
3/32" = 1'-0"
140
0.09375
141
12.0
290
     0
  0
SCALE
  5
5E
102
{ACAD_REACTORS
330
47
102
}
330
47
100
AcDbScale
 70
     0
300
1/8" = 1'-0"
140
0.125
141
12.0
290
     0
  0
SCALE
  5
5F
102
{ACAD_REACTORS
330
47
102
}
330
47
100
AcDbScale
 70
     0
300
3/16" = 1'-0"
140
0.1875
141
12.0
290
     0
  0
SCALE
  5
60
102
{ACAD_REACTORS
330
47
102
}
330
47
100
AcDbScale
 70
     0
300
1/4" = 1'-0"
140
0.25
141
12.0
290
     0
  0
SCALE
  5
61
102
{ACAD_REACTORS
330
47
102
}
330
47
100
AcDbScale
 70
     0
300
3/8" = 1'-0"
140
0.375
141
12.0
290
     0
  0
SCALE
  5
62
102
{ACAD_REACTORS
330
47
102
}
330
47
100
AcDbScale
 70
     0
300
1/2" = 1'-0"
140
0.5
141
12.0
290
     0
  0
SCALE
  5
63
102
{ACAD_REACTORS
330
47
102
}
330
47
100
AcDbScale
 70
     0
300
3/4" = 1'-0"
140
0.75
141
12.0
290
     0
  0
SCALE
  5
64
102
{ACAD_REACTORS
330
47
102
}
330
47
100
AcDbScale
 70
     0
300
1" = 1'-0"
140
1.0
141
12.0
290
     0
  0
SCALE
  5
65
102
{ACAD_REACTORS
330
47
102
}
330
47
100
AcDbScale
 70
     0
300
1-1/2" = 1'-0"
140
1.5
141
12.0
290
     0
  0
SCALE
  5
66
102
{ACAD_REACTORS
330
47
102
}
330
47
100
AcDbScale
 70
     0
300
3" = 1'-0"
140
3.0
141
12.0
290
     0
  0
SCALE
  5
67
102
{ACAD_REACTORS
330
47
102
}
330
47
100
AcDbScale
 70
     0
300
6" = 1'-0"
140
6.0
141
12.0
290
     0
  0
SCALE
  5
68
102
{ACAD_REACTORS
330
47
102
}
330
47
100
AcDbScale
 70
     0
300
1'-0" = 1'-0"
140
12.0
141
12.0
290
     0
  0
TABLESTYLE
  5
85C
102
{ACAD_REACTORS
330
85B
102
}
102
{ACAD_XDICTIONARY
360
101D
102
}
330
85B
100
AcDbTableStyle
  3
Standard
 70
     0
 71
     0
 40
1.5
 41
1.5
280
     0
281
     0
  7
Standard
140
4.5
170
     2
 62
     0
 63
   257
283
     0
 90
        4
 91
        0
  1

274
    -2
284
     1
 64
     0
275
    -2
285
     1
 65
     0
276
    -2
286
     1
 66
     0
277
    -2
287
     1
 67
     0
278
    -2
288
     1
 68
     0
279
    -2
289
     1
 69
     0
  7
Standard
140
6.0
170
     5
 62
     0
 63
   257
283
     0
 90
        4
 91
        0
  1

274
    -2
284
     1
 64
     0
275
    -2
285
     1
 65
     0
276
    -2
286
     1
 66
     0
277
    -2
287
     1
 67
     0
278
    -2
288
     1
 68
     0
279
    -2
289
     1
 69
     0
  7
Standard
140
4.5
170
     5
 62
     0
 63
   257
283
     0
 90
        4
 91
        0
  1

274
    -2
284
     1
 64
     0
275
    -2
285
     1
 65
     0
276
    -2
286
     1
 66
     0
277
    -2
287
     1
 67
     0
278
    -2
288
     1
 68
     0
279
    -2
289
     1
 69
     0
  0
VISUALSTYLE
  5
843
102
{ACAD_REACTORS
330
83E
102
}
330
83E
100
AcDbVisualStyle
  2
2dWireframe
 70
     4
177
     3
291
     0
 70
    58
 90
        0
176
     1
 90
        2
176
     1
 90
        0
176
     1
 90
        0
176
     1
 40
0.6
176
     1
 40
30.0
176
     1
 62
     7
420
 16777215
176
     1
 90
        1
176
     1
 90
        4
176
     1
 62
     7
176
     1
 62
   257
176
     1
 90
        1
176
     1
 90
        1
176
     1
 40
1.0
176
     1
 90
        0
176
     1
 62
   257
176
     1
 40
1.0
176
     1
 90
        1
176
     1
 90
        6
176
     1
 90
        2
176
     1
 62
     7
176
     1
 90
        5
176
     1
 90
        0
176
     1
 90
        0
176
     1
290
     0
176
     1
 90
        1
176
     1
 40
0.0
176
     1
 90
        0
176
     1
290
     1
176
     1
290
     1
176
     1
290
     0
176
     1
290
     0
176
     1
290
     0
176
     1
290
     0
176
     1
290
     0
176
     1
290
     0
176
     1
290
     0
176
     1
 90
       50
176
     1
 40
0.0
176
     1
 40
1.0
176
     1
 90
        0
176
     1
 62
    18
420
        0
176
     1
 90
       50
176
     1
 90
        3
176
     1
 62
     5
420
      255
176
     1
290
     0
176
     1
 90
       50
176
     1
 90
       50
176
     1
 90
       50
176
     1
290
     0
176
     1
 90
       50
176
     1
 62
   256
176
     0
 40
1.0
176
     0
 90
        2
176
     1
  1
strokes_ogs.tif
176
     1
290
     0
176
     1
 40
1.0
176
     1
 40
1.0
176
     1
  0
VISUALSTYLE
  5
846
102
{ACAD_REACTORS
330
83E
102
}
330
83E
100
AcDbVisualStyle
  2
Basic
 70
     7
177
     3
291
     1
 70
    58
 90
        1
176
     1
 90
        0
176
     1
 90
        1
176
     1
 90
        0
176
     1
 40
0.6
176
     1
 40
30.0
176
     1
 62
     7
420
 16777215
176
     1
 90
        0
176
     1
 90
        4
176
     1
 62
     7
176
     1
 62
   257
176
     1
 90
        1
176
     1
 90
        1
176
     1
 40
1.0
176
     1
 90
        8
176
     1
 62
     7
176
     1
 40
1.0
176
     1
 90
        1
176
     1
 90
        6
176
     1
 90
        2
176
     1
 62
     7
176
     1
 90
        5
176
     1
 90
        0
176
     1
 90
        0
176
     1
290
     0
176
     1
 90
        1
176
     1
 40
0.0
176
     1
 90
        0
176
     1
290
     0
176
     1
290
     1
176
     1
290
     1
176
     1
290
     0
176
     1
290
     0
176
     1
290
     0
176
     1
290
     0
176
     1
290
     0
176
     1
290
     0
176
     1
 90
       50
176
     1
 40
0.0
176
     1
 40
1.0
176
     1
 90
        0
176
     1
 62
    18
420
        0
176
     1
 90
       50
176
     1
 90
        3
176
     1
 62
     5
420
      255
176
     1
290
     0
176
     1
 90
       50
176
     1
 90
       50
176
     1
 90
       50
176
     1
290
     0
176
     1
 90
       50
176
     1
 62
   256
176
     0
 40
1.0
176
     0
 90
        2
176
     1
  1
strokes_ogs.tif
176
     1
290
     0
176
     1
 40
1.0
176
     1
 40
1.0
176
     1
  0
VISUALSTYLE
  5
84A
102
{ACAD_REACTORS
330
83E
102
}
330
83E
100
AcDbVisualStyle
  2
Brighten
 70
    12
177
     3
291
     1
 70
    58
 90
        2
176
     1
 90
        2
176
     1
 90
        0
176
     1
 90
        0
176
     1
 40
0.6
176
     1
 40
30.0
176
     1
 62
     7
420
 16777215
176
     1
 90
        1
176
     1
 90
        4
176
     1
 62
     7
176
     1
 62
   257
176
     1
 90
        1
176
     1
 90
        1
176
     1
 40
1.0
176
     1
 90
        8
176
     1
 62
     7
176
     1
 40
1.0
176
     1
 90
        1
176
     1
 90
        6
176
     1
 90
        2
176
     1
 62
     7
176
     1
 90
        5
176
     1
 90
        0
176
     1
 90
        0
176
     1
290
     0
176
     1
 90
        1
176
     1
 40
50.0
176
     1
 90
        0
176
     1
290
     0
176
     1
290
     1
176
     1
290
     1
176
     1
290
     0
176
     1
290
     0
176
     1
290
     0
176
     1
290
     0
176
     1
290
     0
176
     1
290
     0
176
     1
 90
       50
176
     1
 40
0.0
176
     1
 40
1.0
176
     1
 90
        0
176
     1
 62
    18
420
        0
176
     1
 90
       50
176
     1
 90
        3
176
     1
 62
     5
420
      255
176
     1
290
     0
176
     1
 90
       50
176
     1
 90
       50
176
     1
 90
       50
176
     1
290
     0
176
     1
 90
       50
176
     1
 62
   256
176
     0
 40
1.0
176
     0
 90
        2
176
     1
  1
strokes_ogs.tif
176
     1
290
     0
176
     1
 40
1.0
176
     1
 40
1.0
176
     1
  0
VISUALSTYLE
  5
84E
102
{ACAD_REACTORS
330
83E
102
}
330
83E
100
AcDbVisualStyle
  2
ColorChange
 70
    16
177
     3
291
     1
 70
    58
 90
        2
176
     1
 90
        2
176
     1
 90
        3
176
     1
 90
        0
176
     1
 40
0.6
176
     1
 40
30.0
176
     1
 62
     8
420
  8421504
176
     1
 90
        1
176
     1
 90
        4
176
     1
 62
     7
176
     1
 62
   257
176
     1
 90
        1
176
     1
 90
        1
176
     1
 40
1.0
176
     1
 90
        8
176
     1
 62
     8
420
  8421504
176
     1
 40
1.0
176
     1
 90
        1
176
     1
 90
        6
176
     1
 90
        2
176
     1
 62
     7
176
     1
 90
        5
176
     1
 90
        0
176
     1
 90
        0
176
     1
290
     0
176
     1
 90
        1
176
     1
 40
0.0
176
     1
 90
        0
176
     1
290
     0
176
     1
290
     1
176
     1
290
     1
176
     1
290
     0
176
     1
290
     0
176
     1
290
     0
176
     1
290
     0
176
     1
290
     0
176
     1
290
     0
176
     1
 90
       50
176
     1
 40
0.0
176
     1
 40
1.0
176
     1
 90
        0
176
     1
 62
    18
420
        0
176
     1
 90
       50
176
     1
 90
        3
176
     1
 62
     5
420
      255
176
     1
290
     0
176
     1
 90
       50
176
     1
 90
       50
176
     1
 90
       50
176
     1
290
     0
176
     1
 90
       50
176
     1
 62
   256
176
     0
 40
1.0
176
     0
 90
        2
176
     1
  1
strokes_ogs.tif
176
     1
290
     0
176
     1
 40
1.0
176
     1
 40
1.0
176
     1
  0
VISUALSTYLE
  5
848
102
{ACAD_REACTORS
330
83E
102
}
330
83E
100
AcDbVisualStyle
  2
Conceptual
 70
     9
177
     3
291
     0
 70
    58
 90
        3
176
     1
 90
        2
176
     1
 90
        0
176
     1
 90
        0
176
     1
 40
0.6
176
     1
 40
30.0
176
     1
 62
     7
420
 16777215
176
     1
 90
        2
176
     1
 90
        2
176
     1
 62
     7
176
     1
 62
   257
176
     1
 90
        1
176
     1
 90
        1
176
     1
 40
179.0
176
     1
 90
        8
176
     1
 62
     7
176
     1
 40
1.0
176
     1
 90
        1
176
     1
 90
        6
176
     1
 90
        2
176
     1
 62
     7
176
     1
 90
        3
176
     1
 90
        0
176
     1
 90
        0
176
     1
290
     0
176
     1
 90
        1
176
     1
 40
0.0
176
     1
 90
        0
176
     1
290
     0
176
     1
290
     1
176
     1
290
     1
176
     1
290
     0
176
     1
290
     0
176
     1
290
     0
176
     1
290
     0
176
     1
290
     0
176
     1
290
     0
176
     1
 90
       50
176
     1
 40
0.0
176
     1
 40
1.0
176
     1
 90
        0
176
     1
 62
    18
420
        0
176
     1
 90
       50
176
     1
 90
        3
176
     1
 62
     5
420
      255
176
     1
290
     0
176
     1
 90
       50
176
     1
 90
       50
176
     1
 90
       50
176
     1
290
     0
176
     1
 90
       50
176
     1
 62
   256
176
     0
 40
1.0
176
     0
 90
        2
176
     1
  1
strokes_ogs.tif
176
     1
290
     0
176
     1
 40
1.0
176
     1
 40
1.0
176
     1
  0
VISUALSTYLE
  5
849
102
{ACAD_REACTORS
330
83E
102
}
330
83E
100
AcDbVisualStyle
  2
Dim
 70
    11
177
     3
291
     1
 70
    58
 90
        2
176
     1
 90
        2
176
     1
 90
        0
176
     1
 90
        0
176
     1
 40
0.6
176
     1
 40
30.0
176
     1
 62
     7
420
 16777215
176
     1
 90
        1
176
     1
 90
        4
176
     1
 62
     7
176
     1
 62
   257
176
     1
 90
        1
176
     1
 90
        1
176
     1
 40
1.0
176
     1
 90
        8
176
     1
 62
     7
176
     1
 40
1.0
176
     1
 90
        1
176
     1
 90
        6
176
     1
 90
        2
176
     1
 62
     7
176
     1
 90
        5
176
     1
 90
        0
176
     1
 90
        0
176
     1
290
     0
176
     1
 90
        1
176
     1
 40
-50.0
176
     1
 90
        0
176
     1
290
     0
176
     1
290
     1
176
     1
290
     1
176
     1
290
     0
176
     1
290
     0
176
     1
290
     0
176
     1
290
     0
176
     1
290
     0
176
     1
290
     0
176
     1
 90
       50
176
     1
 40
0.0
176
     1
 40
1.0
176
     1
 90
        0
176
     1
 62
    18
420
        0
176
     1
 90
       50
176
     1
 90
        3
176
     1
 62
     5
420
      255
176
     1
290
     0
176
     1
 90
       50
176
     1
 90
       50
176
     1
 90
       50
176
     1
290
     0
176
     1
 90
       50
176
     1
 62
   256
176
     0
 40
1.0
176
     0
 90
        2
176
     1
  1
strokes_ogs.tif
176
     1
290
     0
176
     1
 40
1.0
176
     1
 40
1.0
176
     1
  0
VISUALSTYLE
  5
851
102
{ACAD_REACTORS
330
83E
102
}
330
83E
100
AcDbVisualStyle
  2
EdgeColorOff
 70
    22
177
     3
291
     1
 70
    58
 90
        2
176
     0
 90
        2
176
     0
 90
        0
176
     0
 90
        0
176
     0
 40
0.6
176
     0
 40
30.0
176
     0
 62
     7
420
 16777215
176
     0
 90
        1
176
     0
 90
        4
176
     0
 62
     7
176
     0
 62
   257
176
     0
 90
        1
176
     0
 90
        1
176
     0
 40
1.0
176
     0
 90
        8
176
     2
 62
     7
176
     0
 40
1.0
176
     0
 90
        1
176
     0
 90
        6
176
     0
 90
        2
176
     0
 62
     7
176
     0
 90
        5
176
     0
 90
        0
176
     0
 90
        0
176
     0
290
     0
176
     0
 90
        1
176
     0
 40
0.0
176
     0
 90
        0
176
     0
290
     0
176
     0
290
     1
176
     0
290
     1
176
     0
290
     0
176
     0
290
     0
176
     0
290
     0
176
     0
290
     0
176
     0
290
     0
176
     0
290
     0
176
     0
 90
       50
176
     0
 40
0.0
176
     0
 40
1.0
176
     0
 90
        0
176
     0
 62
    18
420
        0
176
     0
 90
       50
176
     0
 90
        3
176
     0
 62
     5
420
      255
176
     0
290
     0
176
     0
 90
       50
176
     0
 90
       50
176
     0
 90
       50
176
     0
290
     0
176
     0
 90
       50
176
     0
 62
   256
176
     0
 40
1.0
176
     0
 90
        2
176
     0
  1
strokes_ogs.tif
176
     0
290
     0
176
     0
 40
1.0
176
     0
 40
1.0
176
     0
  0
VISUALSTYLE
  5
84D
102
{ACAD_REACTORS
330
83E
102
}
330
83E
100
AcDbVisualStyle
  2
Facepattern
 70
    15
177
     3
291
     1
 70
    58
 90
        2
176
     1
 90
        2
176
     1
 90
        0
176
     1
 90
        0
176
     1
 40
0.6
176
     1
 40
30.0
176
     1
 62
     7
420
 16777215
176
     1
 90
        1
176
     1
 90
        4
176
     1
 62
     7
176
     1
 62
   257
176
     1
 90
        1
176
     1
 90
        1
176
     1
 40
1.0
176
     1
 90
        8
176
     1
 62
     7
176
     1
 40
1.0
176
     1
 90
        1
176
     1
 90
        6
176
     1
 90
        2
176
     1
 62
     7
176
     1
 90
        5
176
     1
 90
        0
176
     1
 90
        0
176
     1
290
     0
176
     1
 90
        1
176
     1
 40
0.0
176
     1
 90
        0
176
     1
290
     0
176
     1
290
     1
176
     1
290
     1
176
     1
290
     0
176
     1
290
     0
176
     1
290
     0
176
     1
290
     0
176
     1
290
     0
176
     1
290
     0
176
     1
 90
       50
176
     1
 40
0.0
176
     1
 40
1.0
176
     1
 90
        0
176
     1
 62
    18
420
        0
176
     1
 90
       50
176
     1
 90
        3
176
     1
 62
     5
420
      255
176
     1
290
     0
176
     1
 90
       50
176
     1
 90
       50
176
     1
 90
       50
176
     1
290
     0
176
     1
 90
       50
176
     1
 62
   256
176
     0
 40
1.0
176
     0
 90
        2
176
     1
  1
strokes_ogs.tif
176
     1
290
     0
176
     1
 40
1.0
176
     1
 40
1.0
176
     1
  0
VISUALSTYLE
  5
83F
102
{ACAD_REACTORS
330
83E
102
}
330
83E
100
AcDbVisualStyle
  2
Flat
 70
     0
177
     3
291
     1
 70
    58
 90
        2
176
     1
 90
        1
176
     1
 90
        1
176
     1
 90
        2
176
     1
 40
0.6
176
     1
 40
30.0
176
     1
 62
     7
420
 16777215
176
     1
 90
        0
176
     1
 90
        0
176
     1
 62
     7
176
     1
 62
   257
176
     1
 90
        1
176
     1
 90
        1
176
     1
 40
1.0
176
     1
 90
        8
176
     1
 62
     7
176
     1
 40
1.0
176
     1
 90
        1
176
     1
 90
        6
176
     1
 90
        2
176
     1
 62
     7
176
     1
 90
        5
176
     1
 90
        0
176
     1
 90
        0
176
     1
290
     0
176
     1
 90
       13
176
     1
 40
0.0
176
     1
 90
        0
176
     1
290
     0
176
     1
290
     1
176
     1
290
     1
176
     1
290
     0
176
     1
290
     0
176
     1
290
     0
176
     1
290
     0
176
     1
290
     0
176
     1
290
     0
176
     1
 90
       50
176
     1
 40
0.0
176
     1
 40
1.0
176
     1
 90
        0
176
     1
 62
    18
420
        0
176
     1
 90
       50
176
     1
 90
        3
176
     1
 62
     5
420
      255
176
     1
290
     0
176
     1
 90
       50
176
     1
 90
       50
176
     1
 90
       50
176
     1
290
     0
176
     1
 90
       50
176
     1
 62
   256
176
     0
 40
1.0
176
     0
 90
        2
176
     1
  1
strokes_ogs.tif
176
     1
290
     0
176
     1
 40
1.0
176
     1
 40
1.0
176
     1
  0
VISUALSTYLE
  5
840
102
{ACAD_REACTORS
330
83E
102
}
330
83E
100
AcDbVisualStyle
  2
FlatWithEdges
 70
     1
177
     3
291
     1
 70
    58
 90
        2
176
     1
 90
        1
176
     1
 90
        1
176
     1
 90
        2
176
     1
 40
0.6
176
     1
 40
30.0
176
     1
 62
     7
420
 16777215
176
     1
 90
        1
176
     1
 90
        0
176
     1
 62
     7
176
     1
 62
   257
176
     1
 90
        1
176
     1
 90
        1
176
     1
 40
1.0
176
     1
 90
        0
176
     1
 62
   257
176
     1
 40
1.0
176
     1
 90
        1
176
     1
 90
        6
176
     1
 90
        2
176
     1
 62
     7
176
     1
 90
        5
176
     1
 90
        0
176
     1
 90
        0
176
     1
290
     0
176
     1
 90
       13
176
     1
 40
0.0
176
     1
 90
        0
176
     1
290
     0
176
     1
290
     1
176
     1
290
     1
176
     1
290
     0
176
     1
290
     0
176
     1
290
     0
176
     1
290
     0
176
     1
290
     0
176
     1
290
     0
176
     1
 90
       50
176
     1
 40
0.0
176
     1
 40
1.0
176
     1
 90
        0
176
     1
 62
    18
420
        0
176
     1
 90
       50
176
     1
 90
        3
176
     1
 62
     5
420
      255
176
     1
290
     0
176
     1
 90
       50
176
     1
 90
       50
176
     1
 90
       50
176
     1
290
     0
176
     1
 90
       50
176
     1
 62
   256
176
     0
 40
1.0
176
     0
 90
        2
176
     1
  1
strokes_ogs.tif
176
     1
290
     0
176
     1
 40
1.0
176
     1
 40
1.0
176
     1
  0
VISUALSTYLE
  5
841
102
{ACAD_REACTORS
330
83E
102
}
330
83E
100
AcDbVisualStyle
  2
Gouraud
 70
     2
177
     3
291
     1
 70
    58
 90
        2
176
     1
 90
        2
176
     1
 90
        1
176
     1
 90
        2
176
     1
 40
0.6
176
     1
 40
30.0
176
     1
 62
     7
420
 16777215
176
     1
 90
        0
176
     1
 90
        0
176
     1
 62
     7
176
     1
 62
   257
176
     1
 90
        1
176
     1
 90
        1
176
     1
 40
1.0
176
     1
 90
        0
176
     1
 62
     7
176
     1
 40
1.0
176
     1
 90
        1
176
     1
 90
        6
176
     1
 90
        2
176
     1
 62
     7
176
     1
 90
        5
176
     1
 90
        0
176
     1
 90
        0
176
     1
290
     0
176
     1
 90
       13
176
     1
 40
0.0
176
     1
 90
        0
176
     1
290
     0
176
     1
290
     1
176
     1
290
     1
176
     1
290
     0
176
     1
290
     0
176
     1
290
     0
176
     1
290
     0
176
     1
290
     0
176
     1
290
     0
176
     1
 90
       50
176
     1
 40
0.0
176
     1
 40
1.0
176
     1
 90
        0
176
     1
 62
    18
420
        0
176
     1
 90
       50
176
     1
 90
        3
176
     1
 62
     5
420
      255
176
     1
290
     0
176
     1
 90
       50
176
     1
 90
       50
176
     1
 90
       50
176
     1
290
     0
176
     1
 90
       50
176
     1
 62
   256
176
     0
 40
1.0
176
     0
 90
        2
176
     1
  1
strokes_ogs.tif
176
     1
290
     0
176
     1
 40
1.0
176
     1
 40
1.0
176
     1
  0
VISUALSTYLE
  5
842
102
{ACAD_REACTORS
330
83E
102
}
330
83E
100
AcDbVisualStyle
  2
GouraudWithEdges
 70
     3
177
     3
291
     1
 70
    58
 90
        2
176
     1
 90
        2
176
     1
 90
        1
176
     1
 90
        2
176
     1
 40
0.6
176
     1
 40
30.0
176
     1
 62
     7
420
 16777215
176
     1
 90
        1
176
     1
 90
        0
176
     1
 62
     7
176
     1
 62
   257
176
     1
 90
        1
176
     1
 90
        1
176
     1
 40
1.0
176
     1
 90
        0
176
     1
 62
   257
176
     1
 40
1.0
176
     1
 90
        1
176
     1
 90
        6
176
     1
 90
        2
176
     1
 62
     7
176
     1
 90
        5
176
     1
 90
        0
176
     1
 90
        0
176
     1
290
     0
176
     1
 90
       13
176
     1
 40
0.0
176
     1
 90
        0
176
     1
290
     0
176
     1
290
     1
176
     1
290
     1
176
     1
290
     0
176
     1
290
     0
176
     1
290
     0
176
     1
290
     0
176
     1
290
     0
176
     1
290
     0
176
     1
 90
       50
176
     1
 40
0.0
176
     1
 40
1.0
176
     1
 90
        0
176
     1
 62
    18
420
        0
176
     1
 90
       50
176
     1
 90
        3
176
     1
 62
     5
420
      255
176
     1
290
     0
176
     1
 90
       50
176
     1
 90
       50
176
     1
 90
       50
176
     1
290
     0
176
     1
 90
       50
176
     1
 62
   256
176
     0
 40
1.0
176
     0
 90
        2
176
     1
  1
strokes_ogs.tif
176
     1
290
     0
176
     1
 40
1.0
176
     1
 40
1.0
176
     1
  0
VISUALSTYLE
  5
845
102
{ACAD_REACTORS
330
83E
102
}
330
83E
100
AcDbVisualStyle
  2
Hidden
 70
     6
177
     3
291
     0
 70
    58
 90
        1
176
     1
 90
        2
176
     1
 90
        2
176
     1
 90
        0
176
     1
 40
0.6
176
     1
 40
30.0
176
     1
 62
     7
420
 16777215
176
     1
 90
        2
176
     1
 90
        2
176
     1
 62
     7
176
     1
 62
   257
176
     1
 90
        2
176
     1
 90
        1
176
     1
 40
40.0
176
     1
 90
        0
176
     1
 62
   257
176
     1
 40
1.0
176
     1
 90
        1
176
     1
 90
        6
176
     1
 90
        2
176
     1
 62
     7
176
     1
 90
        3
176
     1
 90
        0
176
     1
 90
        0
176
     1
290
     0
176
     1
 90
        1
176
     1
 40
0.0
176
     1
 90
        0
176
     1
290
     0
176
     1
290
     1
176
     1
290
     1
176
     1
290
     0
176
     1
290
     0
176
     1
290
     0
176
     1
290
     0
176
     1
290
     0
176
     1
290
     0
176
     1
 90
       50
176
     1
 40
0.0
176
     1
 40
1.0
176
     1
 90
        0
176
     1
 62
    18
420
        0
176
     1
 90
       50
176
     1
 90
        3
176
     1
 62
     5
420
      255
176
     1
290
     0
176
     1
 90
       50
176
     1
 90
       50
176
     1
 90
       50
176
     1
290
     0
176
     1
 90
       50
176
     1
 62
   256
176
     0
 40
1.0
176
     0
 90
        2
176
     1
  1
strokes_ogs.tif
176
     1
290
     0
176
     1
 40
1.0
176
     1
 40
1.0
176
     1
  0
VISUALSTYLE
  5
84F
102
{ACAD_REACTORS
330
83E
102
}
330
83E
100
AcDbVisualStyle
  2
JitterOff
 70
    20
177
     3
291
     1
 70
    58
 90
        2
176
     0
 90
        2
176
     0
 90
        0
176
     0
 90
        0
176
     0
 40
0.6
176
     0
 40
30.0
176
     0
 62
     7
420
 16777215
176
     0
 90
        1
176
     0
 90
        4
176
     0
 62
     7
176
     0
 62
   257
176
     0
 90
        1
176
     0
 90
        1
176
     0
 40
1.0
176
     0
 90
       10
176
     2
 62
     7
176
     0
 40
1.0
176
     0
 90
        1
176
     0
 90
        6
176
     0
 90
        2
176
     0
 62
     7
176
     0
 90
        5
176
     0
 90
        0
176
     0
 90
        0
176
     0
290
     0
176
     0
 90
        1
176
     0
 40
0.0
176
     0
 90
        0
176
     0
290
     0
176
     0
290
     1
176
     0
290
     1
176
     0
290
     0
176
     0
290
     0
176
     0
290
     0
176
     0
290
     0
176
     0
290
     0
176
     0
290
     0
176
     0
 90
       50
176
     0
 40
0.0
176
     0
 40
1.0
176
     0
 90
        0
176
     0
 62
    18
420
        0
176
     0
 90
       50
176
     0
 90
        3
176
     0
 62
     5
420
      255
176
     0
290
     0
176
     0
 90
       50
176
     0
 90
       50
176
     0
 90
       50
176
     0
290
     0
176
     0
 90
       50
176
     0
 62
   256
176
     0
 40
1.0
176
     0
 90
        2
176
     0
  1
strokes_ogs.tif
176
     0
290
     0
176
     0
 40
1.0
176
     0
 40
1.0
176
     0
  0
VISUALSTYLE
  5
84C
102
{ACAD_REACTORS
330
83E
102
}
330
83E
100
AcDbVisualStyle
  2
Linepattern
 70
    14
177
     3
291
     1
 70
    58
 90
        2
176
     1
 90
        2
176
     1
 90
        0
176
     1
 90
        0
176
     1
 40
0.6
176
     1
 40
30.0
176
     1
 62
     7
420
 16777215
176
     1
 90
        1
176
     1
 90
        4
176
     1
 62
     7
176
     1
 62
   257
176
     1
 90
        7
176
     1
 90
        7
176
     1
 40
1.0
176
     1
 90
        8
176
     1
 62
     7
176
     1
 40
1.0
176
     1
 90
        1
176
     1
 90
        6
176
     1
 90
        2
176
     1
 62
     7
176
     1
 90
        5
176
     1
 90
        0
176
     1
 90
        0
176
     1
290
     0
176
     1
 90
        1
176
     1
 40
0.0
176
     1
 90
        0
176
     1
290
     0
176
     1
290
     1
176
     1
290
     1
176
     1
290
     0
176
     1
290
     0
176
     1
290
     0
176
     1
290
     0
176
     1
290
     0
176
     1
290
     0
176
     1
 90
       50
176
     1
 40
0.0
176
     1
 40
1.0
176
     1
 90
        0
176
     1
 62
    18
420
        0
176
     1
 90
       50
176
     1
 90
        3
176
     1
 62
     5
420
      255
176
     1
290
     0
176
     1
 90
       50
176
     1
 90
       50
176
     1
 90
       50
176
     1
290
     0
176
     1
 90
       50
176
     1
 62
   256
176
     0
 40
1.0
176
     0
 90
        2
176
     1
  1
strokes_ogs.tif
176
     1
290
     0
176
     1
 40
1.0
176
     1
 40
1.0
176
     1
  0
VISUALSTYLE
  5
850
102
{ACAD_REACTORS
330
83E
102
}
330
83E
100
AcDbVisualStyle
  2
OverhangOff
 70
    21
177
     3
291
     1
 70
    58
 90
        2
176
     0
 90
        2
176
     0
 90
        0
176
     0
 90
        0
176
     0
 40
0.6
176
     0
 40
30.0
176
     0
 62
     7
420
 16777215
176
     0
 90
        1
176
     0
 90
        4
176
     0
 62
     7
176
     0
 62
   257
176
     0
 90
        1
176
     0
 90
        1
176
     0
 40
1.0
176
     0
 90
        9
176
     2
 62
     7
176
     0
 40
1.0
176
     0
 90
        1
176
     0
 90
        6
176
     0
 90
        2
176
     0
 62
     7
176
     0
 90
        5
176
     0
 90
        0
176
     0
 90
        0
176
     0
290
     0
176
     0
 90
        1
176
     0
 40
0.0
176
     0
 90
        0
176
     0
290
     0
176
     0
290
     1
176
     0
290
     1
176
     0
290
     0
176
     0
290
     0
176
     0
290
     0
176
     0
290
     0
176
     0
290
     0
176
     0
290
     0
176
     0
 90
       50
176
     0
 40
0.0
176
     0
 40
1.0
176
     0
 90
        0
176
     0
 62
    18
420
        0
176
     0
 90
       50
176
     0
 90
        3
176
     0
 62
     5
420
      255
176
     0
290
     0
176
     0
 90
       50
176
     0
 90
       50
176
     0
 90
       50
176
     0
290
     0
176
     0
 90
       50
176
     0
 62
   256
176
     0
 40
1.0
176
     0
 90
        2
176
     0
  1
strokes_ogs.tif
176
     0
290
     0
176
     0
 40
1.0
176
     0
 40
1.0
176
     0
  0
VISUALSTYLE
  5
847
102
{ACAD_REACTORS
330
83E
102
}
330
83E
100
AcDbVisualStyle
  2
Realistic
 70
     8
177
     3
291
     0
 70
    58
 90
        2
176
     1
 90
        3
176
     1
 90
        0
176
     1
 90
        2
176
     1
 40
0.6
176
     1
 40
30.0
176
     1
 62
     7
420
 16777215
176
     1
 90
        0
176
     1
 90
        0
176
     1
 62
     7
176
     1
 62
   257
176
     1
 90
        1
176
     1
 90
        1
176
     1
 40
1.0
176
     1
 90
        8
176
     1
 62
   257
176
     1
 40
1.0
176
     1
 90
        1
176
     1
 90
        6
176
     1
 90
        2
176
     1
 62
     7
176
     1
 90
        3
176
     1
 90
        0
176
     1
 90
        0
176
     1
290
     0
176
     1
 90
       13
176
     1
 40
0.0
176
     1
 90
        0
176
     1
290
     0
176
     1
290
     1
176
     1
290
     1
176
     1
290
     0
176
     1
290
     0
176
     1
290
     0
176
     1
290
     0
176
     1
290
     0
176
     1
290
     0
176
     1
 90
       50
176
     1
 40
0.0
176
     1
 40
1.0
176
     1
 90
        0
176
     1
 62
    18
420
        0
176
     1
 90
       50
176
     1
 90
        3
176
     1
 62
     5
420
      255
176
     1
290
     0
176
     1
 90
       50
176
     1
 90
       50
176
     1
 90
       50
176
     1
290
     0
176
     1
 90
       50
176
     1
 62
   256
176
     0
 40
1.0
176
     0
 90
        2
176
     1
  1
strokes_ogs.tif
176
     1
290
     0
176
     1
 40
1.0
176
     1
 40
1.0
176
     1
  0
VISUALSTYLE
  5
856
102
{ACAD_REACTORS
330
83E
102
}
330
83E
100
AcDbVisualStyle
  2
Shaded
 70
    27
177
     3
291
     0
 70
    58
 90
        2
176
     1
 90
        2
176
     1
 90
        1
176
     1
 90
        2
176
     1
 40
0.6
176
     1
 40
30.0
176
     1
 62
     7
420
 16777215
176
     1
 90
        0
176
     1
 90
        4
176
     1
 62
     7
176
     1
 62
   257
176
     1
 90
        1
176
     1
 90
        1
176
     1
 40
1.0
176
     1
 90
        8
176
     1
 62
   257
176
     1
 40
1.0
176
     1
 90
        1
176
     1
 90
        6
176
     1
 90
        2
176
     1
 62
     8
420
  7895160
176
     1
 90
        3
176
     1
 90
        0
176
     1
 90
        0
176
     1
290
     0
176
     1
 90
        5
176
     1
 40
0.0
176
     1
 90
        0
176
     1
290
     0
176
     1
290
     1
176
     1
290
     1
176
     1
290
     0
176
     1
290
     0
176
     1
290
     0
176
     1
290
     0
176
     1
290
     0
176
     1
290
     0
176
     1
 90
       50
176
     1
 40
0.0
176
     1
 40
1.0
176
     1
 90
        0
176
     1
 62
    18
420
        0
176
     1
 90
       50
176
     1
 90
        3
176
     1
 62
     5
420
      255
176
     1
290
     0
176
     1
 90
       50
176
     1
 90
       50
176
     1
 90
       50
176
     1
290
     0
176
     1
 90
       50
176
     1
 62
   256
176
     0
 40
1.0
176
     0
 90
        2
176
     1
  1
strokes_ogs.tif
176
     1
290
     0
176
     1
 40
1.0
176
     1
 40
1.0
176
     1
  0
VISUALSTYLE
  5
855
102
{ACAD_REACTORS
330
83E
102
}
330
83E
100
AcDbVisualStyle
  2
Shaded with edges
 70
    26
177
     3
291
     0
 70
    58
 90
        2
176
     1
 90
        2
176
     1
 90
        1
176
     1
 90
        2
176
     1
 40
0.6
176
     1
 40
30.0
176
     1
 62
     7
420
 16777215
176
     1
 90
        1
176
     1
 90
       10
176
     1
 62
     7
176
     1
 62
   257
176
     1
 90
        2
176
     1
 90
        1
176
     1
 40
1.0
176
     1
 90
        8
176
     1
 62
   257
176
     1
 40
1.0
176
     1
 90
        1
176
     1
 90
        6
176
     1
 90
        2
176
     1
 62
     7
176
     1
 90
        3
176
     1
 90
        0
176
     1
 90
        0
176
     1
290
     0
176
     1
 90
        5
176
     1
 40
0.0
176
     1
 90
        0
176
     1
290
     0
176
     1
290
     1
176
     1
290
     1
176
     1
290
     0
176
     1
290
     0
176
     1
290
     0
176
     1
290
     0
176
     1
290
     0
176
     1
290
     0
176
     1
 90
       50
176
     1
 40
0.0
176
     1
 40
1.0
176
     1
 90
        0
176
     1
 62
    18
420
        0
176
     1
 90
       50
176
     1
 90
        3
176
     1
 62
     5
420
      255
176
     1
290
     0
176
     1
 90
       50
176
     1
 90
       50
176
     1
 90
       50
176
     1
290
     0
176
     1
 90
       50
176
     1
 62
   256
176
     0
 40
1.0
176
     0
 90
        2
176
     1
  1
strokes_ogs.tif
176
     1
290
     0
176
     1
 40
1.0
176
     1
 40
1.0
176
     1
  0
VISUALSTYLE
  5
852
102
{ACAD_REACTORS
330
83E
102
}
330
83E
100
AcDbVisualStyle
  2
Shades of Gray
 70
    23
177
     3
291
     0
 70
    58
 90
        2
176
     1
 90
        2
176
     1
 90
        3
176
     1
 90
        0
176
     1
 40
0.6
176
     1
 40
30.0
176
     1
 62
     7
420
 16777215
176
     1
 90
        2
176
     1
 90
        2
176
     1
 62
     7
176
     1
 62
     7
176
     1
 90
        1
176
     1
 90
        1
176
     1
 40
40.0
176
     1
 90
        8
176
     1
 62
     7
176
     1
 40
1.0
176
     1
 90
        1
176
     1
 90
        6
176
     1
 90
        2
176
     1
 62
     7
176
     1
 90
        3
176
     1
 90
        0
176
     1
 90
        0
176
     1
290
     0
176
     1
 90
        1
176
     1
 40
0.0
176
     1
 90
        0
176
     1
290
     0
176
     1
290
     1
176
     1
290
     1
176
     1
290
     0
176
     1
290
     0
176
     1
290
     0
176
     1
290
     0
176
     1
290
     0
176
     1
290
     0
176
     1
 90
       50
176
     1
 40
0.0
176
     1
 40
1.0
176
     1
 90
        0
176
     1
 62
    18
420
        0
176
     1
 90
       50
176
     1
 90
        3
176
     1
 62
     5
420
      255
176
     1
290
     0
176
     1
 90
       50
176
     1
 90
       50
176
     1
 90
       50
176
     1
290
     0
176
     1
 90
       50
176
     1
 62
   256
176
     0
 40
1.0
176
     0
 90
        2
176
     1
  1
strokes_ogs.tif
176
     1
290
     0
176
     1
 40
1.0
176
     1
 40
1.0
176
     1
  0
VISUALSTYLE
  5
853
102
{ACAD_REACTORS
330
83E
102
}
330
83E
100
AcDbVisualStyle
  2
Sketchy
 70
    24
177
     3
291
     0
 70
    58
 90
        1
176
     1
 90
        2
176
     1
 90
        2
176
     1
 90
        0
176
     1
 40
0.6
176
     1
 40
30.0
176
     1
 62
     7
420
 16777215
176
     1
 90
        2
176
     1
 90
        2
176
     1
 62
     7
176
     1
 62
     7
176
     1
 90
        1
176
     1
 90
        1
176
     1
 40
40.0
176
     1
 90
       11
176
     1
 62
     7
176
     1
 40
1.0
176
     1
 90
        1
176
     1
 90
        6
176
     1
 90
        2
176
     1
 62
     7
176
     1
 90
        6
176
     1
 90
        0
176
     1
 90
        0
176
     1
290
     0
176
     1
 90
        1
176
     1
 40
0.0
176
     1
 90
        0
176
     1
290
     0
176
     1
290
     1
176
     1
290
     1
176
     1
290
     0
176
     1
290
     0
176
     1
290
     0
176
     1
290
     0
176
     1
290
     0
176
     1
290
     0
176
     1
 90
       50
176
     1
 40
0.0
176
     1
 40
1.0
176
     1
 90
        0
176
     1
 62
    18
420
        0
176
     1
 90
       50
176
     1
 90
        3
176
     1
 62
     5
420
      255
176
     1
290
     0
176
     1
 90
       50
176
     1
 90
       50
176
     1
 90
       50
176
     1
290
     0
176
     1
 90
       50
176
     1
 62
   256
176
     0
 40
1.0
176
     0
 90
        2
176
     1
  1
strokes_ogs.tif
176
     1
290
     0
176
     1
 40
1.0
176
     1
 40
1.0
176
     1
  0
VISUALSTYLE
  5
84B
102
{ACAD_REACTORS
330
83E
102
}
330
83E
100
AcDbVisualStyle
  2
Thicken
 70
    13
177
     3
291
     1
 70
    58
 90
        2
176
     1
 90
        2
176
     1
 90
        0
176
     1
 90
        0
176
     1
 40
0.6
176
     1
 40
30.0
176
     1
 62
     7
420
 16777215
176
     1
 90
        1
176
     1
 90
        4
176
     1
 62
     7
176
     1
 62
   257
176
     1
 90
        1
176
     1
 90
        1
176
     1
 40
1.0
176
     1
 90
       12
176
     1
 62
     7
176
     1
 40
1.0
176
     1
 90
        1
176
     1
 90
        6
176
     1
 90
        2
176
     1
 62
     7
176
     1
 90
        5
176
     1
 90
        0
176
     1
 90
        0
176
     1
290
     0
176
     1
 90
        1
176
     1
 40
0.0
176
     1
 90
        0
176
     1
290
     0
176
     1
290
     1
176
     1
290
     1
176
     1
290
     0
176
     1
290
     0
176
     1
290
     0
176
     1
290
     0
176
     1
290
     0
176
     1
290
     0
176
     1
 90
       50
176
     1
 40
0.0
176
     1
 40
1.0
176
     1
 90
        0
176
     1
 62
    18
420
        0
176
     1
 90
       50
176
     1
 90
        3
176
     1
 62
     5
420
      255
176
     1
290
     0
176
     1
 90
       50
176
     1
 90
       50
176
     1
 90
       50
176
     1
290
     0
176
     1
 90
       50
176
     1
 62
   256
176
     0
 40
1.0
176
     0
 90
        2
176
     1
  1
strokes_ogs.tif
176
     1
290
     0
176
     1
 40
1.0
176
     1
 40
1.0
176
     1
  0
VISUALSTYLE
  5
844
102
{ACAD_REACTORS
330
83E
102
}
330
83E
100
AcDbVisualStyle
  2
Wireframe
 70
     5
177
     3
291
     0
 70
    58
 90
        0
176
     1
 90
        2
176
     1
 90
        0
176
     1
 90
        0
176
     1
 40
0.6
176
     1
 40
30.0
176
     1
 62
     7
420
 16777215
176
     1
 90
        1
176
     1
 90
        4
176
     1
 62
     7
176
     1
 62
   257
176
     1
 90
        1
176
     1
 90
        1
176
     1
 40
1.0
176
     1
 90
        0
176
     1
 62
   257
176
     1
 40
1.0
176
     1
 90
        1
176
     1
 90
        6
176
     1
 90
        2
176
     1
 62
     7
176
     1
 90
        3
176
     1
 90
        0
176
     1
 90
        0
176
     1
290
     0
176
     1
 90
        1
176
     1
 40
0.0
176
     1
 90
        0
176
     1
290
     0
176
     1
290
     1
176
     1
290
     1
176
     1
290
     0
176
     1
290
     0
176
     1
290
     0
176
     1
290
     0
176
     1
290
     0
176
     1
290
     0
176
     1
 90
       50
176
     1
 40
0.0
176
     1
 40
1.0
176
     1
 90
        0
176
     1
 62
    18
420
        0
176
     1
 90
       50
176
     1
 90
        3
176
     1
 62
     5
420
      255
176
     1
290
     0
176
     1
 90
       50
176
     1
 90
       50
176
     1
 90
       50
176
     1
290
     0
176
     1
 90
       50
176
     1
 62
   256
176
     0
 40
1.0
176
     0
 90
        2
176
     1
  1
strokes_ogs.tif
176
     1
290
     0
176
     1
 40
1.0
176
     1
 40
1.0
176
     1
  0
VISUALSTYLE
  5
854
102
{ACAD_REACTORS
330
83E
102
}
330
83E
100
AcDbVisualStyle
  2
X-Ray
 70
    25
177
     3
291
     0
 70
    58
 90
        2
176
     1
 90
        2
176
     1
 90
        1
176
     1
 90
        1
176
     1
 40
0.5
176
     1
 40
30.0
176
     1
 62
     7
420
 16777215
176
     1
 90
        1
176
     1
 90
        0
176
     1
 62
     7
176
     1
 62
   257
176
     1
 90
        1
176
     1
 90
        1
176
     1
 40
1.0
176
     1
 90
        8
176
     1
 62
     7
176
     1
 40
1.0
176
     1
 90
        1
176
     1
 90
        6
176
     1
 90
        2
176
     1
 62
     7
176
     1
 90
        3
176
     1
 90
        0
176
     1
 90
        0
176
     1
290
     0
176
     1
 90
       13
176
     1
 40
0.0
176
     1
 90
        0
176
     1
290
     0
176
     1
290
     1
176
     1
290
     1
176
     1
290
     0
176
     1
290
     0
176
     1
290
     0
176
     1
290
     0
176
     1
290
     0
176
     1
290
     0
176
     1
 90
       50
176
     1
 40
0.0
176
     1
 40
1.0
176
     1
 90
        0
176
     1
 62
    18
420
        0
176
     1
 90
       50
176
     1
 90
        3
176
     1
 62
     5
420
      255
176
     1
290
     0
176
     1
 90
       50
176
     1
 90
       50
176
     1
 90
       50
176
     1
290
     0
176
     1
 90
       50
176
     1
 62
   256
176
     0
 40
1.0
176
     0
 90
        2
176
     1
  1
strokes_ogs.tif
176
     1
290
     0
176
     1
 40
1.0
176
     1
 40
1.0
176
     1
  0
DICTIONARYVAR
  5
FD2
102
{ACAD_REACTORS
330
F8D
102
}
330
F8D
100
DictionaryVariables
280
     0
  1
1:1
  0
DICTIONARYVAR
  5
F8E
102
{ACAD_REACTORS
330
F8D
102
}
330
F8D
100
DictionaryVariables
280
     0
  1
Standard
  0
DICTIONARYVAR
  5
F8F
102
{ACAD_REACTORS
330
F8D
102
}
330
F8D
100
DictionaryVariables
280
     0
  1
0
  0
DICTIONARY
  5
101D
330
85C
100
AcDbDictionary
280
     1
281
     1
  3
ACAD_ROUNDTRIP_2008_TABLESTYLE_CELLSTYLEMAP
360
101E
  0
CELLSTYLEMAP
  5
101E
102
{ACAD_REACTORS
330
101D
102
}
330
101D
100
AcDbCellStyleMap
 90
        3
300
CELLSTYLE
  1
TABLEFORMAT_BEGIN
 90
        5
170
     1
 91
        0
 92
        0
 62
   257
 93
        1
300
CONTENTFORMAT
  1
CONTENTFORMAT_BEGIN
 90
        0
 91
        0
 92
        4
 93
        0
300

 40
0.0
140
1.0
 94
        5
 62
     0
340
11
144
6.0
309
CONTENTFORMAT_END
171
     1
301
MARGIN
  1
CELLMARGIN_BEGIN
 40
1.5
 40
1.5
 40
1.5
 40
1.5
 40
1.5
 40
1.5
309
CELLMARGIN_END
 94
        6
 95
        1
302
GRIDFORMAT
  1
GRIDFORMAT_BEGIN
 90
        0
 91
        1
 62
     0
 92
       -2
340
14
 93
        0
 40
0.045
309
GRIDFORMAT_END
 95
        2
302
GRIDFORMAT
  1
GRIDFORMAT_BEGIN
 90
        0
 91
        1
 62
     0
 92
       -2
340
14
 93
        0
 40
0.045
309
GRIDFORMAT_END
 95
        4
302
GRIDFORMAT
  1
GRIDFORMAT_BEGIN
 90
        0
 91
        1
 62
     0
 92
       -2
340
14
 93
        0
 40
0.045
309
GRIDFORMAT_END
 95
        8
302
GRIDFORMAT
  1
GRIDFORMAT_BEGIN
 90
        0
 91
        1
 62
     0
 92
       -2
340
14
 93
        0
 40
0.045
309
GRIDFORMAT_END
 95
       16
302
GRIDFORMAT
  1
GRIDFORMAT_BEGIN
 90
        0
 91
        1
 62
     0
 92
       -2
340
14
 93
        0
 40
0.045
309
GRIDFORMAT_END
 95
       32
302
GRIDFORMAT
  1
GRIDFORMAT_BEGIN
 90
        0
 91
        1
 62
     0
 92
       -2
340
14
 93
        0
 40
0.045
309
GRIDFORMAT_END
309
TABLEFORMAT_END
  1
CELLSTYLE_BEGIN
 90
        1
 91
        1
300
_TITLE
309
CELLSTYLE_END
300
CELLSTYLE
  1
TABLEFORMAT_BEGIN
 90
        5
170
     1
 91
        0
 92
        0
 62
   257
 93
        1
300
CONTENTFORMAT
  1
CONTENTFORMAT_BEGIN
 90
        0
 91
        0
 92
        4
 93
        0
300

 40
0.0
140
1.0
 94
        5
 62
     0
340
11
144
4.5
309
CONTENTFORMAT_END
171
     1
301
MARGIN
  1
CELLMARGIN_BEGIN
 40
1.5
 40
1.5
 40
1.5
 40
1.5
 40
1.5
 40
1.5
309
CELLMARGIN_END
 94
        6
 95
        1
302
GRIDFORMAT
  1
GRIDFORMAT_BEGIN
 90
        0
 91
        1
 62
     0
 92
       -2
340
14
 93
        0
 40
0.045
309
GRIDFORMAT_END
 95
        2
302
GRIDFORMAT
  1
GRIDFORMAT_BEGIN
 90
        0
 91
        1
 62
     0
 92
       -2
340
14
 93
        0
 40
0.045
309
GRIDFORMAT_END
 95
        4
302
GRIDFORMAT
  1
GRIDFORMAT_BEGIN
 90
        0
 91
        1
 62
     0
 92
       -2
340
14
 93
        0
 40
0.045
309
GRIDFORMAT_END
 95
        8
302
GRIDFORMAT
  1
GRIDFORMAT_BEGIN
 90
        0
 91
        1
 62
     0
 92
       -2
340
14
 93
        0
 40
0.045
309
GRIDFORMAT_END
 95
       16
302
GRIDFORMAT
  1
GRIDFORMAT_BEGIN
 90
        0
 91
        1
 62
     0
 92
       -2
340
14
 93
        0
 40
0.045
309
GRIDFORMAT_END
 95
       32
302
GRIDFORMAT
  1
GRIDFORMAT_BEGIN
 90
        0
 91
        1
 62
     0
 92
       -2
340
14
 93
        0
 40
0.045
309
GRIDFORMAT_END
309
TABLEFORMAT_END
  1
CELLSTYLE_BEGIN
 90
        2
 91
        1
300
_HEADER
309
CELLSTYLE_END
300
CELLSTYLE
  1
TABLEFORMAT_BEGIN
 90
        5
170
     1
 91
        0
 92
        0
 62
   257
 93
        1
300
CONTENTFORMAT
  1
CONTENTFORMAT_BEGIN
 90
        0
 91
        0
 92
        4
 93
        0
300

 40
0.0
140
1.0
 94
        2
 62
     0
340
11
144
4.5
309
CONTENTFORMAT_END
171
     1
301
MARGIN
  1
CELLMARGIN_BEGIN
 40
1.5
 40
1.5
 40
1.5
 40
1.5
 40
1.5
 40
1.5
309
CELLMARGIN_END
 94
        6
 95
        1
302
GRIDFORMAT
  1
GRIDFORMAT_BEGIN
 90
        0
 91
        1
 62
     0
 92
       -2
340
14
 93
        0
 40
0.045
309
GRIDFORMAT_END
 95
        2
302
GRIDFORMAT
  1
GRIDFORMAT_BEGIN
 90
        0
 91
        1
 62
     0
 92
       -2
340
14
 93
        0
 40
0.045
309
GRIDFORMAT_END
 95
        4
302
GRIDFORMAT
  1
GRIDFORMAT_BEGIN
 90
        0
 91
        1
 62
     0
 92
       -2
340
14
 93
        0
 40
0.045
309
GRIDFORMAT_END
 95
        8
302
GRIDFORMAT
  1
GRIDFORMAT_BEGIN
 90
        0
 91
        1
 62
     0
 92
       -2
340
14
 93
        0
 40
0.045
309
GRIDFORMAT_END
 95
       16
302
GRIDFORMAT
  1
GRIDFORMAT_BEGIN
 90
        0
 91
        1
 62
     0
 92
       -2
340
14
 93
        0
 40
0.045
309
GRIDFORMAT_END
 95
       32
302
GRIDFORMAT
  1
GRIDFORMAT_BEGIN
 90
        0
 91
        1
 62
     0
 92
       -2
340
14
 93
        0
 40
0.045
309
GRIDFORMAT_END
309
TABLEFORMAT_END
  1
CELLSTYLE_BEGIN
 90
        3
 91
        2
300
_DATA
309
CELLSTYLE_END
  0
ENDSEC
  0
EOF
