  0
SECTION
  2
HEADER
  9
$EXTMIN
 10
-18.988474
 20
-2.658512
 30
0.0
  9
$EXTMAX
 10
11.485165
 20
33.828759
 30
0.0
  9
$DIMPOST
  1

  9
$DIMSCALE
 40
1.0
  9
$DIMTXT
 40
3.0
  9
$DIMASZ
 40
3.0
  9
$DIMEXO
 40
0.5
  9
$DIMEXE
 40
0.5
  9
$DIMSE1
 70
     0
  9
$DIMSE2
 70
     0
  9
$DIMBLK
  1
CND_FRECCIA
  9
$DIMBLK1
  1
CND_FRECCIA
  9
$DIMBLK2
  1
CND_PALLINO
  9
$DIMTAD
 70
     0
  9
$DIMTIH
 70
     0
  9
$DIMTIX
 70
     0
  9
$DIMTOL
 70
     0
  0
ENDSEC
  0
SECTION
  2
TABLES
  0
TABLE
  2
LTYPE
 70
    50
  0
LTYPE
  2
CONTINUOUS
 70
     0
  3
Solid line
 72
    65
 73
     0
 40
0.0
  0
LTYPE
  2
DASHED
 70
     0
  3
-- -- --
 72
    65
 73
     2
 40
0.75
 49
0.5
 49
-0.25
  0
LTYPE
  2
HIDDEN
 70
     0
  3
-  -  -  -
 72
    65
 73
     2
 40
0.375
 49
0.25
 49
-0.125
  0
LTYPE
  2
CENTER
 70
     0
  3
-- - -- -
 72
    65
 73
     4
 40
2.0
 49
1.25
 49
-0.25
 49
0.25
 49
-0.25
  0
LTYPE
  2
PHANTOM
 70
     0
  3
-- - - --
 72
    65
 73
     6
 40
2.5
 49
1.25
 49
-0.25
 49
0.25
 49
-0.25
 49
0.25
 49
-0.25
  0
LTYPE
  2
DOT
 70
     0
  3
. . . . .
 72
    65
 73
     2
 40
0.25
 49
0.0
 49
-0.25
  0
LTYPE
  2
DASHDOT
 70
     0
  3
-- . -- .
 72
    65
 73
     4
 40
1.0
 49
0.5
 49
-0.25
 49
0.0
 49
-0.25
  0
LTYPE
  2
BORDER
 70
     0
  3
-- -- . -
 72
    65
 73
     6
 40
1.75
 49
0.5
 49
-0.25
 49
0.5
 49
-0.25
 49
0.0
 49
-0.25
  0
LTYPE
  2
DIVIDE
 70
     0
  3
-- .. -- 
 72
    65
 73
     6
 40
1.25
 49
0.5
 49
-0.25
 49
0.0
 49
-0.25
 49
0.0
 49
-0.25
  0
ENDTAB
  0
TABLE
  2
LAYER
 70
    18
  0
LAYER
  2
Nor_
 70
     0
 62
     1
  6
CONTINUOUS
  0
LAYER
  2
Assi
 70
     0
 62
     2
  6
DASHDOT
  0
LAYER
  2
Fil_
 70
     0
 62
    11
  6
HIDDEN
  0
LAYER
  2
Raf_
 70
     0
 62
     4
  6
HIDDEN
  0
LAYER
  2
Sez_
 70
     0
 62
     6
  6
DASHDOT
  0
LAYER
  2
Sim_
 70
     0
 62
     1
  6
CONTINUOUS
  0
LAYER
  2
Est_
 70
     0
 62
     9
  6
CONTINUOUS
  0
LAYER
  2
Col_
 70
     0
 62
     1
  6
CONTINUOUS
  0
LAYER
  2
Tab_
 70
     0
 62
     1
  6
CONTINUOUS
  0
LAYER
  2
9
 70
     0
 62
     1
  6
CONTINUOUS
  0
LAYER
  2
Tra_
 70
     0
 62
     8
  6
HIDDEN
  0
LAYER
  2
11
 70
     0
 62
     1
  6
CONTINUOUS
  0
LAYER
  2
12
 70
     0
 62
     1
  6
CONTINUOUS
  0
LAYER
  2
sot_
 70
     0
 62
    11
  6
CONTINUOUS
  0
LAYER
  2
tes_
 70
     0
 62
     1
  6
CONTINUOUS
  0
LAYER
  2
fini
 70
     0
 62
    14
  6
CONTINUOUS
  0
LAYER
  2
Campiture
 70
     0
 62
     3
  6
CONTINUOUS
  0
LAYER
  2
Quote
 70
     0
 62
     7
  6
CONTINUOUS
  0
ENDTAB
  0
TABLE
  2
STYLE
 70
     1
  0
STYLE
  2
ROMANS
 70
     0
 40
0.0
 41
0.85
 50
0.0
 71
     0
 42
1.0
  3
ROMANS
  4

  0
ENDTAB
  0
TABLE
  2
DIMSTYLE
 70
     2
  0
DIMSTYLE
  2
CNDRAFT
 70
     0
  3

  4

  5
CND_FRECCIA
  6
CND_PALLINO
  7
CND_FRECCIA
 40
1.0
 41
3.0
 42
0.5
 43
0.0
 44
0.5
 45
0.0
 46
0.0
 47
0.0
 48
0.0
 71
     0
 72
     0
 73
     0
 74
     0
 75
     0
 76
     0
 77
     1
 78
     8
140
3.0
141
0.0
142
0.0
143
25.4
144
1.0
145
0.0
146
0.0
147
0.75
170
     0
171
     0
172
     1
173
     0
174
     0
175
     0
176
     7
177
     7
178
     1
271
     2
272
     3
275
     0
  0
ENDTAB
  0
ENDSEC
  0
SECTION
  2
BLOCKS
  0
BLOCK
  8
0
  2
CND_FRECCIA
 70
    66
 10
0.0
 20
0.0
 30
0.0
  0
INSERT
  8
0
  5
0
  2
FRECCIA
 10
0.0
 20
0.0
 30
0.0
 41
-1.0
  0
ENDBLK
  0
BLOCK
  8
0
  2
CND_PALLINO
 70
    66
 10
0.0
 20
0.0
 30
0.0
  0
INSERT
  8
0
  5
0
  2
PALLINO
 10
0.0
 20
0.0
 30
0.0
 41
-1.0
  0
ENDBLK
  0
BLOCK
  8
0
  2
PALLINO
 70
    66
 10
0.0
 20
0.0
 30
0.0
  0
CIRCLE
  8
Sez_
  5
0
  6
CONTINUOUS
 62
     2
 10
0.0
 20
0.0
 30
0.0
 40
0.231555
  0
ENDBLK
  0
BLOCK
  8
0
  2
FRECCIA
 70
    66
 10
0.0
 20
0.0
 30
0.0
  0
LINE
  8
Nor_
  5
0
  6
CONTINUOUS
 62
    11
 10
0.0
 20
0.0
 30
0.0
 11
1.0
 21
-0.168424
 31
0.0
  0
LINE
  8
Nor_
  5
0
  6
CONTINUOUS
 62
    11
 10
1.0
 20
-0.168424
 30
0.0
 11
0.791691
 21
0.0
 31
0.0
  0
LINE
  8
Nor_
  5
0
  6
CONTINUOUS
 62
    11
 10
0.0
 20
0.0
 30
0.0
 11
1.0
 21
0.182296
 31
0.0
  0
LINE
  8
Nor_
  5
0
  6
CONTINUOUS
 62
    11
 10
1.0
 20
0.182296
 30
0.0
 11
0.791691
 21
0.0
 31
0.0
  0
ENDBLK
  0
ENDSEC
  0
SECTION
  2
ENTITIES
  0
LINE
  8
Assi
  5
0
  6
DASHDOT
 62
     2
 10
0.0
 20
0.0
 30
0.0
 11
0.0
 21
17.045499
 31
0.0
  0
LINE
  8
Nor_
  5
0
  6
CONTINUOUS
 62
     1
 10
6.812132
 20
0.412132
 30
0.0
 11
8.012132
 21
1.612132
 31
0.0
  0
ARC
  8
Nor_
  5
0
  6
CONTINUOUS
 62
     1
 10
6.600000
 20
0.624264
 30
0.0
 40
0.300000
 50
170.000000
 51
315.000000
  0
ARC
  8
Nor_
  5
0
  6
CONTINUOUS
 62
     1
 10
7.800000
 20
1.824264
 30
0.0
 40
0.300000
 50
315.000000
 51
360.000000
  0
LINE
  8
Nor_
  5
0
  6
CONTINUOUS
 62
     1
 10
4.100000
 20
16.075736
 30
0.0
 11
4.100000
 21
14.407476
 31
0.0
  0
ARC
  8
Nor_
  5
0
  6
CONTINUOUS
 62
     1
 10
4.400000
 20
16.075736
 30
0.0
 40
0.300000
 50
135.000000
 51
180.000000
  0
LINE
  8
Nor_
  5
0
  6
CONTINUOUS
 62
     1
 10
4.100000
 20
11.527146
 30
0.0
 11
4.100000
 21
1.7
 31
0.0
  0
ARC
  8
Nor_
  5
0
  6
CONTINUOUS
 62
     1
 10
3.600000
 20
1.700000
 30
0.0
 40
0.500000
 50
270.0
 51
360.000000
  0
LINE
  8
Nor_
  5
0
  6
CONTINUOUS
 62
     1
 10
8.1
 20
1.824264
 30
0.0
 11
8.1
 21
14.375736
 31
0.0
  0
LINE
  8
Nor_
  5
0
  6
CONTINUOUS
 62
     1
 10
8.012132
 20
14.587868
 30
0.0
 11
5.687868
 21
16.912132
 31
0.0
  0
ARC
  8
Nor_
  5
0
  6
CONTINUOUS
 62
     1
 10
7.800000
 20
14.375736
 30
0.0
 40
0.300000
 50
0.0
 51
45.000000
  0
LINE
  8
Nor_
  5
0
  6
CONTINUOUS
 62
     1
 10
5.1
 20
1.933498
 30
0.0
 11
5.1
 21
2.769848
 31
0.0
  0
ARC
  8
Nor_
  5
0
  6
CONTINUOUS
 62
     1
 10
4.800000
 20
1.933498
 30
0.0
 40
0.300000
 50
350.000000
 51
360.000000
  0
ARC
  8
Nor_
  5
0
  6
CONTINUOUS
 62
     1
 10
6.2
 20
2.769848
 30
0.0
 40
1.1
 50
293.195667
 51
540.000000
  0
ARC
  8
Nor_
  5
0
  6
CONTINUOUS
 62
     1
 10
6.751421
 20
1.483017
 30
0.0
 40
0.3
 50
113.195667
 51
170.000000
  0
LINE
  8
Nor_
  5
0
  6
CONTINUOUS
 62
     1
 10
5.475736
 20
17.0
 30
0.0
 11
5.024264
 21
17.0
 31
0.0
  0
ARC
  8
Nor_
  5
0
  6
CONTINUOUS
 62
     1
 10
5.475736
 20
16.700000
 30
0.0
 40
0.300000
 50
45.000000
 51
90.000000
  0
LINE
  8
Nor_
  5
0
  6
CONTINUOUS
 62
     1
 10
4.812132
 20
16.912132
 30
0.0
 11
4.187868
 21
16.287868
 31
0.0
  0
ARC
  8
Nor_
  5
0
  6
CONTINUOUS
 62
     1
 10
5.024264
 20
16.700000
 30
0.0
 40
0.300000
 50
90.0
 51
135.000000
  0
LINE
  8
Nor_
  5
0
  6
CONTINUOUS
 62
     1
 10
3.909188
 20
0.087868
 30
0.0
 11
4.898554
 21
1.077234
 31
0.0
  0
ARC
  8
Nor_
  5
0
  6
CONTINUOUS
 62
     1
 10
3.697056
 20
0.300000
 30
0.0
 40
0.300000
 50
270.0
 51
315.000000
  0
LINE
  8
Nor_
  5
0
  6
CONTINUOUS
 62
     1
 10
5.416361
 20
11.286760
 30
0.0
 11
4.550000
 21
11.786954
 31
0.0
  0
ARC
  8
Nor_
  5
0
  6
CONTINUOUS
 62
     1
 10
4.4
 20
11.527146
 30
0.0
 40
0.3
 50
60.000000
 51
180.000000
  0
ARC
  8
Nor_
  5
0
  6
CONTINUOUS
 62
     1
 10
5.566361
 20
11.546568
 30
0.0
 40
0.300000
 50
240.000000
 51
315.000000
  0
LINE
  8
Nor_
  5
0
  6
CONTINUOUS
 62
     1
 10
4.550000
 20
14.147668
 30
0.0
 11
5.416361
 21
14.647862
 31
0.0
  0
ARC
  8
Nor_
  5
0
  6
CONTINUOUS
 62
     1
 10
4.400000
 20
14.407476
 30
0.0
 40
0.3
 50
180.000000
 51
300.000000
  0
LINE
  8
Nor_
  5
0
  6
CONTINUOUS
 62
     1
 10
6.420000
 20
13.834416
 30
0.0
 11
6.420000
 21
12.100207
 31
0.0
  0
ARC
  8
Nor_
  5
0
  6
CONTINUOUS
 62
     1
 10
6.120000
 20
13.834416
 30
0.0
 40
0.300000
 50
0.0
 51
45.000000
  0
LINE
  8
Nor_
  5
0
  6
CONTINUOUS
 62
     1
 10
5.778493
 20
14.600187
 30
0.0
 11
6.332132
 21
14.046548
 31
0.0
  0
ARC
  8
Nor_
  5
0
  6
CONTINUOUS
 62
     1
 10
5.566361
 20
14.388055
 30
0.0
 40
0.3
 50
45.000000
 51
120.000000
  0
LINE
  8
Nor_
  5
0
  6
CONTINUOUS
 62
     1
 10
6.332132
 20
11.888075
 30
0.0
 11
5.778493
 21
11.334436
 31
0.0
  0
ARC
  8
Nor_
  5
0
  6
CONTINUOUS
 62
     1
 10
6.120000
 20
12.100207
 30
0.0
 40
0.300000
 50
315.000000
 51
360.000000
  0
LINE
  8
Assi
  5
0
  6
DASHDOT
 62
     2
 10
7.849972
 20
2.769739
 30
0.0
 11
4.549972
 21
2.769739
 31
0.0
  0
LINE
  8
Assi
  5
0
  6
DASHDOT
 62
     2
 10
6.199972
 20
1.119739
 30
0.0
 11
6.199972
 21
4.419739
 31
0.0
  0
LINE
  8
Nor_
  5
0
  6
CONTINUOUS
 62
     1
 10
6.455979
 20
1.535112
 30
0.0
 11
6.304558
 21
0.676359
 31
0.0
  0
LINE
  8
Nor_
  5
0
  6
CONTINUOUS
 62
     1
 10
4.981864
 20
1.237271
 30
0.0
 11
5.095442
 21
1.881403
 31
0.0
  0
ARC
  8
Nor_
  5
0
  6
CONTINUOUS
 62
     1
 10
4.686422
 20
1.289366
 30
0.0
 40
0.300000
 50
315.000000
 51
350.000000
  0
CIRCLE
  8
Nor_
  5
0
  6
CONTINUOUS
 62
     1
 10
5.110000
 20
12.967311
 30
0.0
 40
1.310000
  0
CIRCLE
  8
Nor_
  5
0
  6
CONTINUOUS
 62
     1
 10
5.110000
 20
12.967311
 30
0.0
 40
0.300000
  0
LINE
  8
Nor_
  5
0
  6
CONTINUOUS
 62
     1
 10
3.697056
 20
-1.0
 30
0.0
 11
3.697056
 21
0.0
 31
0.0
  0
LINE
  8
Nor_
  5
0
  6
CONTINUOUS
 62
     3
 10
6.320308
 20
12.466597
 30
0.0
 11
5.611194
 21
11.757483
 31
0.0
  0
LINE
  8
Nor_
  5
0
  6
CONTINUOUS
 62
     3
 10
6.386653
 20
12.674363
 30
0.0
 11
5.403361
 21
11.691072
 31
0.0
  0
LINE
  8
Nor_
  5
0
  6
CONTINUOUS
 62
     3
 10
6.413674
 20
12.842805
 30
0.0
 11
5.234455
 21
11.663587
 31
0.0
  0
LINE
  8
Nor_
  5
0
  6
CONTINUOUS
 62
     3
 10
6.419377
 20
12.989929
 30
0.0
 11
5.087256
 21
11.657809
 31
0.0
  0
LINE
  8
Nor_
  5
0
  6
CONTINUOUS
 62
     3
 10
6.410515
 20
13.122488
 30
0.0
 11
4.954994
 21
11.666968
 31
0.0
  0
LINE
  8
Nor_
  5
0
  6
CONTINUOUS
 62
     3
 10
6.390270
 20
13.243665
 30
0.0
 11
4.833824
 21
11.687220
 31
0.0
  0
LINE
  8
Nor_
  5
0
  6
CONTINUOUS
 62
     3
 10
6.360655
 20
13.355471
 30
0.0
 11
4.721501
 21
11.716318
 31
0.0
  0
LINE
  8
Nor_
  5
0
  6
CONTINUOUS
 62
     3
 10
6.323797
 20
13.460035
 30
0.0
 11
4.617652
 21
11.753890
 31
0.0
  0
LINE
  8
Nor_
  5
0
  6
CONTINUOUS
 62
     3
 10
6.279258
 20
13.556918
 30
0.0
 11
4.520059
 21
11.797719
 31
0.0
  0
LINE
  8
Nor_
  5
0
  6
CONTINUOUS
 62
     3
 10
6.229026
 20
13.648107
 30
0.0
 11
4.429445
 21
11.848526
 31
0.0
  0
LINE
  8
Nor_
  5
0
  6
CONTINUOUS
 62
     3
 10
6.172434
 20
13.732936
 30
0.0
 11
5.409830
 21
12.970333
 31
0.0
  0
LINE
  8
Nor_
  5
0
  6
CONTINUOUS
 62
     3
 10
5.106979
 20
12.667481
 30
0.0
 11
4.344261
 21
11.904763
 31
0.0
  0
LINE
  8
Nor_
  5
0
  6
CONTINUOUS
 62
     3
 10
6.110459
 20
13.812382
 30
0.0
 11
5.384761
 21
13.086684
 31
0.0
  0
LINE
  8
Nor_
  5
0
  6
CONTINUOUS
 62
     3
 10
4.990627
 20
12.692550
 30
0.0
 11
4.264895
 21
11.966819
 31
0.0
  0
LINE
  8
Nor_
  5
0
  6
CONTINUOUS
 62
     3
 10
6.043126
 20
13.886470
 30
0.0
 11
5.328723
 21
13.172068
 31
0.0
  0
LINE
  8
Nor_
  5
0
  6
CONTINUOUS
 62
     3
 10
4.905243
 20
12.748588
 30
0.0
 11
4.191033
 21
12.034378
 31
0.0
  0
LINE
  8
Nor_
  5
0
  6
CONTINUOUS
 62
     3
 10
5.970035
 20
13.954801
 30
0.0
 11
5.248326
 21
13.233092
 31
0.0
  0
LINE
  8
Nor_
  5
0
  6
CONTINUOUS
 62
     3
 10
4.844219
 20
12.828986
 30
0.0
 11
4.122158
 21
12.106925
 31
0.0
  0
LINE
  8
Nor_
  5
0
  6
CONTINUOUS
 62
     3
 10
5.891928
 20
14.018116
 30
0.0
 11
5.139469
 21
13.265656
 31
0.0
  0
LINE
  8
Nor_
  5
0
  6
CONTINUOUS
 62
     3
 10
4.811655
 20
12.937843
 30
0.0
 11
4.059399
 21
12.185587
 31
0.0
  0
LINE
  8
Nor_
  5
0
  6
CONTINUOUS
 62
     3
 10
5.807854
 20
14.075462
 30
0.0
 11
4.957833
 21
13.225442
 31
0.0
  0
LINE
  8
Nor_
  5
0
  6
CONTINUOUS
 62
     3
 10
4.851870
 20
13.119479
 30
0.0
 11
4.001772
 21
12.269381
 31
0.0
  0
LINE
  8
Nor_
  5
0
  6
CONTINUOUS
 62
     3
 10
5.718136
 20
14.127166
 30
0.0
 11
3.950127
 21
12.359158
 31
0.0
  0
LINE
  8
Nor_
  5
0
  6
CONTINUOUS
 62
     3
 10
5.622213
 20
14.172664
 30
0.0
 11
3.904708
 21
12.455160
 31
0.0
  0
LINE
  8
Nor_
  5
0
  6
CONTINUOUS
 62
     3
 10
5.519408
 20
14.211281
 30
0.0
 11
3.866000
 21
12.557874
 31
0.0
  0
LINE
  8
Nor_
  5
0
  6
CONTINUOUS
 62
     3
 10
5.408994
 20
14.242288
 30
0.0
 11
3.834907
 21
12.668202
 31
0.0
  0
LINE
  8
Nor_
  5
0
  6
CONTINUOUS
 62
     3
 10
5.290144
 20
14.264860
 30
0.0
 11
3.812887
 21
12.787603
 31
0.0
  0
LINE
  8
Nor_
  5
0
  6
CONTINUOUS
 62
     3
 10
5.159915
 20
14.276051
 30
0.0
 11
3.801373
 21
12.917510
 31
0.0
  0
LINE
  8
Nor_
  5
0
  6
CONTINUOUS
 62
     3
 10
5.016064
 20
14.273623
 30
0.0
 11
3.803803
 21
13.061361
 31
0.0
  0
LINE
  8
Nor_
  5
0
  6
CONTINUOUS
 62
     3
 10
4.852639
 20
14.251619
 30
0.0
 11
3.826100
 21
13.225080
 31
0.0
  0
LINE
  8
Nor_
  5
0
  6
CONTINUOUS
 62
     3
 10
4.655347
 20
14.195748
 30
0.0
 11
3.882179
 21
13.422580
 31
0.0
  0
LINE
  8
Nor_
  5
0
  6
CONTINUOUS
 62
     3
 10
4.356575
 20
14.038398
 30
0.0
 11
4.037725
 21
13.719548
 31
0.0
  0
ARC
  8
Nor_
  5
0
  6
CONTINUOUS
 62
     1
 10
-3.600000
 20
1.700000
 30
0.0
 40
0.500000
 50
180.000000
 51
270.000000
  0
LINE
  8
Nor_
  5
0
  6
CONTINUOUS
 62
     1
 10
-8.012132
 20
1.612132
 30
0.0
 11
-6.812132
 21
0.412132
 31
0.0
  0
ARC
  8
Nor_
  5
0
  6
CONTINUOUS
 62
     1
 10
-7.800000
 20
1.824264
 30
0.0
 40
0.300000
 50
180.000000
 51
225.000000
  0
LINE
  8
Nor_
  5
0
  6
CONTINUOUS
 62
     1
 10
-4.100000
 20
14.407476
 30
0.0
 11
-4.100000
 21
16.075736
 31
0.0
  0
ARC
  8
Nor_
  5
0
  6
CONTINUOUS
 62
     1
 10
-4.400000
 20
16.075736
 30
0.0
 40
0.300000
 50
0.0
 51
45.000000
  0
LINE
  8
Nor_
  5
0
  6
CONTINUOUS
 62
     1
 10
-4.100000
 20
1.7
 30
0.0
 11
-4.100000
 21
11.527146
 31
0.0
  0
LINE
  8
Nor_
  5
0
  6
CONTINUOUS
 62
     1
 10
-8.100000
 20
14.375736
 30
0.0
 11
-8.100000
 21
1.824264
 31
0.0
  0
LINE
  8
Nor_
  5
0
  6
CONTINUOUS
 62
     1
 10
-5.687868
 20
16.912132
 30
0.0
 11
-8.012132
 21
14.587868
 31
0.0
  0
ARC
  8
Nor_
  5
0
  6
CONTINUOUS
 62
     1
 10
-7.8
 20
14.375736
 30
0.0
 40
0.300000
 50
135.000000
 51
180.000000
  0
LINE
  8
Nor_
  5
0
  6
CONTINUOUS
 62
     1
 10
-5.1
 20
2.769848
 30
0.0
 11
-5.1
 21
1.933498
 31
0.0
  0
ARC
  8
Nor_
  5
0
  6
CONTINUOUS
 62
     1
 10
-4.800000
 20
1.933498
 30
0.0
 40
0.300000
 50
180.000000
 51
190.000000
  0
ARC
  8
Nor_
  5
0
  6
CONTINUOUS
 62
     1
 10
-6.2
 20
2.769848
 30
0.0
 40
1.100000
 50
0.0
 51
246.804333
  0
ARC
  8
Nor_
  5
0
  6
CONTINUOUS
 62
     1
 10
-6.751421
 20
1.483017
 30
0.0
 40
0.300000
 50
10.000000
 51
66.804333
  0
LINE
  8
Nor_
  5
0
  6
CONTINUOUS
 62
     1
 10
-5.024264
 20
17.0
 30
0.0
 11
-5.475736
 21
17.0
 31
0.0
  0
ARC
  8
Nor_
  5
0
  6
CONTINUOUS
 62
     1
 10
-5.475736
 20
16.700000
 30
0.0
 40
0.300000
 50
90.0
 51
135.000000
  0
LINE
  8
Nor_
  5
0
  6
CONTINUOUS
 62
     1
 10
-4.187868
 20
16.287868
 30
0.0
 11
-4.812132
 21
16.912132
 31
0.0
  0
ARC
  8
Nor_
  5
0
  6
CONTINUOUS
 62
     1
 10
-5.024264
 20
16.7
 30
0.0
 40
0.300000
 50
45.000000
 51
90.000000
  0
LINE
  8
Nor_
  5
0
  6
CONTINUOUS
 62
     1
 10
-4.898554
 20
1.077234
 30
0.0
 11
-3.909188
 21
0.087868
 31
0.0
  0
ARC
  8
Nor_
  5
0
  6
CONTINUOUS
 62
     1
 10
-3.697056
 20
0.300000
 30
0.0
 40
0.300000
 50
225.000000
 51
270.000000
  0
LINE
  8
Nor_
  5
0
  6
CONTINUOUS
 62
     1
 10
-4.550000
 20
11.786954
 30
0.0
 11
-5.416361
 21
11.286760
 31
0.0
  0
ARC
  8
Nor_
  5
0
  6
CONTINUOUS
 62
     1
 10
-4.4
 20
11.527146
 30
0.0
 40
0.300000
 50
0.0
 51
120.000000
  0
ARC
  8
Nor_
  5
0
  6
CONTINUOUS
 62
     1
 10
-5.566361
 20
11.546568
 30
0.0
 40
0.300000
 50
225.000000
 51
300.000000
  0
LINE
  8
Nor_
  5
0
  6
CONTINUOUS
 62
     1
 10
-5.416361
 20
14.647862
 30
0.0
 11
-4.550000
 21
14.147668
 31
0.0
  0
ARC
  8
Nor_
  5
0
  6
CONTINUOUS
 62
     1
 10
-4.400000
 20
14.407476
 30
0.0
 40
0.300000
 50
240.000000
 51
360.000000
  0
LINE
  8
Nor_
  5
0
  6
CONTINUOUS
 62
     1
 10
-6.42
 20
12.100207
 30
0.0
 11
-6.42
 21
13.834416
 31
0.0
  0
ARC
  8
Nor_
  5
0
  6
CONTINUOUS
 62
     1
 10
-6.120000
 20
13.834416
 30
0.0
 40
0.300000
 50
135.000000
 51
180.000000
  0
LINE
  8
Nor_
  5
0
  6
CONTINUOUS
 62
     1
 10
-6.332132
 20
14.046548
 30
0.0
 11
-5.778493
 21
14.600187
 31
0.0
  0
ARC
  8
Nor_
  5
0
  6
CONTINUOUS
 62
     1
 10
-5.566361
 20
14.388055
 30
0.0
 40
0.300000
 50
60.000000
 51
135.000000
  0
LINE
  8
Nor_
  5
0
  6
CONTINUOUS
 62
     1
 10
-5.778493
 20
11.334436
 30
0.0
 11
-6.332132
 21
11.888075
 31
0.0
  0
ARC
  8
Nor_
  5
0
  6
CONTINUOUS
 62
     1
 10
-6.120000
 20
12.100207
 30
0.0
 40
0.300000
 50
180.000000
 51
225.000000
  0
LINE
  8
Assi
  5
0
  6
DASHDOT
 62
     2
 10
-4.550028
 20
2.769739
 30
0.0
 11
-7.850028
 21
2.769739
 31
0.0
  0
LINE
  8
Assi
  5
0
  6
DASHDOT
 62
     2
 10
-6.200028
 20
1.119739
 30
0.0
 11
-6.200028
 21
4.419739
 31
0.0
  0
ARC
  8
Nor_
  5
0
  6
CONTINUOUS
 62
     1
 10
-6.6
 20
0.624264
 30
0.0
 40
0.300000
 50
225.000000
 51
370.000000
  0
LINE
  8
Nor_
  5
0
  6
CONTINUOUS
 62
     1
 10
-6.304558
 20
0.676359
 30
0.0
 11
-6.455979
 21
1.535112
 31
0.0
  0
LINE
  8
Nor_
  5
0
  6
CONTINUOUS
 62
     1
 10
-5.095442
 20
1.881403
 30
0.0
 11
-4.981864
 21
1.237271
 31
0.0
  0
ARC
  8
Nor_
  5
0
  6
CONTINUOUS
 62
     1
 10
-4.686422
 20
1.289366
 30
0.0
 40
0.3
 50
190.000000
 51
225.000000
  0
LINE
  8
Nor_
  5
0
  6
CONTINUOUS
 62
     1
 10
-3.697056
 20
0.0
 30
0.0
 11
3.697056
 21
0.0
 31
0.0
  0
LINE
  8
Nor_
  5
0
  6
CONTINUOUS
 62
     1
 10
3.600000
 20
1.2
 30
0.0
 11
-3.600000
 21
1.2
 31
0.0
  0
CIRCLE
  8
Nor_
  5
0
  6
CONTINUOUS
 62
     1
 10
-5.110000
 20
12.967311
 30
0.0
 40
1.310000
  0
CIRCLE
  8
Nor_
  5
0
  6
CONTINUOUS
 62
     1
 10
-5.110000
 20
12.967311
 30
0.0
 40
0.300000
  0
LINE
  8
Nor_
  5
0
  6
CONTINUOUS
 62
     1
 10
-3.697056
 20
-1.0
 30
0.0
 11
3.697056
 21
-1.0
 31
0.0
  0
LINE
  8
Nor_
  5
0
  6
CONTINUOUS
 62
     1
 10
-3.697056
 20
-1.0
 30
0.0
 11
-3.697056
 21
-0.0
 31
0.0
  0
LINE
  8
Nor_
  5
0
  6
CONTINUOUS
 62
     3
 10
-3.899692
 20
12.466597
 30
0.0
 11
-4.608806
 21
11.757483
 31
0.0
  0
LINE
  8
Nor_
  5
0
  6
CONTINUOUS
 62
     3
 10
-3.833347
 20
12.674363
 30
0.0
 11
-4.816639
 21
11.691072
 31
0.0
  0
LINE
  8
Nor_
  5
0
  6
CONTINUOUS
 62
     3
 10
-3.806326
 20
12.842805
 30
0.0
 11
-4.985545
 21
11.663587
 31
0.0
  0
LINE
  8
Nor_
  5
0
  6
CONTINUOUS
 62
     3
 10
-3.800623
 20
12.989929
 30
0.0
 11
-5.132744
 21
11.657809
 31
0.0
  0
LINE
  8
Nor_
  5
0
  6
CONTINUOUS
 62
     3
 10
-3.809485
 20
13.122488
 30
0.0
 11
-5.265006
 21
11.666968
 31
0.0
  0
LINE
  8
Nor_
  5
0
  6
CONTINUOUS
 62
     3
 10
-3.829730
 20
13.243665
 30
0.0
 11
-5.386176
 21
11.687220
 31
0.0
  0
LINE
  8
Nor_
  5
0
  6
CONTINUOUS
 62
     3
 10
-3.859345
 20
13.355471
 30
0.0
 11
-5.498499
 21
11.716318
 31
0.0
  0
LINE
  8
Nor_
  5
0
  6
CONTINUOUS
 62
     3
 10
-3.896203
 20
13.460035
 30
0.0
 11
-5.602348
 21
11.753890
 31
0.0
  0
LINE
  8
Nor_
  5
0
  6
CONTINUOUS
 62
     3
 10
-3.940742
 20
13.556918
 30
0.0
 11
-5.699941
 21
11.797719
 31
0.0
  0
LINE
  8
Nor_
  5
0
  6
CONTINUOUS
 62
     3
 10
-3.990974
 20
13.648107
 30
0.0
 11
-5.790555
 21
11.848526
 31
0.0
  0
LINE
  8
Nor_
  5
0
  6
CONTINUOUS
 62
     3
 10
-4.047566
 20
13.732936
 30
0.0
 11
-4.810170
 21
12.970333
 31
0.0
  0
LINE
  8
Nor_
  5
0
  6
CONTINUOUS
 62
     3
 10
-5.113021
 20
12.667481
 30
0.0
 11
-5.875739
 21
11.904763
 31
0.0
  0
LINE
  8
Nor_
  5
0
  6
CONTINUOUS
 62
     3
 10
-4.109541
 20
13.812382
 30
0.0
 11
-4.835239
 21
13.086684
 31
0.0
  0
LINE
  8
Nor_
  5
0
  6
CONTINUOUS
 62
     3
 10
-5.229373
 20
12.692550
 30
0.0
 11
-5.955105
 21
11.966819
 31
0.0
  0
LINE
  8
Nor_
  5
0
  6
CONTINUOUS
 62
     3
 10
-4.176874
 20
13.886470
 30
0.0
 11
-4.891277
 21
13.172068
 31
0.0
  0
LINE
  8
Nor_
  5
0
  6
CONTINUOUS
 62
     3
 10
-5.314757
 20
12.748588
 30
0.0
 11
-6.028967
 21
12.034378
 31
0.0
  0
LINE
  8
Nor_
  5
0
  6
CONTINUOUS
 62
     3
 10
-4.249965
 20
13.954801
 30
0.0
 11
-4.971674
 21
13.233092
 31
0.0
  0
LINE
  8
Nor_
  5
0
  6
CONTINUOUS
 62
     3
 10
-5.375781
 20
12.828986
 30
0.0
 11
-6.097842
 21
12.106925
 31
0.0
  0
LINE
  8
Nor_
  5
0
  6
CONTINUOUS
 62
     3
 10
-4.328072
 20
14.018116
 30
0.0
 11
-5.080531
 21
13.265656
 31
0.0
  0
LINE
  8
Nor_
  5
0
  6
CONTINUOUS
 62
     3
 10
-5.408345
 20
12.937843
 30
0.0
 11
-6.160601
 21
12.185587
 31
0.0
  0
LINE
  8
Nor_
  5
0
  6
CONTINUOUS
 62
     3
 10
-4.412146
 20
14.075462
 30
0.0
 11
-5.262167
 21
13.225442
 31
0.0
  0
LINE
  8
Nor_
  5
0
  6
CONTINUOUS
 62
     3
 10
-5.368130
 20
13.119479
 30
0.0
 11
-6.218228
 21
12.269381
 31
0.0
  0
LINE
  8
Nor_
  5
0
  6
CONTINUOUS
 62
     3
 10
-4.501864
 20
14.127166
 30
0.0
 11
-6.269873
 21
12.359158
 31
0.0
  0
LINE
  8
Nor_
  5
0
  6
CONTINUOUS
 62
     3
 10
-4.597787
 20
14.172664
 30
0.0
 11
-6.315292
 21
12.455160
 31
0.0
  0
LINE
  8
Nor_
  5
0
  6
CONTINUOUS
 62
     3
 10
-4.700592
 20
14.211281
 30
0.0
 11
-6.354000
 21
12.557874
 31
0.0
  0
LINE
  8
Nor_
  5
0
  6
CONTINUOUS
 62
     3
 10
-4.811006
 20
14.242288
 30
0.0
 11
-6.385093
 21
12.668202
 31
0.0
  0
LINE
  8
Nor_
  5
0
  6
CONTINUOUS
 62
     3
 10
-4.929856
 20
14.264860
 30
0.0
 11
-6.407113
 21
12.787603
 31
0.0
  0
LINE
  8
Nor_
  5
0
  6
CONTINUOUS
 62
     3
 10
-5.060085
 20
14.276051
 30
0.0
 11
-6.418627
 21
12.917510
 31
0.0
  0
LINE
  8
Nor_
  5
0
  6
CONTINUOUS
 62
     3
 10
-5.203936
 20
14.273623
 30
0.0
 11
-6.416197
 21
13.061361
 31
0.0
  0
LINE
  8
Nor_
  5
0
  6
CONTINUOUS
 62
     3
 10
-5.367361
 20
14.251619
 30
0.0
 11
-6.393900
 21
13.225080
 31
0.0
  0
LINE
  8
Nor_
  5
0
  6
CONTINUOUS
 62
     3
 10
-5.564653
 20
14.195748
 30
0.0
 11
-6.337821
 21
13.422580
 31
0.0
  0
LINE
  8
Nor_
  5
0
  6
CONTINUOUS
 62
     3
 10
-5.863425
 20
14.038398
 30
0.0
 11
-6.182275
 21
13.719548
 31
0.0
  0
LINE
  8
Nor_
  5
0
  6
CONTINUOUS
 62
     3
 10
3.697056
 20
-0.858579
 30
0.0
 11
3.555635
 21
-1.0
 31
0.0
  0
LINE
  8
Nor_
  5
0
  6
CONTINUOUS
 62
     3
 10
3.697056
 20
-0.717157
 30
0.0
 11
3.414214
 21
-1.0
 31
0.0
  0
LINE
  8
Nor_
  5
0
  6
CONTINUOUS
 62
     3
 10
3.697056
 20
-0.575736
 30
0.0
 11
3.272792
 21
-1.0
 31
0.0
  0
LINE
  8
Nor_
  5
0
  6
CONTINUOUS
 62
     3
 10
3.697056
 20
-0.434315
 30
0.0
 11
3.131371
 21
-1.000000
 31
0.0
  0
LINE
  8
Nor_
  5
0
  6
CONTINUOUS
 62
     3
 10
3.697056
 20
-0.292893
 30
0.0
 11
2.989949
 21
-1.000000
 31
0.0
  0
LINE
  8
Nor_
  5
0
  6
CONTINUOUS
 62
     3
 10
3.697056
 20
-0.151472
 30
0.0
 11
2.848528
 21
-1.000000
 31
0.0
  0
LINE
  8
Nor_
  5
0
  6
CONTINUOUS
 62
     3
 10
3.697056
 20
-0.010051
 30
0.0
 11
2.707107
 21
-1.000000
 31
0.0
  0
LINE
  8
Nor_
  5
0
  6
CONTINUOUS
 62
     3
 10
3.565686
 20
-0.0
 30
0.0
 11
2.565685
 21
-1.000000
 31
0.0
  0
LINE
  8
Nor_
  5
0
  6
CONTINUOUS
 62
     3
 10
3.424264
 20
-0.0
 30
0.0
 11
2.424264
 21
-1.000000
 31
0.0
  0
LINE
  8
Nor_
  5
0
  6
CONTINUOUS
 62
     3
 10
3.282843
 20
-0.0
 30
0.0
 11
2.282842
 21
-1.000000
 31
0.0
  0
LINE
  8
Nor_
  5
0
  6
CONTINUOUS
 62
     3
 10
3.141421
 20
-0.0
 30
0.0
 11
2.141421
 21
-1.000000
 31
0.0
  0
LINE
  8
Nor_
  5
0
  6
CONTINUOUS
 62
     3
 10
3.000000
 20
-0.0
 30
0.0
 11
2.000000
 21
-1.000000
 31
0.0
  0
LINE
  8
Nor_
  5
0
  6
CONTINUOUS
 62
     3
 10
2.858579
 20
-0.0
 30
0.0
 11
1.858578
 21
-1.000000
 31
0.0
  0
LINE
  8
Nor_
  5
0
  6
CONTINUOUS
 62
     3
 10
2.717157
 20
-0.0
 30
0.0
 11
1.717157
 21
-1.000000
 31
0.0
  0
LINE
  8
Nor_
  5
0
  6
CONTINUOUS
 62
     3
 10
2.575736
 20
-0.0
 30
0.0
 11
1.575736
 21
-1.000000
 31
0.0
  0
LINE
  8
Nor_
  5
0
  6
CONTINUOUS
 62
     3
 10
2.434315
 20
-0.0
 30
0.0
 11
1.434314
 21
-1.000000
 31
0.0
  0
LINE
  8
Nor_
  5
0
  6
CONTINUOUS
 62
     3
 10
2.292893
 20
-0.0
 30
0.0
 11
1.292893
 21
-1.000000
 31
0.0
  0
LINE
  8
Nor_
  5
0
  6
CONTINUOUS
 62
     3
 10
2.151472
 20
-0.0
 30
0.0
 11
1.151471
 21
-1.000000
 31
0.0
  0
LINE
  8
Nor_
  5
0
  6
CONTINUOUS
 62
     3
 10
2.010050
 20
-0.0
 30
0.0
 11
1.010050
 21
-1.000000
 31
0.0
  0
LINE
  8
Nor_
  5
0
  6
CONTINUOUS
 62
     3
 10
1.868629
 20
-0.0
 30
0.0
 11
0.868629
 21
-1.000000
 31
0.0
  0
LINE
  8
Nor_
  5
0
  6
CONTINUOUS
 62
     3
 10
1.727208
 20
-0.0
 30
0.0
 11
0.727207
 21
-1.000000
 31
0.0
  0
LINE
  8
Nor_
  5
0
  6
CONTINUOUS
 62
     3
 10
1.585786
 20
0.0
 30
0.0
 11
0.585786
 21
-1.000000
 31
0.0
  0
LINE
  8
Nor_
  5
0
  6
CONTINUOUS
 62
     3
 10
1.444365
 20
0.0
 30
0.0
 11
0.444365
 21
-1.000000
 31
0.0
  0
LINE
  8
Nor_
  5
0
  6
CONTINUOUS
 62
     3
 10
1.302943
 20
0.0
 30
0.0
 11
0.302943
 21
-1.000000
 31
0.0
  0
LINE
  8
Nor_
  5
0
  6
CONTINUOUS
 62
     3
 10
1.161522
 20
0.0
 30
0.0
 11
0.161522
 21
-1.000000
 31
0.0
  0
LINE
  8
Nor_
  5
0
  6
CONTINUOUS
 62
     3
 10
1.020101
 20
0.0
 30
0.0
 11
0.020100
 21
-1.000000
 31
0.0
  0
LINE
  8
Nor_
  5
0
  6
CONTINUOUS
 62
     3
 10
0.878679
 20
0.0
 30
0.0
 11
-0.121321
 21
-1.000000
 31
0.0
  0
LINE
  8
Nor_
  5
0
  6
CONTINUOUS
 62
     3
 10
0.737258
 20
0.0
 30
0.0
 11
-0.262742
 21
-1.000000
 31
0.0
  0
LINE
  8
Nor_
  5
0
  6
CONTINUOUS
 62
     3
 10
0.595837
 20
0.0
 30
0.0
 11
-0.404164
 21
-1.000000
 31
0.0
  0
LINE
  8
Nor_
  5
0
  6
CONTINUOUS
 62
     3
 10
0.454415
 20
0.0
 30
0.0
 11
-0.545585
 21
-1.000000
 31
0.0
  0
LINE
  8
Nor_
  5
0
  6
CONTINUOUS
 62
     3
 10
0.312994
 20
0.0
 30
0.0
 11
-0.687006
 21
-1.000000
 31
0.0
  0
LINE
  8
Nor_
  5
0
  6
CONTINUOUS
 62
     3
 10
0.171572
 20
0.0
 30
0.0
 11
-0.828428
 21
-1.000000
 31
0.0
  0
LINE
  8
Nor_
  5
0
  6
CONTINUOUS
 62
     3
 10
0.030151
 20
0.0
 30
0.0
 11
-0.969849
 21
-1.000000
 31
0.0
  0
LINE
  8
Nor_
  5
0
  6
CONTINUOUS
 62
     3
 10
-0.111270
 20
0.0
 30
0.0
 11
-1.111271
 21
-1.000000
 31
0.0
  0
LINE
  8
Nor_
  5
0
  6
CONTINUOUS
 62
     3
 10
-0.252692
 20
0.0
 30
0.0
 11
-1.252692
 21
-1.000000
 31
0.0
  0
LINE
  8
Nor_
  5
0
  6
CONTINUOUS
 62
     3
 10
-0.394113
 20
0.0
 30
0.0
 11
-1.394113
 21
-1.000000
 31
0.0
  0
LINE
  8
Nor_
  5
0
  6
CONTINUOUS
 62
     3
 10
-0.535534
 20
0.0
 30
0.0
 11
-1.535535
 21
-1.000000
 31
0.0
  0
LINE
  8
Nor_
  5
0
  6
CONTINUOUS
 62
     3
 10
-0.676956
 20
0.0
 30
0.0
 11
-1.676956
 21
-1.000000
 31
0.0
  0
LINE
  8
Nor_
  5
0
  6
CONTINUOUS
 62
     3
 10
-0.818377
 20
0.0
 30
0.0
 11
-1.818378
 21
-1.000000
 31
0.0
  0
LINE
  8
Nor_
  5
0
  6
CONTINUOUS
 62
     3
 10
-0.959799
 20
0.0
 30
0.0
 11
-1.959799
 21
-1.000000
 31
0.0
  0
LINE
  8
Nor_
  5
0
  6
CONTINUOUS
 62
     3
 10
-1.101220
 20
0.0
 30
0.0
 11
-2.101220
 21
-1.000000
 31
0.0
  0
LINE
  8
Nor_
  5
0
  6
CONTINUOUS
 62
     3
 10
-1.242641
 20
0.0
 30
0.0
 11
-2.242642
 21
-1.000000
 31
0.0
  0
LINE
  8
Nor_
  5
0
  6
CONTINUOUS
 62
     3
 10
-1.384063
 20
0.0
 30
0.0
 11
-2.384063
 21
-1.000000
 31
0.0
  0
LINE
  8
Nor_
  5
0
  6
CONTINUOUS
 62
     3
 10
-1.525484
 20
0.0
 30
0.0
 11
-2.525484
 21
-1.000000
 31
0.0
  0
LINE
  8
Nor_
  5
0
  6
CONTINUOUS
 62
     3
 10
-1.666905
 20
0.0
 30
0.0
 11
-2.666906
 21
-1.000000
 31
0.0
  0
LINE
  8
Nor_
  5
0
  6
CONTINUOUS
 62
     3
 10
-1.808327
 20
0.0
 30
0.0
 11
-2.808327
 21
-1.000000
 31
0.0
  0
LINE
  8
Nor_
  5
0
  6
CONTINUOUS
 62
     3
 10
-1.949748
 20
0.0
 30
0.0
 11
-2.949749
 21
-1.000000
 31
0.0
  0
LINE
  8
Nor_
  5
0
  6
CONTINUOUS
 62
     3
 10
-2.091170
 20
0.0
 30
0.0
 11
-3.091170
 21
-1.000000
 31
0.0
  0
LINE
  8
Nor_
  5
0
  6
CONTINUOUS
 62
     3
 10
-2.232591
 20
0.0
 30
0.0
 11
-3.232591
 21
-1.000000
 31
0.0
  0
LINE
  8
Nor_
  5
0
  6
CONTINUOUS
 62
     3
 10
-2.374012
 20
0.0
 30
0.0
 11
-3.374013
 21
-1.000000
 31
0.0
  0
LINE
  8
Nor_
  5
0
  6
CONTINUOUS
 62
     3
 10
-2.515434
 20
0.0
 30
0.0
 11
-3.515434
 21
-1.000000
 31
0.0
  0
LINE
  8
Nor_
  5
0
  6
CONTINUOUS
 62
     3
 10
-2.656855
 20
0.0
 30
0.0
 11
-3.656855
 21
-1.000000
 31
0.0
  0
LINE
  8
Nor_
  5
0
  6
CONTINUOUS
 62
     3
 10
-2.798277
 20
0.0
 30
0.0
 11
-3.697056
 21
-0.898779
 31
0.0
  0
LINE
  8
Nor_
  5
0
  6
CONTINUOUS
 62
     3
 10
-2.939698
 20
0.0
 30
0.0
 11
-3.697056
 21
-0.757358
 31
0.0
  0
LINE
  8
Nor_
  5
0
  6
CONTINUOUS
 62
     3
 10
-3.081119
 20
0.0
 30
0.0
 11
-3.697056
 21
-0.615937
 31
0.0
  0
LINE
  8
Nor_
  5
0
  6
CONTINUOUS
 62
     3
 10
-3.222541
 20
0.0
 30
0.0
 11
-3.697056
 21
-0.474515
 31
0.0
  0
LINE
  8
Nor_
  5
0
  6
CONTINUOUS
 62
     3
 10
-3.363962
 20
0.0
 30
0.0
 11
-3.697056
 21
-0.333094
 31
0.0
  0
LINE
  8
Nor_
  5
0
  6
CONTINUOUS
 62
     3
 10
-3.505383
 20
0.0
 30
0.0
 11
-3.697056
 21
-0.191673
 31
0.0
  0
LINE
  8
Nor_
  5
0
  6
CONTINUOUS
 62
     3
 10
-3.646805
 20
0.0
 30
0.0
 11
-3.697056
 21
-0.050251
 31
0.0
  0
LINE
  8
Quote
  5
0
  6
CONTINUOUS
 62
     7
 10
-4.197056
 20
-1.0
 30
0.0
 11
-13.753308
 21
-1.0
 31
0.0
  0
LINE
  8
Quote
  5
0
  6
CONTINUOUS
 62
     7
 10
-5.975736
 20
17.0
 30
0.0
 11
-13.753308
 21
17.000000
 31
0.0
  0
LINE
  8
Quote
  5
0
  6
CONTINUOUS
 62
     7
 10
-13.253308
 20
-1.0
 30
0.0
 11
-13.253308
 21
17.000000
 31
0.0
  0
INSERT
  8
Quote
  5
0
  6
CONTINUOUS
 62
     7
  2
FRECCIA
 10
-13.253308
 20
-1.0
 30
0.0
 41
3.0
 42
3.0
 43
3.0
 50
90.0
  0
INSERT
  8
Quote
  5
0
  6
CONTINUOUS
 62
     7
  2
FRECCIA
 10
-13.253308
 20
17.000000
 30
0.0
 41
3.0
 42
3.0
 43
3.0
 50
270.0
  0
TEXT
  8
Quote
  5
0
  6
CONTINUOUS
 62
     1
 10
-13.853308
 20
5.920000
 30
0.0
 40
3.0
  1
18
 50
90.0
 41
0.85
  7
ROMANS
  0
LINE
  8
Quote
  5
0
  6
CONTINUOUS
 62
     7
 10
-4.100000
 20
16.575736
 30
0.0
 11
-4.100000
 21
21.934243
 31
0.0
  0
LINE
  8
Quote
  5
0
  6
CONTINUOUS
 62
     7
 10
4.100000
 20
16.575736
 30
0.0
 11
4.100000
 21
21.934243
 31
0.0
  0
LINE
  8
Quote
  5
0
  6
CONTINUOUS
 62
     7
 10
-10.100000
 20
21.434243
 30
0.0
 11
10.100000
 21
21.434243
 31
0.0
  0
INSERT
  8
Quote
  5
0
  6
CONTINUOUS
 62
     7
  2
FRECCIA
 10
-4.100000
 20
21.434243
 30
0.0
 41
3.0
 42
3.0
 43
3.0
 50
180.000000
  0
INSERT
  8
Quote
  5
0
  6
CONTINUOUS
 62
     7
  2
FRECCIA
 10
4.100000
 20
21.434243
 30
0.0
 41
3.0
 42
3.0
 43
3.0
  0
TEXT
  8
Quote
  5
0
  6
CONTINUOUS
 62
     1
 10
-1.235000
 20
22.034243
 30
0.0
 40
3.0
  1
8
 41
0.85
  7
ROMANS
  0
LINE
  8
Quote
  5
0
  6
CONTINUOUS
 62
     7
 10
-8.100000
 20
14.875736
 30
0.0
 11
-8.100000
 21
28.320247
 31
0.0
  0
LINE
  8
Quote
  5
0
  6
CONTINUOUS
 62
     7
 10
8.1
 20
14.875736
 30
0.0
 11
8.1
 21
28.320247
 31
0.0
  0
LINE
  8
Quote
  5
0
  6
CONTINUOUS
 62
     7
 10
-8.100000
 20
27.820247
 30
0.0
 11
8.1
 21
27.820247
 31
0.0
  0
INSERT
  8
Quote
  5
0
  6
CONTINUOUS
 62
     7
  2
FRECCIA
 10
-8.100000
 20
27.820247
 30
0.0
 41
3.0
 42
3.0
 43
3.0
  0
INSERT
  8
Quote
  5
0
  6
CONTINUOUS
 62
     7
  2
FRECCIA
 10
8.1
 20
27.820247
 30
0.0
 41
3.0
 42
3.0
 43
3.0
 50
180.000000
  0
TEXT
  8
Quote
  5
0
  6
CONTINUOUS
 62
     1
 10
-3.835000
 20
28.420247
 30
0.0
 40
3.0
  1
16.2
 41
0.85
  7
ROMANS
  0
ENDSEC
  0
EOF
