  0
SECTION
  2
HEADER
  9
$ACADVER
  1
AC1018
  9
$ACADMAINTVER
 70
   104
  9
$DWGCODEPAGE
  3
ANSI_1252
  9
$LASTSAVEDBY
  1
Dm
  9
$INSBASE
 10
0.0
 20
0.0
 30
0.0
  9
$EXTMIN
 10
261.5173306856025
 20
0.0
 30
0.0
  9
$EXTMAX
 10
471.5173306856108
 20
297.0000000000119
 30
0.0
  9
$LIMMIN
 10
0.0
 20
5.000000000000476
  9
$LIMMAX
 10
205.0000000000001
 20
292.0
  9
$ORTHOMODE
 70
     1
  9
$REGENMODE
 70
     1
  9
$FILLMODE
 70
     1
  9
$QTEXTMODE
 70
     0
  9
$MIRRTEXT
 70
     1
  9
$LTSCALE
 40
1.0
  9
$ATTMODE
 70
     1
  9
$TEXTSIZE
 40
2.5
  9
$TRACEWID
 40
1.0
  9
$TEXTSTYLE
  7
Standard
  9
$CLAYER
  8
AM_0
  9
$CELTYPE
  6
ByLayer
  9
$CECOLOR
 62
   256
  9
$CELTSCALE
 40
1.0
  9
$DISPSILH
 70
     0
  9
$DIMSCALE
 40
1.0
  9
$DIMASZ
 40
3.5
  9
$DIMEXO
 40
0.0
  9
$DIMDLI
 40
10.0
  9
$DIMRND
 40
0.0
  9
$DIMDLE
 40
0.0
  9
$DIMEXE
 40
1.5
  9
$DIMTP
 40
0.1
  9
$DIMTM
 40
0.1
  9
$DIMTXT
 40
3.5
  9
$DIMCEN
 40
0.0
  9
$DIMTSZ
 40
0.0
  9
$DIMTOL
 70
     0
  9
$DIMLIM
 70
     0
  9
$DIMTIH
 70
     0
  9
$DIMTOH
 70
     0
  9
$DIMSE1
 70
     0
  9
$DIMSE2
 70
     0
  9
$DIMTAD
 70
     1
  9
$DIMZIN
 70
     8
  9
$DIMBLK
  1

  9
$DIMASO
 70
     1
  9
$DIMSHO
 70
     1
  9
$DIMPOST
  1

  9
$DIMAPOST
  1
"
  9
$DIMALT
 70
     0
  9
$DIMALTD
 70
     2
  9
$DIMALTF
 40
0.0393701
  9
$DIMLFAC
 40
1.0
  9
$DIMTOFL
 70
     1
  9
$DIMTVP
 40
0.0
  9
$DIMTIX
 70
     0
  9
$DIMSOXD
 70
     0
  9
$DIMSAH
 70
     0
  9
$DIMBLK1
  1

  9
$DIMBLK2
  1

  9
$DIMSTYLE
  2
AM_DIN
  9
$DIMCLRD
 70
   256
  9
$DIMCLRE
 70
   256
  9
$DIMCLRT
 70
     2
  9
$DIMTFAC
 40
0.71
  9
$DIMGAP
 40
1.5
  9
$DIMJUST
 70
     0
  9
$DIMSD1
 70
     0
  9
$DIMSD2
 70
     0
  9
$DIMTOLJ
 70
     0
  9
$DIMTZIN
 70
     0
  9
$DIMALTZ
 70
     0
  9
$DIMALTTZ
 70
     0
  9
$DIMUPT
 70
     0
  9
$DIMDEC
 70
     0
  9
$DIMTDEC
 70
     3
  9
$DIMALTU
 70
     2
  9
$DIMALTTD
 70
     2
  9
$DIMTXSTY
  7
Standard
  9
$DIMAUNIT
 70
     0
  9
$DIMADEC
 70
     0
  9
$DIMALTRND
 40
0.0
  9
$DIMAZIN
 70
     2
  9
$DIMDSEP
 70
    46
  9
$DIMATFIT
 70
     3
  9
$DIMFRAC
 70
     0
  9
$DIMLDRBLK
  1

  9
$DIMLUNIT
 70
     2
  9
$DIMLWD
 70
    -1
  9
$DIMLWE
 70
    -1
  9
$DIMTMOVE
 70
     0
  9
$LUNITS
 70
     2
  9
$LUPREC
 70
     4
  9
$SKETCHINC
 40
1.0
  9
$FILLETRAD
 40
10.0
  9
$AUNITS
 70
     0
  9
$AUPREC
 70
     0
  9
$MENU
  1
.
  9
$ELEVATION
 40
0.0
  9
$PELEVATION
 40
0.0
  9
$THICKNESS
 40
0.0
  9
$LIMCHECK
 70
     0
  9
$CHAMFERA
 40
10.0
  9
$CHAMFERB
 40
10.0
  9
$CHAMFERC
 40
20.0
  9
$CHAMFERD
 40
0.0
  9
$SKPOLY
 70
     0
  9
$TDCREATE
 40
2455097.369131783
  9
$TDUCREATE
 40
2455097.327465116
  9
$TDUPDATE
 40
2455601.359998264
  9
$TDUUPDATE
 40
2455601.318331598
  9
$TDINDWG
 40
0.1746328588
  9
$TDUSRTIMER
 40
0.1746325347
  9
$USRTIMER
 70
     1
  9
$ANGBASE
 50
0.0
  9
$ANGDIR
 70
     0
  9
$PDMODE
 70
     0
  9
$PDSIZE
 40
0.0
  9
$PLINEWID
 40
0.0
  9
$SPLFRAME
 70
     0
  9
$SPLINETYPE
 70
     6
  9
$SPLINESEGS
 70
     8
  9
$HANDSEED
  5
2AE
  9
$SURFTAB1
 70
     6
  9
$SURFTAB2
 70
     6
  9
$SURFTYPE
 70
     6
  9
$SURFU
 70
     6
  9
$SURFV
 70
     6
  9
$UCSBASE
  2

  9
$UCSNAME
  2

  9
$UCSORG
 10
0.0
 20
0.0
 30
0.0
  9
$UCSXDIR
 10
1.0
 20
0.0
 30
0.0
  9
$UCSYDIR
 10
0.0
 20
1.0
 30
0.0
  9
$UCSORTHOREF
  2

  9
$UCSORTHOVIEW
 70
     0
  9
$UCSORGTOP
 10
0.0
 20
0.0
 30
0.0
  9
$UCSORGBOTTOM
 10
0.0
 20
0.0
 30
0.0
  9
$UCSORGLEFT
 10
0.0
 20
0.0
 30
0.0
  9
$UCSORGRIGHT
 10
0.0
 20
0.0
 30
0.0
  9
$UCSORGFRONT
 10
0.0
 20
0.0
 30
0.0
  9
$UCSORGBACK
 10
0.0
 20
0.0
 30
0.0
  9
$PUCSBASE
  2

  9
$PUCSNAME
  2

  9
$PUCSORG
 10
0.0
 20
0.0
 30
0.0
  9
$PUCSXDIR
 10
1.0
 20
0.0
 30
0.0
  9
$PUCSYDIR
 10
0.0
 20
1.0
 30
0.0
  9
$PUCSORTHOREF
  2

  9
$PUCSORTHOVIEW
 70
     0
  9
$PUCSORGTOP
 10
0.0
 20
0.0
 30
0.0
  9
$PUCSORGBOTTOM
 10
0.0
 20
0.0
 30
0.0
  9
$PUCSORGLEFT
 10
0.0
 20
0.0
 30
0.0
  9
$PUCSORGRIGHT
 10
0.0
 20
0.0
 30
0.0
  9
$PUCSORGFRONT
 10
0.0
 20
0.0
 30
0.0
  9
$PUCSORGBACK
 10
0.0
 20
0.0
 30
0.0
  9
$USERI1
 70
     0
  9
$USERI2
 70
     0
  9
$USERI3
 70
     0
  9
$USERI4
 70
     0
  9
$USERI5
 70
     0
  9
$USERR1
 40
0.0
  9
$USERR2
 40
0.0
  9
$USERR3
 40
0.0
  9
$USERR4
 40
0.0
  9
$USERR5
 40
0.0
  9
$WORLDVIEW
 70
     1
  9
$SHADEDGE
 70
     3
  9
$SHADEDIF
 70
    70
  9
$TILEMODE
 70
     1
  9
$MAXACTVP
 70
    64
  9
$PINSBASE
 10
0.0
 20
0.0
 30
0.0
  9
$PLIMCHECK
 70
     0
  9
$PEXTMIN
 10
1.000000000000000E+20
 20
1.000000000000000E+20
 30
1.000000000000000E+20
  9
$PEXTMAX
 10
-1.000000000000000E+20
 20
-1.000000000000000E+20
 30
-1.000000000000000E+20
  9
$PLIMMIN
 10
0.0
 20
0.0
  9
$PLIMMAX
 10
420.0
 20
297.0
  9
$UNITMODE
 70
     0
  9
$VISRETAIN
 70
     1
  9
$PLINEGEN
 70
     0
  9
$PSLTSCALE
 70
     1
  9
$TREEDEPTH
 70
  3020
  9
$CMLSTYLE
  2
Standard
  9
$CMLJUST
 70
     0
  9
$CMLSCALE
 40
20.0
  9
$PROXYGRAPHICS
 70
     1
  9
$MEASUREMENT
 70
     1
  9
$CELWEIGHT
370
    -1
  9
$ENDCAPS
280
     0
  9
$JOINSTYLE
280
     0
  9
$LWDISPLAY
290
     0
  9
$INSUNITS
 70
     4
  9
$HYPERLINKBASE
  1

  9
$STYLESHEET
  1

  9
$XEDIT
290
     1
  9
$CEPSNTYPE
380
     0
  9
$PSTYLEMODE
290
     1
  9
$FINGERPRINTGUID
  2
{0B84B04B-173C-4749-89A4-F6469E356B2B}
  9
$VERSIONGUID
  2
{D68ED4B9-F7A0-4CBC-8CE3-920351FE8082}
  9
$EXTNAMES
290
     1
  9
$PSVPSCALE
 40
0.0
  9
$OLESTARTUP
290
     0
  9
$SORTENTS
280
   127
  9
$INDEXCTL
280
     0
  9
$HIDETEXT
280
     1
  9
$XCLIPFRAME
290
     0
  9
$HALOGAP
280
     0
  9
$OBSCOLOR
 70
   257
  9
$OBSLTYPE
280
     0
  9
$INTERSECTIONDISPLAY
280
     0
  9
$INTERSECTIONCOLOR
 70
   257
  9
$DIMASSOC
280
     1
  9
$PROJECTNAME
  1

  0
ENDSEC
  0
SECTION
  2
CLASSES
  0
CLASS
  1
ACDBDICTIONARYWDFLT
  2
AcDbDictionaryWithDefault
  3
ObjectDBX Classes
 90
        0
 91
        1
280
     0
281
     0
  0
CLASS
  1
ACME_DOCUMENT
  2
AcMeDbDoc
  3
AcMeServices
 90
     1024
 91
        1
280
     0
281
     0
  0
CLASS
  1
AMGSETTINGSOBJ
  2
AmgSettingsObj
  3
"AcadM|Product Description: AutoCAD Mechanical|Company: Autodesk, Inc."
 90
     1024
 91
        2
280
     0
281
     0
  0
CLASS
  1
ACMESCOPE
  2
AcMeScope
  3
AcMeServices
 90
     1024
 91
        1
280
     0
281
     0
  0
CLASS
  1
ACMECOMMANDHISTORY
  2
AcMeCommandHistory
  3
AcMeServices
 90
     1024
 91
        1
280
     0
281
     0
  0
CLASS
  1
DICTIONARYVAR
  2
AcDbDictionaryVar
  3
ObjectDBX Classes
 90
        0
 91
        3
280
     0
281
     0
  0
CLASS
  1
ACIMSYSVARMAN
  2
AcImSysVarManager
  3
AcMeServices
 90
     1024
 91
        4
280
     0
281
     0
  0
CLASS
  1
ACIMREALSYSVAR
  2
AcImRealSysVar
  3
AcMeServices
 90
     1024
 91
        1
280
     0
281
     0
  0
CLASS
  1
ACIMINTSYSVAR
  2
AcImIntSysVar
  3
AcMeServices
 90
     1024
 91
       27
280
     0
281
     0
  0
CLASS
  1
ACMEDRAWINGMAN
  2
AcMeDrawingMan
  3
AcMeServices
 90
     1024
 91
        0
280
     0
281
     0
  0
CLASS
  1
ACMEVIEW
  2
AcMeView
  3
AcMeServices
 90
     1024
 91
        0
280
     0
281
     0
  0
CLASS
  1
ACDBENTITYCACHE
  2
AcMeEntityCache
  3
AcMeServices
 90
     1024
 91
        1
280
     0
281
     0
  0
CLASS
  1
GSMANAGER
  2
AcMeGSManager
  3
AcMeServices
 90
     1024
 91
        0
280
     0
281
     0
  0
CLASS
  1
AMDTINTERNALREACTOR
  2
AmdtInternalReactor
  3
AcMeServices
 90
     1024
 91
        1
280
     0
281
     0
  0
CLASS
  1
ACMESTATEMGR
  2
AcMeStateMgr
  3
AcMeServices
 90
     1024
 91
        1
280
     0
281
     0
  0
CLASS
  1
ACME_DATABASE
  2
AcMeDbDatabase
  3
AcMeServices
 90
     1024
 91
        3
280
     0
281
     0
  0
CLASS
  1
ACRFINSADJUSTERMGR
  2
AcRfInsAdjusterMgr
  3
AcMeServices
 90
     1024
 91
        1
280
     0
281
     0
  0
CLASS
  1
ACMDATADICTIONARY
  2
AcmDataDictionary
  3
"AcmSymBB|Product Description: AutoCAD Mechanical|Company: Autodesk, Inc."
 90
     1024
 91
        1
280
     0
281
     0
  0
CLASS
  1
ACMDATAENTRYBLOCK
  2
AcmDataEntryBlock
  3
AcmSymBB|Product Description: AutoCAD Mechanical|Company: Autodesk, Inc.
 90
     1024
 91
        2
280
     0
281
     0
  0
CLASS
  1
AMGOBJPROPCFG
  2
AmgObjPropCfg
  3
"AmgLay|Product Description: AutoCAD Mechanical|Company: Autodesk, Inc."
 90
     1025
 91
        1
280
     0
281
     0
  0
CLASS
  1
LAYER_INDEX
  2
AcDbLayerIndex
  3
ObjectDBX Classes
 90
        0
 91
        0
280
     0
281
     0
  0
CLASS
  1
IDBUFFER
  2
AcDbIdBuffer
  3
ObjectDBX Classes
 90
        0
 91
        0
280
     0
281
     0
  0
CLASS
  1
ACAMGFILTERDAT
  2
AcAmgFilterDat
  3
"AcadM|Product Description: AutoCAD Mechanical|Company: Autodesk, Inc."
 90
     1024
 91
        6
280
     0
281
     0
  0
CLASS
  1
ACIMSTRSYSVAR
  2
AcImStrSysVar
  3
AcMeServices
 90
     1024
 91
        5
280
     0
281
     0
  0
CLASS
  1
ACMSTANDARDISO
  2
AcmStandardISO
  3
"Amdt_StdImp|Product Description: AutoCAD Mechanical|Company: Autodesk, Inc."
 90
     1024
 91
        0
280
     0
281
     0
  0
CLASS
  1
AMDTEDGESTANDARDISO
  2
AmdtEdgeStdISO
  3
"Amdt_StdImp|Product Description: AutoCAD Mechanical|Company: Autodesk, Inc."
 90
     1024
 91
        0
280
     0
281
     0
  0
CLASS
  1
ACMSURFSTANDARDISO
  2
AcmSurfTextStdISO
  3
"Amdt_StdImp|Product Description: AutoCAD Mechanical|Company: Autodesk, Inc."
 90
     1024
 91
        0
280
     0
281
     0
  0
CLASS
  1
ACMFCFSTANDARDISO
  2
AcmFCFStdISO
  3
"Amdt_StdImp|Product Description: AutoCAD Mechanical|Company: Autodesk, Inc."
 90
     1024
 91
        0
280
     0
281
     0
  0
CLASS
  1
ACMWELDSTANDARDISO
  2
AcmWeldingStdISO
  3
"Amdt_StdImp|Product Description: AutoCAD Mechanical|Company: Autodesk, Inc."
 90
     1024
 91
        0
280
     0
281
     0
  0
CLASS
  1
ACMIDSTANDARDISO
  2
AcmIdStdISO
  3
"Amdt_StdImp|Product Description: AutoCAD Mechanical|Company: Autodesk, Inc."
 90
     1024
 91
        0
280
     0
281
     0
  0
CLASS
  1
ACMDATUMSTANDARDISO
  2
AcmDatumStdISO
  3
"Amdt_StdImp|Product Description: AutoCAD Mechanical|Company: Autodesk, Inc."
 90
     1024
 91
        0
280
     0
281
     0
  0
CLASS
  1
ACMBOMSTANDARDISO
  2
AcmBOMStdISO
  3
"Amdt_StdImp|Product Description: AutoCAD Mechanical|Company: Autodesk, Inc."
 90
     1024
 91
        0
280
     0
281
     0
  0
CLASS
  1
ACMSTANDARDDIN
  2
AcmStandardDIN
  3
"Amdt_StdImp|Product Description: AutoCAD Mechanical|Company: Autodesk, Inc."
 90
     1024
 91
        1
280
     0
281
     0
  0
CLASS
  1
AMDTEDGESTANDARDDIN
  2
AmdtEdgeStdDIN
  3
"Amdt_StdImp|Product Description: AutoCAD Mechanical|Company: Autodesk, Inc."
 90
     1024
 91
        0
280
     0
281
     0
  0
CLASS
  1
ACMSURFSTANDARDDIN
  2
AcmSurfTextStdDIN
  3
"Amdt_StdImp|Product Description: AutoCAD Mechanical|Company: Autodesk, Inc."
 90
     1024
 91
        0
280
     0
281
     0
  0
CLASS
  1
ACMFCFSTANDARDDIN
  2
AcmFCFStdDIN
  3
"Amdt_StdImp|Product Description: AutoCAD Mechanical|Company: Autodesk, Inc."
 90
     1024
 91
        1
280
     0
281
     0
  0
CLASS
  1
ACMWELDSTANDARDDIN
  2
AcmWeldingStdDIN
  3
"Amdt_StdImp|Product Description: AutoCAD Mechanical|Company: Autodesk, Inc."
 90
     1024
 91
        1
280
     0
281
     0
  0
CLASS
  1
ACMIDSTANDARDDIN
  2
AcmIdStdDIN
  3
"Amdt_StdImp|Product Description: AutoCAD Mechanical|Company: Autodesk, Inc."
 90
     1024
 91
        1
280
     0
281
     0
  0
CLASS
  1
ACMDATUMSTANDARDDIN
  2
AcmDatumStdDIN
  3
"Amdt_StdImp|Product Description: AutoCAD Mechanical|Company: Autodesk, Inc."
 90
     1024
 91
        1
280
     0
281
     0
  0
CLASS
  1
ACMBOMSTANDARDDIN
  2
AcmBOMStdDIN
  3
"Amdt_StdImp|Product Description: AutoCAD Mechanical|Company: Autodesk, Inc."
 90
     1024
 91
        1
280
     0
281
     0
  0
CLASS
  1
ACGREFMASTER
  2
AcGrefMaster
  3
AcAttribServices
 90
     1024
 91
        1
280
     0
281
     0
  0
CLASS
  1
ACGREFACADMASTER
  2
AcGrefacadMaster
  3
AcGrefServices
 90
     1024
 91
        1
280
     0
281
     0
  0
CLASS
  1
AMIMASTER
  2
AmiMaster
  3
AmiServices
 90
     1024
 91
        1
280
     0
281
     0
  0
CLASS
  1
ACAMGTITLESTD
  2
AcAmgTitleStd
  3
"AmgTitle|Product Description: AutoCAD Mechanical|Company: Autodesk, Inc."
 90
     4095
 91
        1
280
     0
281
     0
  0
CLASS
  1
ACMDETAILSTANDARDISO
  2
AmdtDetailSymStdISO
  3
"Amdt_StdImp|Product Description: AutoCAD Mechanical|Company: Autodesk, Inc."
 90
     1024
 91
        0
280
     0
281
     0
  0
CLASS
  1
ACMSECTIONSTANDARDISO
  2
AmdtSectionSymStdISO
  3
"Amdt_StdImp|Product Description: AutoCAD Mechanical|Company: Autodesk, Inc."
 90
     1024
 91
        0
280
     0
281
     0
  0
CLASS
  1
ACMCENTERLINESTANDARDISO
  2
AmdtCenterLineStdISO
  3
"Amdt_StdImp|Product Description: AutoCAD Mechanical|Company: Autodesk, Inc."
 90
     1024
 91
        0
280
     0
281
     0
  0
CLASS
  1
ACMNOTESTANDARDISO
  2
AmdtNoteStdISO
  3
"Amdt_StdImp|Product Description: AutoCAD Mechanical|Company: Autodesk, Inc."
 90
     1024
 91
        0
280
     0
281
     0
  0
CLASS
  1
ACMDETAILSTANDARDDIN
  2
AmdtDetailSymStdDIN
  3
"Amdt_StdImp|Product Description: AutoCAD Mechanical|Company: Autodesk, Inc."
 90
     1024
 91
        1
280
     0
281
     0
  0
CLASS
  1
ACMSECTIONSTANDARDDIN
  2
AmdtSectionSymStdDIN
  3
"Amdt_StdImp|Product Description: AutoCAD Mechanical|Company: Autodesk, Inc."
 90
     1024
 91
        1
280
     0
281
     0
  0
CLASS
  1
ACMCENTERLINESTANDARDDIN
  2
AmdtCenterLineStdDIN
  3
"Amdt_StdImp|Product Description: AutoCAD Mechanical|Company: Autodesk, Inc."
 90
     1024
 91
        1
280
     0
281
     0
  0
CLASS
  1
ACMNOTESTANDARDDIN
  2
AmdtNoteStdDIN
  3
"Amdt_StdImp|Product Description: AutoCAD Mechanical|Company: Autodesk, Inc."
 90
     1024
 91
        1
280
     0
281
     0
  0
CLASS
  1
ACAMGLAYSTD
  2
AcAmgLayStd
  3
"AmgLay|Product Description: AutoCAD Mechanical|Company: Autodesk, Inc."
 90
     1024
 91
        1
280
     0
281
     0
  0
CLASS
  1
ACAMGDIMSTD
  2
AcAmgDimStd
  3
"AmgDim|Product Description: AutoCAD Mechanical|Company: Autodesk, Inc."
 90
     1024
 91
        1
280
     0
281
     0
  0
CLASS
  1
ACAMGHOLECHARTSTDDIN
  2
AcAmgHoleChartStdDIN
  3
AmgDim|Product Description: AutoCAD Mechanical|Company: Autodesk, Inc.
 90
     1024
 91
        1
280
     0
281
     0
  0
CLASS
  1
ACAMGHOLECHARTSTDISO
  2
AcAmgHoleChartStdISO
  3
AmgDim|Product Description: AutoCAD Mechanical|Company: Autodesk, Inc.
 90
     1024
 91
        0
280
     0
281
     0
  0
CLASS
  1
AMDTNOTE
  2
AmdtNote
  3
"AcmSymBB|Product Description: AutoCAD Mechanical|Company: Autodesk, Inc."
 90
     4095
 91
        0
280
     0
281
     1
  0
CLASS
  1
AMDTFORMULAUPDATEDISPATCHER
  2
AmdtFormulaUpdateDispatcher
  3
AcMeServices
 90
     1024
 91
        0
280
     0
281
     0
  0
CLASS
  1
PLOTSETTINGS
  2
AcDbPlotSettings
  3
ObjectDBX Classes
 90
        0
 91
        0
280
     0
281
     0
  0
CLASS
  1
TABLESTYLE
  2
AcDbTableStyle
  3
ObjectDBX Classes
 90
     4095
 91
        2
280
     0
281
     0
  0
CLASS
  1
AM_DRAWING_MGR
  2
AcDmDwgMgr
  3
AcMechDwgViewMgmt
 90
     1024
 91
        1
280
     0
281
     0
  0
CLASS
  1
AM_DWG_DOCUMENT
  2
AcDmDwgDocument
  3
AcMechDwgViewMgmt
 90
     1024
 91
        1
280
     0
281
     0
  0
CLASS
  1
AM_DWG_SHEET
  2
AcDmSheet
  3
AcMechDwgViewMgmt
 90
     1024
 91
        1
280
     0
281
     0
  0
CLASS
  1
AM_VIEWDIMPARMAP
  2
AcDmViewDimParMap
  3
AcMechDwgViewMgmt
 90
     1024
 91
        1
280
     0
281
     0
  0
CLASS
  1
AM_DWGMGR_NAME
  2
AcDmDwgMgrName
  3
AcMechDwgViewMgmt
 90
     1024
 91
        1
280
     0
281
     0
  0
CLASS
  1
AMDTMENUSTATEMGR
  2
AmdtMenuStateMgr
  3
McadcomServices
 90
     1024
 91
        1
280
     0
281
     0
  0
CLASS
  1
AMDTMCOMMENUSTATE
  2
AmdtMcomMenuState
  3
McadcomServices
 90
     1024
 91
        1
280
     0
281
     0
  0
CLASS
  1
MAPIAMMOUDLE
  2
MApiAmModule
  3
MApiAmServices
 90
     1024
 91
        1
280
     0
281
     0
  0
CLASS
  1
AMDTADMENUSTATE
  2
AmdtAdMenuState
  3
DesignerServices
 90
     1024
 91
        0
280
     0
281
     0
  0
CLASS
  1
ADAPPL
  2
AcAdAppl
  3
DesignerAssemblies
 90
     1024
 91
        0
280
     0
281
     0
  0
CLASS
  1
DEPMGR
  2
AcAdDepMgr
  3
DesignerAssemblies
 90
     1024
 91
        0
280
     0
281
     0
  0
CLASS
  1
PARAMMGR
  2
AcAdParamMgr
  3
DesignerAssemblies
 90
     1024
 91
        0
280
     0
281
     0
  0
CLASS
  1
PARAMSCOPE
  2
AcAdParamScope
  3
DesignerAssemblies
 90
     1024
 91
        0
280
     0
281
     0
  0
CLASS
  1
NAMEDAPPL
  2
AcAdNamedAppl
  3
DesignerAssemblies
 90
     1024
 91
        0
280
     0
281
     0
  0
CLASS
  1
AMDTDMMENUSTATE
  2
AmdtDmMenuState
  3
AcMechDwgViewMgmt
 90
     1024
 91
        1
280
     0
281
     0
  0
CLASS
  1
AMDTAMMENUSTATE
  2
AmdtAmMenuState
  3
DesignerAssemblies
 90
     1024
 91
        1
280
     0
281
     0
  0
CLASS
  1
ACAMPROJECT
  2
AcAmProject
  3
DesignerAssemblies
 90
     1024
 91
        1
280
     0
281
     0
  0
CLASS
  1
ACAMGRCOMPDEF
  2
AcAmGrCompDef
  3
DesignerAssemblies
 90
     1024
 91
        1
280
     0
281
     0
  0
CLASS
  1
ACCMCONTEXT
  2
AcCmContext
  3
DesignerAssemblies
 90
     1024
 91
        0
280
     0
281
     0
  0
CLASS
  1
ACAMCOMPDEF
  2
AcAmCompDef
  3
DesignerAssemblies
 90
     1024
 91
        1
280
     0
281
     0
  0
CLASS
  1
ACAMCOMPDEFMGR
  2
AcAmCompDefMgr
  3
DesignerAssemblies
 90
     1024
 91
        1
280
     0
281
     0
  0
CLASS
  1
AMCONTEXTMGR
  2
AcAmContextMgr
  3
DesignerAssemblies
 90
     1024
 91
        1
280
     0
281
     0
  0
CLASS
  1
ACAMCONTEXTMODELER
  2
AcAmContextModeler
  3
DesignerAssemblies
 90
     1024
 91
        1
280
     0
281
     0
  0
CLASS
  1
ACMTHREADLINESTANDARDISO
  2
AmdtThreadLineStdISO
  3
"Amdt_StdImp|Product Description: AutoCAD Mechanical|Company: Autodesk, Inc."
 90
     1024
 91
        0
280
     0
281
     0
  0
CLASS
  1
ACMTHREADLINESTANDARDDIN
  2
AmdtThreadLineStdDIN
  3
"Amdt_StdImp|Product Description: AutoCAD Mechanical|Company: Autodesk, Inc."
 90
     1024
 91
        1
280
     0
281
     0
  0
CLASS
  1
CATALOGSTATE
  2
AcAmCatalogState
  3
DesignerAssemblies
 90
     1024
 91
        0
280
     0
281
     0
  0
CLASS
  1
ACAMGRCOMPDEFSET
  2
AcAmGrCompDefSet
  3
DesignerAssemblies
 90
     1024
 91
        1
280
     0
281
     0
  0
CLASS
  1
AMDTBROWSERDBTAB
  2
AmdtBrowserDbTab
  3
McadcomServices
 90
     1024
 91
        1
280
     0
281
     0
  0
CLASS
  1
CBROWSERAPPOBJECT
  2
CBrowserAppObject
  3
McadcomServices
 90
     1024
 91
        2
280
     0
281
     0
  0
CLASS
  1
DM_PLACEHOLDER
  2
AcDmSelsetPlaceholder
  3
AcMechDwgViewMgmt
 90
     1024
 91
        1
280
     0
281
     0
  0
CLASS
  1
MATERIAL
  2
AcDbMaterial
  3
ObjectDBX Classes
 90
     1153
 91
        3
280
     0
281
     0
  0
CLASS
  1
VISUALSTYLE
  2
AcDbVisualStyle
  3
ObjectDBX Classes
 90
     4095
 91
       25
280
     0
281
     0
  0
CLASS
  1
ACRFATTGENMGR
  2
AcRfAttGeneralMgr
  3
AcAttribServices
 90
     1024
 91
        0
280
     0
281
     0
  0
CLASS
  1
ACRFOBJATTMGR
  2
AcRfObjAttGroupMgr
  3
AcAttribServices
 90
     1024
 91
        0
280
     0
281
     0
  0
CLASS
  1
ACRFMCADAPIATTHOLDER
  2
AcRfMCADAPIAttHolder
  3
AcAttribServices
 90
     1024
 91
        0
280
     0
281
     0
  0
CLASS
  1
AMDTSYSATTR
  2
AmdtSystemAttribute
  3
AcAttribServices
 90
     1024
 91
        0
280
     0
281
     0
  0
CLASS
  1
ACMTAPERSTANDARDISO
  2
AcmTaperStdISO
  3
"Amdt_StdImp|Product Description: AutoCAD Mechanical|Company: Autodesk, Inc."
 90
     1024
 91
        0
280
     0
281
     0
  0
CLASS
  1
ACMTAPERSTANDARDDIN
  2
AcmTaperStdDIN
  3
"Amdt_StdImp|Product Description: AutoCAD Mechanical|Company: Autodesk, Inc."
 90
     1024
 91
        1
280
     0
281
     0
  0
CLASS
  1
ACAD_TABLE
  2
AcDbTable
  3
ObjectDBX Classes
 90
     1025
 91
        0
280
     0
281
     1
  0
CLASS
  1
CAMSSTRUCTBTNSTATE
  2
StructBtnState
  3
DesignerAssemblies
 90
     1024
 91
        0
280
     0
281
     0
  0
CLASS
  1
SCALE
  2
AcDbScale
  3
ObjectDBX Classes
 90
     1153
 91
       17
280
     0
281
     0
  0
CLASS
  1
MLEADERSTYLE
  2
AcDbMLeaderStyle
  3
ACDB_MLEADERSTYLE_CLASS
 90
     4095
 91
        1
280
     0
281
     0
  0
CLASS
  1
ACMANOOTATIONVIEWSTANDARDISO
  2
AmdtAnViewStdISO
  3
"Amdt_StdImp|Product Description: AutoCAD Mechanical|Company: Autodesk, Inc."
 90
     1024
 91
        0
280
     0
281
     0
  0
CLASS
  1
ACMANOOTATIONVIEWSTANDARDDIN
  2
AmdtAnViewStdDIN
  3
"Amdt_StdImp|Product Description: AutoCAD Mechanical|Company: Autodesk, Inc."
 90
     1024
 91
        1
280
     0
281
     0
  0
CLASS
  1
CELLSTYLEMAP
  2
AcDbCellStyleMap
  3
ObjectDBX Classes
 90
     1152
 91
        4
280
     0
281
     0
  0
CLASS
  1
RASTERVARIABLES
  2
AcDbRasterVariables
  3
ISM
 90
        0
 91
        1
280
     0
281
     0
  0
CLASS
  1
SORTENTSTABLE
  2
AcDbSortentsTable
  3
ObjectDBX Classes
 90
        0
 91
        3
280
     0
281
     0
  0
CLASS
  1
IMAGE
  2
AcDbRasterImage
  3
ISM
 90
     2175
 91
        1
280
     0
281
     1
  0
CLASS
  1
IMAGEDEF_REACTOR
  2
AcDbRasterImageDefReactor
  3
ISM
 90
        1
 91
        1
280
     0
281
     0
  0
CLASS
  1
IMAGEDEF
  2
AcDbRasterImageDef
  3
ISM
 90
        0
 91
        1
280
     0
281
     0
  0
CLASS
  1
AMDTEDGESTANDARDDIN13715
  2
AmdtEdgeStdDIN13715
  3
"Amdt_StdImp|Product Description: AutoCAD Mechanical|Company: Autodesk, Inc."
 90
     1024
 91
        1
280
     0
281
     0
  0
CLASS
  1
ACMSURFSTANDARDDIN2002
  2
AcmSurfTextStdDIN2002
  3
"Amdt_StdImp|Product Description: AutoCAD Mechanical|Company: Autodesk, Inc."
 90
     1024
 91
        1
280
     0
281
     0
  0
CLASS
  1
AMDTNOTETEMPLATEDB
  2
AmdtNoteTemplateDB
  3
AcmSymBB|Product Description: AutoCAD Mechanical|Company: Autodesk, Inc.
 90
     1024
 91
        6
280
     0
281
     0
  0
ENDSEC
  0
SECTION
  2
TABLES
  0
TABLE
  2
VPORT
  5
25
330
0
100
AcDbSymbolTable
 70
     1
  0
VPORT
  5
26
330
25
100
AcDbSymbolTableRecord
100
AcDbViewportTableRecord
  2
*Active
 70
     0
 10
0.0
 20
0.0
 11
1.0
 21
1.0
 12
344.4072453760639
 22
184.4634546556321
 13
0.0
 23
0.0
 14
2.5
 24
2.5
 15
10.0
 25
10.0
 16
0.0
 26
0.0
 36
1.0
 17
0.0
 27
0.0
 37
0.0
 40
261.015927943344
 41
1.723653395784543
 42
50.0
 43
0.0
 44
0.0
 50
0.0
 51
0.0
 71
    16
 72
   100
 73
     1
 74
     2
 75
     0
 76
     1
 77
     0
 78
     0
281
     0
 65
     1
110
0.0
120
0.0
130
0.0
111
1.0
121
0.0
131
0.0
112
0.0
122
1.0
132
0.0
 79
     0
146
0.0
  0
ENDTAB
  0
TABLE
  2
LTYPE
  5
20
330
0
100
AcDbSymbolTable
 70
    20
  0
LTYPE
  5
21
330
20
100
AcDbSymbolTableRecord
100
AcDbLinetypeTableRecord
  2
ByBlock
 70
     0
  3

 72
    65
 73
     0
 40
0.0
  0
LTYPE
  5
22
330
20
100
AcDbSymbolTableRecord
100
AcDbLinetypeTableRecord
  2
ByLayer
 70
     0
  3

 72
    65
 73
     0
 40
0.0
  0
LTYPE
  5
E
330
20
100
AcDbSymbolTableRecord
100
AcDbLinetypeTableRecord
  2
Continuous
 70
     0
  3
Solid line
 72
    65
 73
     0
 40
0.0
  0
LTYPE
  5
115
330
20
100
AcDbSymbolTableRecord
100
AcDbLinetypeTableRecord
  2
AM_ISO02W050
 70
     0
  3
__ __ __ __ __ __ __ __ __ __ __ __ __ __ __
 72
    65
 73
     2
 40
7.5
 49
6.0
 74
     0
 49
-1.5
 74
     0
  0
LTYPE
  5
65
330
20
100
AcDbSymbolTableRecord
100
AcDbLinetypeTableRecord
  2
Amconstr
 70
     0
  3
_______________________
 72
    65
 73
     2
 40
9999.0
 49
9999.0
 74
     0
 49
0.0
 74
     0
  0
LTYPE
  5
116
330
20
100
AcDbSymbolTableRecord
100
AcDbLinetypeTableRecord
  2
AM_ISO02W050x2
 70
     0
  3
 _ _ _ _ _ _ _ _ _ _ _ _
 72
    65
 73
     2
 40
3.75
 49
3.0
 74
     0
 49
-0.75
 74
     0
  0
LTYPE
  5
117
330
20
100
AcDbSymbolTableRecord
100
AcDbLinetypeTableRecord
  2
AM_ISO08W050x2
 70
     0
  3
__ . __ . __ . __ . __ . __
 72
    65
 73
     4
 40
9.0
 49
6.0
 74
     0
 49
-0.75
 74
     0
 49
1.5
 74
     0
 49
-0.75
 74
     0
  0
LTYPE
  5
60
330
20
100
AcDbSymbolTableRecord
100
AcDbLinetypeTableRecord
  2
Amzigzag
 70
     0
  3
/\/-/\/-/\/-/\/-/\/-/\/
 72
    65
 73
     2
 40
11.0001
 49
0.0001
 74
     4
 75
   135
340
61
 46
0.04
 50
0.0
 44
0.0
 45
0.0
 49
-11.0
 74
     0
  0
LTYPE
  5
129
330
20
100
AcDbSymbolTableRecord
100
AcDbLinetypeTableRecord
  2
ACDINWELD
 70
     0
  3
_ _ _ _ _
 72
    65
 73
     2
 40
2.0
 49
2.0
 74
     0
 49
-1.0
 74
     0
  0
LTYPE
  5
12C
330
20
100
AcDbSymbolTableRecord
100
AcDbLinetypeTableRecord
  2
ACDINTGB
 70
     0
  3
__ . . __ . .
 72
    65
 73
     6
 40
9.0
 49
4.0
 74
     0
 49
-1.0
 74
     0
 49
1.0
 74
     0
 49
-1.0
 74
     0
 49
1.0
 74
     0
 49
-1.0
 74
     0
  0
LTYPE
  5
12D
330
20
100
AcDbSymbolTableRecord
100
AcDbLinetypeTableRecord
  2
ACDINTGL
 70
     0
  3
_ _ _ _ _
 72
    65
 73
     2
 40
3.0
 49
2.0
 74
     0
 49
-1.0
 74
     0
  0
LTYPE
  5
114
330
20
100
AcDbSymbolTableRecord
100
AcDbLinetypeTableRecord
  2
AM_DIN_F_W050
 70
     0
  3
__ __ __ __ __ __ __ __ __ __ __ __ __ __ __
 72
    65
 73
     2
 40
6.25
 49
4.75
 74
     0
 49
-1.5
 74
     0
  0
LTYPE
  5
112
330
20
100
AcDbSymbolTableRecord
100
AcDbLinetypeTableRecord
  2
AM_DIN_F_W050x2
 70
     0
  3
 _ _ _ _ _ _ _ _ _ _ _ _
 72
    65
 73
     2
 40
3.125
 49
2.25
 74
     0
 49
-0.875
 74
     0
  0
LTYPE
  5
A6
330
20
100
AcDbSymbolTableRecord
100
AcDbLinetypeTableRecord
  2
AM_DIN_G_W050
 70
     0
  3
____ . ____ . ____ . ____ . ____ . ____ . ____
 72
    65
 73
     4
 40
13.75
 49
9.75
 74
     0
 49
-1.5
 74
     0
 49
1.0
 74
     0
 49
-1.5
 74
     0
  0
LTYPE
  5
113
330
20
100
AcDbSymbolTableRecord
100
AcDbLinetypeTableRecord
  2
AM_DIN_K_W050
 70
     0
  3
_____ . . _____ . . _____ . . ____ .. ____
 72
    65
 73
     6
 40
16.25
 49
9.75
 74
     0
 49
-1.5
 74
     0
 49
1.0
 74
     0
 49
-1.5
 74
     0
 49
1.0
 74
     0
 49
-1.5
 74
     0
  0
LTYPE
  5
16F
330
20
100
AcDbSymbolTableRecord
100
AcDbLinetypeTableRecord
  2
HIDDEN
 70
     0
  3
Verdeckt
 72
    65
 73
     2
 40
9.525
 49
6.349999999999998
 74
     0
 49
-3.174999999999998
 74
     0
  0
LTYPE
  5
170
330
20
100
AcDbSymbolTableRecord
100
AcDbLinetypeTableRecord
  2
PHANTOM2
 70
     0
  3
Phantom (.5x) ___ _ _ ___ _ _ ___ _ _ ___ _ _
 72
    65
 73
     6
 40
31.75
 49
15.875
 74
     0
 49
-3.174999999999998
 74
     0
 49
3.174999999999998
 74
     0
 49
-3.174999999999998
 74
     0
 49
3.174999999999998
 74
     0
 49
-3.174999999999998
 74
     0
  0
LTYPE
  5
171
330
20
100
AcDbSymbolTableRecord
100
AcDbLinetypeTableRecord
  2
CENTER
 70
     0
  3
Mitte ____ _ ____ _ ____ _ ____ _ ____ _ ____
 72
    65
 73
     4
 40
50.8
 49
31.75
 74
     0
 49
-6.349999999999998
 74
     0
 49
6.349999999999998
 74
     0
 49
-6.349999999999998
 74
     0
  0
LTYPE
  5
20C
330
20
100
AcDbSymbolTableRecord
100
AcDbLinetypeTableRecord
  2
AM_ISO08W050
 70
     0
  3
____ . ____ . ____ . ____ . ____ . ____ . ____
 72
    65
 73
     4
 40
18.0
 49
12.0
 74
     0
 49
-1.5
 74
     0
 49
3.0
 74
     0
 49
-1.5
 74
     0
  0
LTYPE
  5
20D
330
20
100
AcDbSymbolTableRecord
100
AcDbLinetypeTableRecord
  2
AM_ISO09W050
 70
     0
  3
_____ . . _____ . . _____ . . ____ .. ____
 72
    65
 73
     6
 40
22.5
 49
12.0
 74
     0
 49
-1.5
 74
     0
 49
3.0
 74
     0
 49
-1.5
 74
     0
 49
3.0
 74
     0
 49
-1.5
 74
     0
  0
LTYPE
  5
20E
330
20
100
AcDbSymbolTableRecord
100
AcDbLinetypeTableRecord
  2
AM_DIN_G_W050x2
 70
     0
  3
__ . __ . __ . __ . __ . __
 72
    65
 73
     4
 40
6.875
 49
4.75
 74
     0
 49
-0.875
 74
     0
 49
0.375
 74
     0
 49
-0.875
 74
     0
  0
ENDTAB
  0
TABLE
  2
LAYER
  5
1A
102
{ACAD_XDICTIONARY
360
1B
102
}
330
0
100
AcDbSymbolTable
 70
     9
  0
LAYER
  5
6
102
{ACAD_XDICTIONARY
360
7
102
}
330
1A
100
AcDbSymbolTableRecord
100
AcDbLayerTableRecord
  2
0
 70
     0
 62
     7
  6
Continuous
370
    -3
390
9
  0
LAYER
  5
37
102
{ACAD_XDICTIONARY
360
38
102
}
330
1A
100
AcDbSymbolTableRecord
100
AcDbLayerTableRecord
  2
AM_0
 70
     0
 62
     7
  6
Continuous
370
    50
390
9
  0
LAYER
  5
56
330
1A
100
AcDbSymbolTableRecord
100
AcDbLayerTableRecord
  2
AM_4
 70
     0
 62
     3
  6
Continuous
370
    25
390
9
  0
LAYER
  5
53
330
1A
100
AcDbSymbolTableRecord
100
AcDbLayerTableRecord
  2
AM_6
 70
     0
 62
     2
  6
Continuous
370
    35
390
9
  0
LAYER
  5
64
330
1A
100
AcDbSymbolTableRecord
100
AcDbLayerTableRecord
  2
AM_CL
 70
     0
 62
     1
  6
Amconstr
370
    25
390
9
1001
AcAecLayerStandard
1000

1000

  0
LAYER
  5
A4
102
{ACAD_XDICTIONARY
360
A5
102
}
330
1A
100
AcDbSymbolTableRecord
100
AcDbLayerTableRecord
  2
AM_7
 70
     0
 62
     4
  6
AM_DIN_G_W050
370
    25
390
9
  0
LAYER
  5
5A
102
{ACAD_XDICTIONARY
360
5B
102
}
330
1A
100
AcDbSymbolTableRecord
100
AcDbLayerTableRecord
  2
AM_8
 70
     0
 62
     1
  6
Continuous
370
    25
390
9
  0
LAYER
  5
22C
330
1A
100
AcDbSymbolTableRecord
100
AcDbLayerTableRecord
  2
grün94
 70
     0
 62
    94
  6
Continuous
370
    -3
390
9
1001
AcAecLayerStandard
1000

1000

  0
LAYER
  5
22D
330
1A
100
AcDbSymbolTableRecord
100
AcDbLayerTableRecord
  2
Grau 251
 70
     0
 62
   251
  6
Continuous
370
    -3
390
9
1001
AcAecLayerStandard
1000

1000

  0
ENDTAB
  0
TABLE
  2
STYLE
  5
1D
330
0
100
AcDbSymbolTable
 70
     5
  0
STYLE
  5
1E
330
1D
100
AcDbSymbolTableRecord
100
AcDbTextStyleTableRecord
  2
Standard
 70
     0
 40
0.0
 41
0.8
 50
15.0
 71
     0
 42
2.5
  3
isocp.shx
  4

  0
STYLE
  5
61
330
1D
100
AcDbSymbolTableRecord
100
AcDbTextStyleTableRecord
  2

 70
     1
 40
0.0
 41
1.0
 50
0.0
 71
     0
 42
2.5
  3
ltypeshp.shx
  4

  0
STYLE
  5
123
330
1D
100
AcDbSymbolTableRecord
100
AcDbTextStyleTableRecord
  2
ACDINTS
 70
     0
 40
1.0
 41
0.8
 50
15.0
 71
     0
 42
2.5
  3
isocp.shx
  4

  0
STYLE
  5
127
330
1D
100
AcDbSymbolTableRecord
100
AcDbTextStyleTableRecord
  2
ACDINGDT
 70
     0
 40
0.0
 41
1.0
 50
0.0
 71
     0
 42
2.5
  3
amgdt.shx
  4

  0
STYLE
  5
54
330
1D
100
AcDbSymbolTableRecord
100
AcDbTextStyleTableRecord
  2
NORM
 70
     0
 40
0.0
 41
0.9
 50
15.0
 71
     0
 42
3.5
  3
isocp.shx
  4

  0
ENDTAB
  0
TABLE
  2
VIEW
  5
23
330
0
100
AcDbSymbolTable
 70
     1
  0
VIEW
  5
12
330
23
100
AcDbSymbolTableRecord
100
AcDbViewTableRecord
  2
AM_VIEW1
 70
     0
 40
143.4999999999998
 10
115.9891151685391
 20
220.2500000000001
 41
231.9782303370783
 11
0.0
 21
0.0
 31
1.0
 12
0.0
 22
0.0
 32
0.0
 42
50.0
 43
0.0
 44
0.0
 50
0.0
 71
    16
281
     0
 72
     0
  0
ENDTAB
  0
TABLE
  2
UCS
  5
24
330
0
100
AcDbSymbolTable
 70
     0
  0
ENDTAB
  0
TABLE
  2
APPID
  5
27
330
0
100
AcDbSymbolTable
 70
    19
  0
APPID
  5
28
330
27
100
AcDbSymbolTableRecord
100
AcDbRegAppTableRecord
  2
ACAD
 70
     0
  0
APPID
  5
68
330
27
100
AcDbSymbolTableRecord
100
AcDbRegAppTableRecord
  2
GENIUS_GENODEF_13
 70
     0
  0
APPID
  5
67
330
27
100
AcDbSymbolTableRecord
100
AcDbRegAppTableRecord
  2
GENIUS_GENOBJ-N-FIL_13
 70
     0
  0
APPID
  5
15
330
27
100
AcDbSymbolTableRecord
100
AcDbRegAppTableRecord
  2
ACAD_PSEXT
 70
     0
  0
APPID
  5
66
330
27
100
AcDbSymbolTableRecord
100
AcDbRegAppTableRecord
  2
AcAecLayerStandard
 70
     0
  0
APPID
  5
14E
330
27
100
AcDbSymbolTableRecord
100
AcDbRegAppTableRecord
  2
ACATTRIBSERVICES
 70
     0
  0
APPID
  5
1A7
330
27
100
AcDbSymbolTableRecord
100
AcDbRegAppTableRecord
  2
MCAD_NO_VIS
 70
     0
  0
APPID
  5
1A8
330
27
100
AcDbSymbolTableRecord
100
AcDbRegAppTableRecord
  2
ACAD_TEMP_GRAPHIC
 70
     0
  0
APPID
  5
1D1
330
27
100
AcDbSymbolTableRecord
100
AcDbRegAppTableRecord
  2
AD_DRAW
 70
     0
  0
APPID
  5
1EC
330
27
100
AcDbSymbolTableRecord
100
AcDbRegAppTableRecord
  2
DESIGNERASSEMBLIES
 70
     0
  0
APPID
  5
1F0
330
27
100
AcDbSymbolTableRecord
100
AcDbRegAppTableRecord
  2
ACADM_DIM_EDIT
 70
     0
  0
APPID
  5
1F1
330
27
100
AcDbSymbolTableRecord
100
AcDbRegAppTableRecord
  2
AMDT_DM_ADJ
 70
     0
  0
APPID
  5
206
330
27
100
AcDbSymbolTableRecord
100
AcDbRegAppTableRecord
  2
ACAD_DSTYLE_DIMBREAK
 70
     0
  0
APPID
  5
207
330
27
100
AcDbSymbolTableRecord
100
AcDbRegAppTableRecord
  2
ACAD_DSTYLE_DIMJAG
 70
     0
  0
APPID
  5
216
330
27
100
AcDbSymbolTableRecord
100
AcDbRegAppTableRecord
  2
ACAD_EXEMPT_FROM_CAD_STANDARDS
 70
     0
  0
APPID
  5
22E
330
27
100
AcDbSymbolTableRecord
100
AcDbRegAppTableRecord
  2
GRADIENTCOLOR1ACI
 70
     0
  0
APPID
  5
22F
330
27
100
AcDbSymbolTableRecord
100
AcDbRegAppTableRecord
  2
GRADIENTCOLOR2ACI
 70
     0
  0
APPID
  5
2AC
330
27
100
AcDbSymbolTableRecord
100
AcDbRegAppTableRecord
  2
ACAD_MLEADERVER
 70
     0
  0
APPID
  5
2AD
330
27
100
AcDbSymbolTableRecord
100
AcDbRegAppTableRecord
  2
ACAD_DSTYLE_DIMJOGGED_JOGANGLE_SYMBOL
 70
     0
  0
ENDTAB
  0
TABLE
  2
DIMSTYLE
  5
29
330
0
100
AcDbSymbolTable
 70
    14
100
AcDbDimStyleTable
 71
     4
340
2A
340
2B
340
2C
340
2D
  0
DIMSTYLE
105
2B
330
29
100
AcDbSymbolTableRecord
100
AcDbDimStyleTableRecord
  2
AM_ISO
 70
     0
  4
"
 41
3.5
 42
0.0
 43
10.0
 44
1.5
 47
0.1
 48
0.1
 73
     0
 74
     0
 77
     1
 78
     8
 79
     2
140
3.5
141
0.0
143
0.0393701
146
0.71
147
1.5
172
     1
176
   256
177
   256
178
     2
179
     3
271
     3
272
     3
283
     0
340
1E
371
    -1
372
    -1
  0
DIMSTYLE
105
2D
330
29
100
AcDbSymbolTableRecord
100
AcDbDimStyleTableRecord
  2
AM_ISO$3
 70
     0
  4
"
 41
3.5
 42
0.0
 43
10.0
 44
1.5
 47
0.1
 48
0.1
 73
     0
 77
     1
 78
     8
 79
     2
140
3.5
141
0.0
143
0.0393701
146
0.71
147
1.5
176
   256
177
   256
178
     2
271
     3
272
     3
283
     0
288
     1
340
1E
371
    -1
372
    -1
  0
DIMSTYLE
105
2C
330
29
100
AcDbSymbolTableRecord
100
AcDbDimStyleTableRecord
  2
AM_ISO$7
 70
     0
  4
"
 41
3.5
 42
0.0
 43
10.0
 44
1.5
 47
0.1
 48
0.1
 73
     0
 74
     0
 77
     1
 78
     8
 79
     2
140
3.5
141
0.0
143
0.0393701
146
0.71
147
1.5
172
     1
176
   256
177
   256
178
     2
271
     2
272
     2
283
     0
340
1E
371
    -1
372
    -1
  0
DIMSTYLE
105
13C
330
29
100
AcDbSymbolTableRecord
100
AcDbDimStyleTableRecord
  2
AM_ISO$SF
 70
     0
  4
"
 41
2.5
 42
1.0
 43
10.0
 44
1.0
 47
0.1
 48
0.1
 73
     0
 74
     0
 75
     1
 76
     1
 77
     1
 78
     8
 79
     2
140
3.5
141
0.0
143
0.0393701
146
0.71
147
1.5
172
     1
176
   256
177
   256
178
     2
271
     2
272
     3
274
     4
283
     0
340
1E
371
    -1
372
    -1
  0
DIMSTYLE
105
13D
330
29
100
AcDbSymbolTableRecord
100
AcDbDimStyleTableRecord
  2
AM_ISO$SH
 70
     0
  4
"
 41
2.5
 42
1.0
 43
10.0
 44
1.0
 47
0.1
 48
0.1
 73
     0
 74
     0
 75
     1
 76
     1
 77
     1
 78
     8
 79
     2
140
3.5
141
0.0
143
0.0393701
144
2.0
146
0.71
147
1.5
172
     1
173
     1
176
   256
177
   256
178
     2
271
     2
272
     3
274
     4
283
     0
340
1E
343
13E
371
    -1
372
    -1
  0
DIMSTYLE
105
2A
102
{ACAD_REACTORS
330
1F5
102
}
330
29
100
AcDbSymbolTableRecord
100
AcDbDimStyleTableRecord
  2
AM_DIN
 70
     0
  4
"
 41
3.5
 42
0.0
 43
10.0
 44
1.5
 47
0.1
 48
0.1
 73
     0
 74
     0
 77
     1
 78
     8
 79
     2
140
3.5
141
0.0
143
0.0393701
146
0.71
147
1.5
172
     1
176
   256
177
   256
178
     2
271
     3
272
     3
283
     0
340
1E
371
    -1
372
    -1
  0
DIMSTYLE
105
13A
330
29
100
AcDbSymbolTableRecord
100
AcDbDimStyleTableRecord
  2
AM_DIN$6
 70
     0
  4
"
 41
3.5
 42
0.0
 43
10.0
 44
1.5
 47
0.1
 48
0.1
 73
     0
 74
     0
 78
     8
 79
     2
140
3.5
141
0.0
143
0.0393701
146
0.71
147
1.5
172
     1
176
   256
177
   256
178
     2
271
     3
272
     3
283
     0
340
1E
371
    -1
372
    -1
  0
DIMSTYLE
105
139
330
29
100
AcDbSymbolTableRecord
100
AcDbDimStyleTableRecord
  2
AM_DIN$4
 70
     0
  4
"
 41
3.5
 42
0.0
 43
10.0
 44
1.5
 47
0.1
 48
0.1
 73
     0
 74
     0
 77
     1
 78
     8
 79
     2
140
3.5
141
0.0
143
0.0393701
146
0.71
147
1.5
172
     1
176
   256
177
   256
178
     2
271
     3
272
     3
283
     0
340
1E
371
    -1
372
    -1
  0
DIMSTYLE
105
137
330
29
100
AcDbSymbolTableRecord
100
AcDbDimStyleTableRecord
  2
AM_DIN$2
 70
     0
  4
"
 41
3.5
 42
0.0
 43
10.0
 44
1.5
 47
0.1
 48
0.1
 73
     0
 74
     0
 77
     1
 78
     8
 79
     2
140
3.5
141
0.0
143
0.0393701
146
0.71
147
1.5
172
     1
176
   256
177
   256
178
     2
271
     3
272
     3
283
     0
340
1E
371
    -1
372
    -1
  0
DIMSTYLE
105
138
330
29
100
AcDbSymbolTableRecord
100
AcDbDimStyleTableRecord
  2
AM_DIN$3
 70
     0
  4
"
 41
3.5
 42
0.0
 43
10.0
 44
1.5
 47
0.1
 48
0.1
 73
     0
 74
     0
 77
     1
 78
     8
 79
     2
140
3.5
141
0.0
143
0.0393701
146
0.71
147
1.5
172
     1
176
   256
177
   256
178
     2
271
     3
272
     3
283
     0
340
1E
371
    -1
372
    -1
  0
DIMSTYLE
105
13B
330
29
100
AcDbSymbolTableRecord
100
AcDbDimStyleTableRecord
  2
AM_DIN$7
 70
     0
  4
"
 41
3.5
 42
0.0
 43
10.0
 44
1.5
 47
0.1
 48
0.1
 73
     0
 74
     0
 77
     1
 78
     8
 79
     2
140
3.5
141
0.0
143
0.0393701
146
0.71
147
1.5
172
     1
176
   256
177
   256
178
     2
271
     3
272
     3
283
     0
340
1E
371
    -1
372
    -1
  0
DIMSTYLE
105
136
330
29
100
AcDbSymbolTableRecord
100
AcDbDimStyleTableRecord
  2
AM_DIN$0
 70
     0
  4
"
 41
3.5
 42
0.0
 43
10.0
 44
1.5
 47
0.1
 48
0.1
 73
     0
 74
     0
 77
     1
 78
     8
 79
     2
140
3.5
141
0.0
143
0.0393701
146
0.71
147
1.5
172
     1
176
   256
177
   256
178
     2
271
     3
272
     3
283
     0
340
1E
371
    -1
372
    -1
  0
DIMSTYLE
105
208
330
29
100
AcDbSymbolTableRecord
100
AcDbDimStyleTableRecord
  2
AM_DIN$SF
 70
     0
  4
"
 41
3.5
 42
0.0
 43
10.0
 44
1.5
 47
0.1
 48
0.1
 73
     0
 74
     0
 75
     1
 76
     1
 77
     1
 78
     8
 79
     2
140
3.5
141
0.0
143
0.0393701
146
0.71
147
1.5
172
     1
176
   256
177
   256
178
     2
271
     3
272
     3
283
     0
340
1E
371
    -1
372
    -1
1001
ACAD_DSTYLE_DIMBREAK
1070
   391
1040
3.75
1001
ACAD_DSTYLE_DIMJAG
1070
   388
1040
1.5
1001
ACAD_DSTYLE_DIMJOGGED_JOGANGLE_SYMBOL
1070
   384
1040
1.570796326794896
  0
DIMSTYLE
105
209
330
29
100
AcDbSymbolTableRecord
100
AcDbDimStyleTableRecord
  2
AM_DIN$SH
 70
     0
  4
"
 41
3.5
 42
0.0
 43
10.0
 44
1.5
 47
0.1
 48
0.1
 73
     0
 74
     0
 75
     1
 76
     1
 77
     1
 78
     8
 79
     2
140
3.5
141
0.0
143
0.0393701
144
2.0
146
0.71
147
1.5
172
     1
173
     1
176
   256
177
   256
178
     2
271
     3
272
     3
283
     0
340
1E
343
13E
371
    -1
372
    -1
1001
ACAD_DSTYLE_DIMBREAK
1070
   391
1040
3.75
1001
ACAD_DSTYLE_DIMJAG
1070
   388
1040
1.5
1001
ACAD_DSTYLE_DIMJOGGED_JOGANGLE_SYMBOL
1070
   384
1040
1.570796326794896
  0
ENDTAB
  0
TABLE
  2
BLOCK_RECORD
  5
1
330
0
100
AcDbSymbolTable
 70
     5
  0
BLOCK_RECORD
  5
2
102
{ACAD_XDICTIONARY
360
3
102
}
330
1
100
AcDbSymbolTableRecord
100
AcDbBlockTableRecord
  2
*Model_Space
340
10
  0
BLOCK_RECORD
  5
16
330
1
100
AcDbSymbolTableRecord
100
AcDbBlockTableRecord
  2
*Paper_Space
340
19
  0
BLOCK_RECORD
  5
13E
330
1
100
AcDbSymbolTableRecord
100
AcDbBlockTableRecord
  2
GENAXEH
340
0
  0
BLOCK_RECORD
  5
108
330
1
100
AcDbSymbolTableRecord
100
AcDbBlockTableRecord
  2
BORDER
340
0
102
{BLKREFS
331
107
102
}
  0
BLOCK_RECORD
  5
221
102
{ACAD_XDICTIONARY
360
225
102
}
330
1
100
AcDbSymbolTableRecord
100
AcDbBlockTableRecord
  2
Schutzvermerk
340
0
102
{BLKREFS
331
22A
102
}
1001
ACAD
1000
DesignCenter Data
1002
{
1070
     1
1070
     4
1002
}
  0
BLOCK_RECORD
  5
230
102
{ACAD_XDICTIONARY
360
26D
102
}
330
1
100
AcDbSymbolTableRecord
100
AcDbBlockTableRecord
  2
VITRIS_LOGO
340
0
102
{BLKREFS
331
272
102
}
1001
ACAD
1000
DesignCenter Data
1002
{
1070
     1
1070
     4
1002
}
  0
ENDTAB
  0
ENDSEC
  0
SECTION
  2
BLOCKS
  0
BLOCK
  5
5
330
2
100
AcDbEntity
  8
0
100
AcDbBlockBegin
  2
*Model_Space
 70
     0
 10
0.0
 20
0.0
 30
0.0
  3
*Model_Space
  1

  0
ENDBLK
  5
F
330
2
100
AcDbEntity
  8
0
100
AcDbBlockEnd
  0
BLOCK
  5
17
330
16
100
AcDbEntity
 67
     1
  8
0
100
AcDbBlockBegin
  2
*Paper_Space
 70
     0
 10
0.0
 20
0.0
 30
0.0
  3
*Paper_Space
  1

  0
ENDBLK
  5
18
330
16
100
AcDbEntity
 67
     1
  8
0
100
AcDbBlockEnd
  0
BLOCK
  5
13F
330
13E
100
AcDbEntity
  8
0
100
AcDbBlockBegin
  2
GENAXEH
 70
     0
 10
0.0
 20
0.0
 30
0.0
  3
GENAXEH
  1

  0
LINE
  5
140
330
13E
100
AcDbEntity
  8
0
100
AcDbLine
 10
-1.0
 20
0.0
 30
0.0
 11
1.0
 21
0.0
 31
0.0
  0
ENDBLK
  5
141
330
13E
100
AcDbEntity
  8
0
100
AcDbBlockEnd
  0
BLOCK
  5
109
330
108
100
AcDbEntity
  8
0
100
AcDbBlockBegin
  2
BORDER
 70
     0
 10
0.0
 20
0.0
 30
0.0
  3
BORDER
  1

  0
LINE
  5
10A
330
108
100
AcDbEntity
  8
0
100
AcDbLine
 10
0.0
 20
0.0
 30
0.0
 11
1.00000000000004
 21
0.0
 31
0.0
  0
LINE
  5
10B
330
108
100
AcDbEntity
  8
0
100
AcDbLine
 10
1.00000000000004
 20
0.0
 30
0.0
 11
1.00000000000004
 21
1.00000000000004
 31
0.0
  0
LINE
  5
10C
330
108
100
AcDbEntity
  8
0
100
AcDbLine
 10
1.00000000000004
 20
1.00000000000004
 30
0.0
 11
0.0
 21
1.00000000000004
 31
0.0
  0
LINE
  5
10D
330
108
100
AcDbEntity
  8
0
100
AcDbLine
 10
0.0
 20
1.00000000000004
 30
0.0
 11
0.0
 21
0.0
 31
0.0
  0
ENDBLK
  5
10E
330
108
100
AcDbEntity
  8
0
100
AcDbBlockEnd
  0
BLOCK
  5
227
330
221
100
AcDbEntity
  8
0
100
AcDbBlockBegin
  2
Schutzvermerk
 70
     0
 10
0.0
 20
0.0
 30
0.0
  3
Schutzvermerk
  1

  0
LINE
  5
222
330
221
100
AcDbEntity
  8
AM_4
100
AcDbLine
 10
-2.976943536749942
 20
0.0
 30
0.0
 11
0.0
 21
0.0
 31
0.0
  0
LINE
  5
223
330
221
100
AcDbEntity
  8
AM_4
100
AcDbLine
 10
0.0
 20
-2.976943536749928
 30
0.0
 11
0.0
 21
0.0
 31
0.0
  0
MTEXT
  5
224
330
221
100
AcDbEntity
  8
AM_0
100
AcDbMText
 10
-5.246182480686456
 20
-74.65310299024605
 30
0.0
 40
3.5
 41
200.8405119662405
 71
     1
 72
     5
  1
{\fArial|b0|i0|c0|p34;Schutzvermerk nach DIN 34 beachten !}
 11
0.0000000000000001
 21
1.0
 31
0.0
 73
     1
 44
1.0
1001
ACAD
1000
ACAD_MTEXT_DEFINED_HEIGHT_BEGIN
1070
    46
1040
2.003983091316968
1000
ACAD_MTEXT_DEFINED_HEIGHT_END
  0
ENDBLK
  5
228
330
221
100
AcDbEntity
  8
0
100
AcDbBlockEnd
  0
BLOCK
  5
26F
330
230
100
AcDbEntity
  8
0
100
AcDbBlockBegin
  2
VITRIS_LOGO
 70
     0
 10
0.0
 20
0.0
 30
0.0
  3
VITRIS_LOGO
  1

  0
HATCH
  5
231
330
230
100
AcDbEntity
  8
Grau 251
 48
0.5
100
AcDbHatch
 10
0.0
 20
0.0
 30
0.0
210
0.0
220
0.0
230
1.0
  2
SOLID
 70
     1
 71
     1
 91
        6
 92
        7
 72
     0
 73
     1
 93
        8
 10
5.178271948848987
 20
-7.681328463799275
 10
4.0
 20
-7.681328463799275
 10
5.997379769024746
 20
-13.1690842772706
 10
6.489480359866774
 20
-13.1690842772706
 10
6.981580950708803
 20
-13.1690842772706
 10
8.978960719733777
 20
-7.681328463799275
 10
7.800688770884562
 20
-7.681328463799275
 10
6.489480359866774
 20
-11.4893541939773
 97
        8
330
249
330
247
330
248
330
242
330
241
330
243
330
240
330
246
 92
        7
 72
     0
 73
     1
 93
        4
 10
11.022756539905
 20
-7.681328463799275
 10
9.897987517096453
 20
-7.681328463799275
 10
9.897987517096453
 20
-13.1690842772706
 10
11.022756539905
 20
-13.1690842772706
 97
        4
330
23F
330
23D
330
23E
330
23C
 92
        7
 72
     1
 73
     1
 93
       16
 10
12.86996426021443
 20
-11.70908427727056
 42
0.4142135623730942
 10
14.32996426021441
 20
-13.16908427727054
 42
0.0
 10
15.03459375844227
 20
-13.1690842772706
 42
0.0
 10
15.03459375844227
 20
-12.21079311596634
 42
0.0
 10
14.49473328302292
 20
-12.21079311596634
 42
-0.4142135623730951
 10
13.99473328302292
 20
-11.71079311596634
 42
0.0
 10
13.99473328302292
 20
-8.652724581986035
 42
0.0
 10
15.03555106328804
 20
-8.652724581986035
 42
0.0
 10
15.03555106328804
 20
-7.783670997242211
 42
0.0
 10
13.99473328302292
 20
-7.783670997242211
 42
0.0
 10
13.99473328302292
 20
-6.135427242784544
 42
0.0
 10
12.86996426021437
 20
-6.135427242784544
 42
0.0
 10
12.86996426021437
 20
-7.783670997242211
 42
0.0
 10
12.23478818233138
 20
-7.783670997242211
 42
0.0
 10
12.23478818233138
 20
-8.652724581986035
 42
0.0
 10
12.86996426021437
 20
-8.652724581985978
 42
0.0
 97
       16
330
237
330
234
330
239
330
24B
330
23A
330
24D
330
238
330
235
330
236
330
24C
330
251
330
250
330
252
330
24E
330
24F
330
24A
 92
        7
 72
     1
 73
     1
 93
        8
 10
17.5457260657775
 20
-9.572331109272397
 42
-0.7516554556419115
 10
19.41175852881747
 20
-9.032356057132915
 42
0.0
 10
20.29674785947623
 20
-8.126171955262634
 42
0.3920878150899548
 10
17.54572606577744
 20
-8.163812741683159
 42
0.0
 10
17.54572606577744
 20
-7.681328463799275
 42
0.0
 10
16.42095704296889
 20
-7.681328463799275
 42
0.0
 10
16.42095704296889
 20
-13.1690842772706
 42
0.0
 10
17.54572606577744
 20
-13.1690842772706
 42
0.0
 97
        8
330
258
330
259
330
25A
330
254
330
257
330
255
330
256
330
253
 92
        7
 72
     0
 73
     1
 93
        4
 10
21.1684623837748
 20
-13.1690842772706
 10
22.29323140658335
 20
-13.1690842772706
 10
22.29323140658335
 20
-7.681328463799275
 10
21.1684623837748
 20
-7.681328463799275
 97
        4
330
25E
330
25C
330
25D
330
25B
 92
        7
 72
     1
 73
     1
 93
       14
 10
26.50611098800579
 20
-12.15492868787692
 42
-0.2549618572635659
 10
24.18544512002223
 20
-11.73570253672107
 42
0.0
 10
23.45748782899812
 20
-12.46365982774529
 42
0.1481291569927468
 10
24.74874592088452
 20
-13.11954358668498
 42
0.0826123271520964
 10
26.7430687779995
 20
-13.09627234849574
 42
0.8666932717969565
 10
26.50611098800601
 20
-9.877433515631594
 42
0.0
 10
25.96696473198904
 20
-9.866318717972035
 42
0.0
 10
25.426894165254
 20
-9.850519883754429
 42
-0.8948872064970556
 10
25.28676835829208
 20
-8.591369854538186
 42
-0.2128275058896034
 10
27.10716648584128
 20
-8.932374186352376
 42
0.0
 10
27.81244860584911
 20
-8.227092066344539
 42
0.2622440545622968
 10
24.67454517146956
 20
-7.87633906151575
 42
0.7387593489505403
 10
25.01816572885628
 20
-10.80866828972784
 42
0.038120040235929
 10
26.3066787333587
 20
-10.93465641327338
 42
-0.8753264103941235
 97
       14
330
269
330
268
330
264
330
26A
330
233
330
260
330
25F
330
263
330
261
330
262
330
232
330
267
330
266
330
265
 75
     1
 76
     1
 47
0.0722860083631955
 98
        6
 10
5.808390587933217
 20
-11.06114262727237
 10
10.50939107216186
 20
-11.06114262727237
 10
13.25766882108451
 20
-11.35028641170811
 10
17.23543824448234
 20
-11.42257276246982
 10
21.71946969269606
 20
-11.35028641170811
 10
27.21602377936984
 20
-12.0731466821029
450
        0
451
        0
460
0.0
461
0.0
452
        0
462
1.0
453
        2
463
0.0
 63
     5
421
      255
463
1.0
 63
     2
421
 16776960
470
LINEAR
1001
GRADIENTCOLOR1ACI
1070
     5
1001
GRADIENTCOLOR2ACI
1070
     2
1001
ACAD
1010
0.0
1020
0.0
1030
0.0
  0
LINE
  5
232
102
{ACAD_REACTORS
330
231
102
}
330
230
100
AcDbEntity
  8
Grau 251
 48
0.5
100
AcDbLine
 10
23.45748782899818
 20
-12.46365982774523
 30
0.0
 11
24.18544512002223
 21
-11.73570253672107
 31
0.0
  0
LINE
  5
233
102
{ACAD_REACTORS
330
231
102
}
330
230
100
AcDbEntity
  8
Grau 251
 48
0.5
100
AcDbLine
 10
27.10716648584139
 20
-8.932374186352262
 30
0.0
 11
27.81244860584911
 21
-8.227092066344539
 31
0.0
  0
LINE
  5
234
102
{ACAD_REACTORS
330
231
102
}
330
230
100
AcDbEntity
  8
Grau 251
 48
0.5
100
AcDbLine
 10
15.03555106328804
 20
-8.652724581986035
 30
0.0
 11
15.03555106328804
 21
-7.783670997242211
 31
0.0
  0
LINE
  5
235
102
{ACAD_REACTORS
330
231
102
}
330
230
100
AcDbEntity
  8
Grau 251
 48
0.5
100
AcDbLine
 10
12.23478818233138
 20
-8.652724581986035
 30
0.0
 11
12.23478818233138
 21
-7.783670997242211
 31
0.0
  0
LINE
  5
236
102
{ACAD_REACTORS
330
231
102
}
330
230
100
AcDbEntity
  8
Grau 251
 48
0.5
100
AcDbLine
 10
12.23478818233138
 20
-8.652724581986035
 30
0.0
 11
12.86996426021437
 21
-8.652724581985978
 31
0.0
  0
LINE
  5
237
102
{ACAD_REACTORS
330
231
102
}
330
230
100
AcDbEntity
  8
Grau 251
 48
0.5
100
AcDbLine
 10
13.99473328302292
 20
-8.652724581986035
 30
0.0
 11
15.03555106328804
 21
-8.652724581986035
 31
0.0
  0
LINE
  5
238
102
{ACAD_REACTORS
330
231
102
}
330
230
100
AcDbEntity
  8
Grau 251
 48
0.5
100
AcDbLine
 10
12.23478818233138
 20
-7.783670997242211
 30
0.0
 11
12.86996426021437
 21
-7.783670997242211
 31
0.0
  0
LINE
  5
239
102
{ACAD_REACTORS
330
231
102
}
330
230
100
AcDbEntity
  8
Grau 251
 48
0.5
100
AcDbLine
 10
13.99473328302292
 20
-7.783670997242211
 30
0.0
 11
15.03555106328804
 21
-7.783670997242211
 31
0.0
  0
LINE
  5
23A
102
{ACAD_REACTORS
330
231
102
}
330
230
100
AcDbEntity
  8
Grau 251
 48
0.5
100
AcDbLine
 10
12.86996426021437
 20
-6.135427242784544
 30
0.0
 11
13.99473328302292
 21
-6.135427242784544
 31
0.0
  0
LINE
  5
23B
330
230
100
AcDbEntity
  8
Grau 251
 48
0.5
100
AcDbLine
 10
14.32996426021441
 20
-13.1690842772706
 30
0.0
 11
15.03459375844227
 21
-13.1690842772706
 31
0.0
  0
LINE
  5
23C
102
{ACAD_REACTORS
330
231
102
}
330
230
100
AcDbEntity
  8
Grau 251
 48
0.5
100
AcDbLine
 10
11.022756539905
 20
-13.1690842772706
 30
0.0
 11
11.022756539905
 21
-7.681328463799275
 31
0.0
  0
LINE
  5
23D
102
{ACAD_REACTORS
330
231
102
}
330
230
100
AcDbEntity
  8
Grau 251
 48
0.5
100
AcDbLine
 10
9.897987517096453
 20
-13.1690842772706
 30
0.0
 11
9.897987517096453
 21
-7.681328463799275
 31
0.0
  0
LINE
  5
23E
102
{ACAD_REACTORS
330
231
102
}
330
230
100
AcDbEntity
  8
Grau 251
 48
0.5
100
AcDbLine
 10
9.897987517096453
 20
-13.1690842772706
 30
0.0
 11
11.022756539905
 21
-13.1690842772706
 31
0.0
  0
LINE
  5
23F
102
{ACAD_REACTORS
330
231
102
}
330
230
100
AcDbEntity
  8
Grau 251
 48
0.5
100
AcDbLine
 10
9.897987517096453
 20
-7.681328463799275
 30
0.0
 11
11.022756539905
 21
-7.681328463799275
 31
0.0
  0
LINE
  5
240
102
{ACAD_REACTORS
330
231
102
}
330
230
100
AcDbEntity
  8
Grau 251
 48
0.5
100
AcDbLine
 10
7.800688770884562
 20
-7.681328463799275
 30
0.0
 11
6.489480359866774
 21
-11.4893541939773
 31
0.0
  0
LINE
  5
241
102
{ACAD_REACTORS
330
231
102
}
330
230
100
AcDbEntity
  8
Grau 251
 48
0.5
100
AcDbLine
 10
6.981580950708803
 20
-13.1690842772706
 30
0.0
 11
8.978960719733777
 21
-7.681328463799275
 31
0.0
  0
LINE
  5
242
102
{ACAD_REACTORS
330
231
102
}
330
230
100
AcDbEntity
  8
Grau 251
 48
0.5
100
AcDbLine
 10
6.981580950708803
 20
-13.1690842772706
 30
0.0
 11
6.489480359866774
 21
-13.1690842772706
 31
0.0
  0
LINE
  5
243
102
{ACAD_REACTORS
330
231
102
}
330
230
100
AcDbEntity
  8
Grau 251
 48
0.5
100
AcDbLine
 10
7.800688770884562
 20
-7.681328463799275
 30
0.0
 11
8.978960719733777
 21
-7.681328463799275
 31
0.0
  0
LINE
  5
244
330
230
100
AcDbEntity
  8
AM_4
100
AcDbLine
 10
1.792528683132786
 20
0.0
 30
0.0
 11
0.0
 21
0.0
 31
0.0
  0
LINE
  5
245
330
230
100
AcDbEntity
  8
AM_4
100
AcDbLine
 10
0.0
 20
0.0
 30
0.0
 11
0.0
 21
-1.792528683132672
 31
0.0
  0
LINE
  5
246
102
{ACAD_REACTORS
330
231
102
}
330
230
100
AcDbEntity
  8
Grau 251
 48
0.5
100
AcDbLine
 10
5.178271948848987
 20
-7.681328463799275
 30
0.0
 11
6.489480359866774
 21
-11.4893541939773
 31
0.0
  0
LINE
  5
247
102
{ACAD_REACTORS
330
231
102
}
330
230
100
AcDbEntity
  8
Grau 251
 48
0.5
100
AcDbLine
 10
5.997379769024746
 20
-13.1690842772706
 30
0.0
 11
4.0
 21
-7.681328463799275
 31
0.0
  0
LINE
  5
248
102
{ACAD_REACTORS
330
231
102
}
330
230
100
AcDbEntity
  8
Grau 251
 48
0.5
100
AcDbLine
 10
5.997379769024746
 20
-13.1690842772706
 30
0.0
 11
6.489480359866774
 21
-13.1690842772706
 31
0.0
  0
LINE
  5
249
102
{ACAD_REACTORS
330
231
102
}
330
230
100
AcDbEntity
  8
Grau 251
 48
0.5
100
AcDbLine
 10
5.178271948848987
 20
-7.681328463799275
 30
0.0
 11
4.0
 21
-7.681328463799275
 31
0.0
  0
LINE
  5
24A
102
{ACAD_REACTORS
330
231
102
}
330
230
100
AcDbEntity
  8
Grau 251
 48
0.5
100
AcDbLine
 10
13.99473328302292
 20
-11.71079311596634
 30
0.0
 11
13.99473328302292
 21
-8.652724581986035
 31
0.0
  0
LINE
  5
24B
102
{ACAD_REACTORS
330
231
102
}
330
230
100
AcDbEntity
  8
Grau 251
 48
0.5
100
AcDbLine
 10
13.99473328302292
 20
-7.783670997242211
 30
0.0
 11
13.99473328302292
 21
-6.135427242784544
 31
0.0
  0
LINE
  5
24C
102
{ACAD_REACTORS
330
231
102
}
330
230
100
AcDbEntity
  8
Grau 251
 48
0.5
100
AcDbLine
 10
12.86996426021437
 20
-11.70908427727056
 30
0.0
 11
12.86996426021437
 21
-8.652724581986035
 31
0.0
  0
LINE
  5
24D
102
{ACAD_REACTORS
330
231
102
}
330
230
100
AcDbEntity
  8
Grau 251
 48
0.5
100
AcDbLine
 10
12.86996426021437
 20
-7.783670997242211
 30
0.0
 11
12.86996426021437
 21
-6.135427242784544
 31
0.0
  0
LINE
  5
24E
102
{ACAD_REACTORS
330
231
102
}
330
230
100
AcDbEntity
  8
Grau 251
 48
0.5
100
AcDbLine
 10
15.03459375844227
 20
-12.21079311596634
 30
0.0
 11
14.49473328302292
 21
-12.21079311596634
 31
0.0
  0
ARC
  5
24F
102
{ACAD_REACTORS
330
231
102
}
330
230
100
AcDbEntity
  8
Grau 251
 48
0.5
100
AcDbCircle
 10
14.49473328302292
 20
-11.71079311596634
 30
0.0
 40
0.5
100
AcDbArc
 50
180.0
 51
270.0
1001
GENIUS_GENODEF_13
1002
{
1000
HIER
1070
     0
1002
}
1002
{
1000
MANEDIT
1070
     0
1002
}
1002
{
1000
NOSEL
1070
     0
1002
}
1002
{
1000
BEHIND
1070
     0
1002
}
1002
{
1000
OTHER
1070
     0
1002
}
1002
{
1000
REACTOR
1002
}
1001
GENIUS_GENOBJ-N-FIL_13
1002
{
1000
OWNER
1000
GEN
1002
}
  0
LINE
  5
250
102
{ACAD_REACTORS
330
231
102
}
330
230
100
AcDbEntity
  8
Grau 251
 48
0.5
100
AcDbLine
 10
15.03459375844227
 20
-13.1690842772706
 30
0.0
 11
14.32996426021441
 21
-13.1690842772706
 31
0.0
  0
ARC
  5
251
102
{ACAD_REACTORS
330
231
102
}
330
230
100
AcDbEntity
  8
Grau 251
 48
0.5
100
AcDbCircle
 10
14.32996426021441
 20
-11.70908427727056
 30
0.0
 40
1.459999999999999
100
AcDbArc
 50
180.0
 51
270.0
1001
GENIUS_GENOBJ-N-FIL_13
1002
{
1000
OWNER
1000
GEN
1002
}
1001
GENIUS_GENODEF_13
1002
{
1000
HIER
1070
     0
1002
}
1002
{
1000
MANEDIT
1070
     0
1002
}
1002
{
1000
NOSEL
1070
     0
1002
}
1002
{
1000
BEHIND
1070
     0
1002
}
1002
{
1000
OTHER
1070
     0
1002
}
1002
{
1000
REACTOR
1002
}
  0
LINE
  5
252
102
{ACAD_REACTORS
330
231
102
}
330
230
100
AcDbEntity
  8
Grau 251
 48
0.5
100
AcDbLine
 10
15.03459375844227
 20
-13.1690842772706
 30
0.0
 11
15.03459375844227
 21
-12.21079311596634
 31
0.0
  0
LINE
  5
253
102
{ACAD_REACTORS
330
231
102
}
330
230
100
AcDbEntity
  8
Grau 251
 48
0.5
100
AcDbLine
 10
17.54572606577744
 20
-13.1690842772706
 30
0.0
 11
17.54572606577744
 21
-9.572331109272397
 31
0.0
  0
LINE
  5
254
102
{ACAD_REACTORS
330
231
102
}
330
230
100
AcDbEntity
  8
Grau 251
 48
0.5
100
AcDbLine
 10
17.54572606577744
 20
-8.163812741683159
 30
0.0
 11
17.54572606577744
 21
-7.681328463799275
 31
0.0
  0
LINE
  5
255
102
{ACAD_REACTORS
330
231
102
}
330
230
100
AcDbEntity
  8
Grau 251
 48
0.5
100
AcDbLine
 10
16.42095704296889
 20
-13.1690842772706
 30
0.0
 11
16.42095704296889
 21
-7.681328463799275
 31
0.0
  0
LINE
  5
256
102
{ACAD_REACTORS
330
231
102
}
330
230
100
AcDbEntity
  8
Grau 251
 48
0.5
100
AcDbLine
 10
16.42095704296889
 20
-13.1690842772706
 30
0.0
 11
17.54572606577744
 21
-13.1690842772706
 31
0.0
  0
LINE
  5
257
102
{ACAD_REACTORS
330
231
102
}
330
230
100
AcDbEntity
  8
Grau 251
 48
0.5
100
AcDbLine
 10
16.42095704296889
 20
-7.681328463799275
 30
0.0
 11
17.54572606577744
 21
-7.681328463799275
 31
0.0
  0
ARC
  5
258
102
{ACAD_REACTORS
330
231
102
}
330
230
100
AcDbEntity
  8
Grau 251
 48
0.5
100
AcDbCircle
 10
18.55686876688151
 20
-9.572331109272397
 30
0.0
 40
1.011142701104009
100
AcDbArc
 50
32.27778471052481
 51
180.0
  0
LINE
  5
259
102
{ACAD_REACTORS
330
231
102
}
330
230
100
AcDbEntity
  8
Grau 251
 48
0.5
100
AcDbLine
 10
19.41175852881747
 20
-9.032356057132915
 30
0.0
 11
20.29674785947623
 21
-8.126171955262634
 31
0.0
  0
ARC
  5
25A
102
{ACAD_REACTORS
330
231
102
}
330
230
100
AcDbEntity
  8
Grau 251
 48
0.5
100
AcDbCircle
 10
18.94154756629996
 20
-9.629417055321937
 30
0.0
 40
2.023935193003335
100
AcDbArc
 50
47.96481801567417
 51
133.6029802742195
  0
LINE
  5
25B
102
{ACAD_REACTORS
330
231
102
}
330
230
100
AcDbEntity
  8
Grau 251
 48
0.5
100
AcDbLine
 10
22.29323140658335
 20
-13.1690842772706
 30
0.0
 11
22.29323140658335
 21
-7.681328463799275
 31
0.0
  0
LINE
  5
25C
102
{ACAD_REACTORS
330
231
102
}
330
230
100
AcDbEntity
  8
Grau 251
 48
0.5
100
AcDbLine
 10
21.1684623837748
 20
-13.1690842772706
 30
0.0
 11
21.1684623837748
 21
-7.681328463799275
 31
0.0
  0
LINE
  5
25D
102
{ACAD_REACTORS
330
231
102
}
330
230
100
AcDbEntity
  8
Grau 251
 48
0.5
100
AcDbLine
 10
21.1684623837748
 20
-13.1690842772706
 30
0.0
 11
22.29323140658335
 21
-13.1690842772706
 31
0.0
  0
LINE
  5
25E
102
{ACAD_REACTORS
330
231
102
}
330
230
100
AcDbEntity
  8
Grau 251
 48
0.5
100
AcDbLine
 10
21.1684623837748
 20
-7.681328463799275
 30
0.0
 11
22.29323140658335
 21
-7.681328463799275
 31
0.0
  0
ARC
  5
25F
102
{ACAD_REACTORS
330
231
102
}
330
230
100
AcDbEntity
  8
Grau 251
 48
0.5
100
AcDbCircle
 10
25.29709948044319
 20
-9.28968391942476
 30
0.0
 40
1.544382580515434
100
AcDbArc
 50
110.8436197466423
 51
259.5946012798667
  0
ARC
  5
260
102
{ACAD_REACTORS
330
231
102
}
330
230
100
AcDbEntity
  8
Grau 251
 48
0.5
100
AcDbCircle
 10
25.93211610319759
 20
-10.83738759709518
 30
0.0
 40
3.217031718585394
100
AcDbArc
 50
54.23281952936251
 51
113.0111546748605
  0
ARC
  5
261
102
{ACAD_REACTORS
330
231
102
}
330
230
100
AcDbEntity
  8
Grau 251
 48
0.5
100
AcDbCircle
 10
26.32490978858778
 20
-11.55810986670701
 30
0.0
 40
0.6237199531625519
100
AcDbArc
 50
286.8889057677923
 51
91.67496856974723
  0
ARC
  5
262
102
{ACAD_REACTORS
330
231
102
}
330
230
100
AcDbEntity
  8
Grau 251
 48
0.5
100
AcDbCircle
 10
25.73012390224653
 20
-9.817732948299408
 30
0.0
 40
2.462648956380975
100
AcDbArc
 50
231.1530083287526
 51
288.3670076909855
  0
ARC
  5
263
102
{ACAD_REACTORS
330
231
102
}
330
230
100
AcDbEntity
  8
Grau 251
 48
0.5
100
AcDbCircle
 10
26.48748068267333
 20
-2.433576963769496
 30
0.0
 40
8.503001890606237
100
AcDbArc
 50
260.0493687584126
 51
269.1769392379514
  0
ARC
  5
264
102
{ACAD_REACTORS
330
231
102
}
330
230
100
AcDbEntity
  8
Grau 251
 48
0.5
100
AcDbCircle
 10
25.426894165254
 20
-9.213147846821243
 30
0.0
 40
0.6373720369331715
100
AcDbArc
 50
102.7001828111662
 51
270.0
  0
ARC
  5
265
102
{ACAD_REACTORS
330
231
102
}
330
230
100
AcDbEntity
  8
Grau 251
 48
0.5
100
AcDbCircle
 10
26.3935436738484
 20
-11.50386161188589
 30
0.0
 40
1.630318911287659
100
AcDbArc
 50
276.1870898999634
 51
91.59717189001449
  0
ARC
  5
266
102
{ACAD_REACTORS
330
231
102
}
330
230
100
AcDbEntity
  8
Grau 251
 48
0.5
100
AcDbCircle
 10
25.67596495246949
 20
-7.113911437209537
 30
0.0
 40
6.076788020603169
100
AcDbArc
 50
261.2233122288885
 51
280.1137663856604
  0
ARC
  5
267
102
{ACAD_REACTORS
330
231
102
}
330
230
100
AcDbEntity
  8
Grau 251
 48
0.5
100
AcDbCircle
 10
25.18577374078359
 20
-10.6601425580892
 30
0.0
 40
2.497928488732944
100
AcDbArc
 50
226.2202796454877
 51
259.9238967429307
  0
LINE
  5
268
102
{ACAD_REACTORS
330
231
102
}
330
230
100
AcDbEntity
  8
Grau 251
 48
0.5
100
AcDbLine
 10
25.426894165254
 20
-9.850519883754429
 30
0.0
 11
25.96696473198904
 21
-9.866318717972035
 31
0.0
  0
LINE
  5
269
102
{ACAD_REACTORS
330
231
102
}
330
230
100
AcDbEntity
  8
Grau 251
 48
0.5
100
AcDbLine
 10
25.96696473198904
 20
-9.866318717972035
 30
0.0
 11
26.50611098800709
 21
-9.877433515631594
 31
0.0
  0
ARC
  5
26A
102
{ACAD_REACTORS
330
231
102
}
330
230
100
AcDbEntity
  8
Grau 251
 48
0.5
100
AcDbCircle
 10
25.81454698183188
 20
-10.80336354530777
 30
0.0
 40
2.274085830277736
100
AcDbArc
 50
55.36038022902644
 51
103.9802124841875
  0
HATCH
  5
26B
330
230
100
AcDbEntity
  8
grün94
 48
0.5
100
AcDbHatch
 10
0.0
 20
0.0
 30
0.0
210
0.0
220
0.0
230
1.0
  2
SOLID
 70
     1
 71
     1
 91
        1
 92
        7
 72
     1
 73
     1
 93
        2
 10
11.96037202850061
 20
-5.5
 42
1.0
 10
8.960372028500614
 20
-5.5
 42
1.0
 97
        1
330
26C
 75
     1
 76
     1
 47
0.0435811085111346
 98
        1
 10
11.26781534012093
 20
-5.854385568905058
450
        0
451
        0
460
0.0
461
0.0
452
        0
462
1.0
453
        2
463
0.0
 63
     5
421
      255
463
1.0
 63
     2
421
 16776960
470
LINEAR
1001
GRADIENTCOLOR1ACI
1070
     5
1001
GRADIENTCOLOR2ACI
1070
     2
1001
ACAD
1010
0.0
1020
0.0
1030
0.0
  0
CIRCLE
  5
26C
102
{ACAD_REACTORS
330
26B
102
}
330
230
100
AcDbEntity
  8
grün94
 48
0.5
100
AcDbCircle
 10
10.46037202850061
 20
-5.5
 30
0.0
 40
1.5
  0
ENDBLK
  5
270
330
230
100
AcDbEntity
  8
0
100
AcDbBlockEnd
  0
ENDSEC
  0
SECTION
  2
ENTITIES
  0
LINE
  5
55
330
2
100
AcDbEntity
  8
AM_4
100
AcDbLine
 10
268.5173306856025
 20
107.5000000000059
 30
0.0
 11
261.5173306856025
 21
107.5000000000059
 31
0.0
  0
LINE
  5
57
330
2
100
AcDbEntity
  8
AM_4
100
AcDbLine
 10
268.5173306856025
 20
107.5000000000059
 30
0.0
 11
268.5173306856025
 21
189.5000000000059
 31
0.0
  0
LINE
  5
58
330
2
100
AcDbEntity
  8
AM_4
100
AcDbLine
 10
261.5173306856025
 20
189.5000000000059
 30
0.0
 11
268.5173306856025
 21
189.5000000000059
 31
0.0
  0
LINE
  5
5F
330
2
100
AcDbEntity
  8
AM_4
  6
Amzigzag
 48
0.3
100
AcDbLine
 10
368.8627307448282
 20
194.5146292227066
 30
0.0
 11
381.7238035676214
 21
194.5146292227066
 31
0.0
  0
LINE
  5
62
330
2
100
AcDbEntity
  8
AM_4
  6
Amzigzag
 48
0.3
100
AcDbLine
 10
368.8627307448282
 20
196.5049558233128
 30
0.0
 11
381.7238035676214
 21
196.5049558233128
 31
0.0
  0
ARC
  5
63
330
2
100
AcDbEntity
  8
AM_CL
100
AcDbCircle
 10
365.1383855139544
 20
163.1463193988671
 30
0.0
 40
0.2
100
AcDbArc
 50
90.0
 51
180.0
1001
GENIUS_GENOBJ-N-FIL_13
1002
{
1000
OWNER
1000
GEN
1002
}
1001
GENIUS_GENODEF_13
1002
{
1000
HIER
1070
     0
1002
}
1002
{
1000
MANEDIT
1070
     0
1002
}
1002
{
1000
NOSEL
1070
     0
1002
}
1002
{
1000
BEHIND
1070
     0
1002
}
1002
{
1000
OTHER
1070
     0
1002
}
1002
{
1000
REACTOR
1002
}
  0
ARC
  5
69
330
2
100
AcDbEntity
  8
AM_CL
100
AcDbCircle
 10
357.2383855139544
 20
163.1463193988671
 30
0.0
 40
0.2
100
AcDbArc
 50
0.0
 51
90.0
1001
GENIUS_GENODEF_13
1002
{
1000
HIER
1070
     0
1002
}
1002
{
1000
MANEDIT
1070
     0
1002
}
1002
{
1000
NOSEL
1070
     0
1002
}
1002
{
1000
BEHIND
1070
     0
1002
}
1002
{
1000
OTHER
1070
     0
1002
}
1002
{
1000
REACTOR
1002
}
1001
GENIUS_GENOBJ-N-FIL_13
1002
{
1000
OWNER
1000
GEN
1002
}
  0
LINE
  5
6A
330
2
100
AcDbEntity
  8
AM_CL
100
AcDbLine
 10
364.9383855139543
 20
163.1463193988671
 30
0.0
 11
364.9383855139543
 21
153.3463193988671
 31
0.0
  0
LINE
  5
6B
330
2
100
AcDbEntity
  8
AM_CL
100
AcDbLine
 10
357.4383855139544
 20
163.1463193988671
 30
0.0
 11
357.4383855139544
 21
153.3463193988671
 31
0.0
  0
LINE
  5
6C
330
2
100
AcDbEntity
  8
AM_CL
100
AcDbLine
 10
365.1383855139544
 20
163.3463193988671
 30
0.0
 11
366.4383855139544
 21
163.3463193988671
 31
0.0
  0
LINE
  5
6D
330
2
100
AcDbEntity
  8
AM_CL
100
AcDbLine
 10
355.9383855139544
 20
163.3463193988671
 30
0.0
 11
357.2383855139544
 21
163.3463193988671
 31
0.0
  0
ARC
  5
6E
330
2
100
AcDbEntity
  8
AM_CL
100
AcDbCircle
 10
366.4383855139544
 20
162.8463193988671
 30
0.0
 40
0.5
100
AcDbArc
 50
0.0
 51
90.0
  0
LINE
  5
6F
330
2
100
AcDbEntity
  8
AM_CL
100
AcDbLine
 10
357.4383855139544
 20
153.3463193988671
 30
0.0
 11
364.9383855139543
 21
153.3463193988671
 31
0.0
  0
ARC
  5
70
330
2
100
AcDbEntity
  8
AM_CL
100
AcDbCircle
 10
365.2883855139544
 20
151.3463193988671
 30
0.0
 40
0.2
100
AcDbArc
 50
0.0
 51
90.0
  0
ARC
  5
71
330
2
100
AcDbEntity
  8
AM_CL
100
AcDbCircle
 10
357.0883855139543
 20
151.3463193988672
 30
0.0
 40
0.2
100
AcDbArc
 50
90.0
 51
180.0
  0
LINE
  5
72
330
2
100
AcDbEntity
  8
AM_CL
100
AcDbLine
 10
357.0883855139543
 20
151.5463193988671
 30
0.0
 11
365.2883855139544
 21
151.5463193988671
 31
0.0
  0
LINE
  5
73
330
2
100
AcDbEntity
  8
AM_CL
100
AcDbLine
 10
364.5536143746554
 20
137.7701750953621
 30
0.0
 11
365.182293969674
 21
137.3767771202691
 31
0.0
  0
ARC
  5
74
330
2
100
AcDbEntity
  8
AM_CL
100
AcDbCircle
 10
365.2883855139544
 20
137.5463193988671
 30
0.0
 40
0.2
100
AcDbArc
 50
237.9636135638559
 51
0.0
  0
ARC
  5
75
330
2
100
AcDbEntity
  8
AM_CL
100
AcDbCircle
 10
364.2883855139544
 20
137.3463193988671
 30
0.0
 40
0.5
100
AcDbArc
 50
57.96361356385595
 51
180.0
  0
LINE
  5
76
330
2
100
AcDbEntity
  8
AM_CL
100
AcDbLine
 10
357.8231566532533
 20
137.7701750953621
 30
0.0
 11
357.1944770582347
 21
137.3767771202691
 31
0.0
  0
ARC
  5
77
330
2
100
AcDbEntity
  8
AM_CL
100
AcDbCircle
 10
357.0883855139543
 20
137.5463193988671
 30
0.0
 40
0.2
100
AcDbArc
 50
180.0
 51
302.036386436144
  0
ARC
  5
78
330
2
100
AcDbEntity
  8
AM_CL
100
AcDbCircle
 10
358.0883855139543
 20
137.3463193988671
 30
0.0
 40
0.5
100
AcDbArc
 50
0.0
 51
122.0363864361444
  0
ARC
  5
79
330
2
100
AcDbEntity
  8
AM_CL
100
AcDbCircle
 10
365.2883855139544
 20
135.3049905507334
 30
0.0
 40
0.2
100
AcDbArc
 50
359.9999999999984
 51
57.96361356385595
  0
ARC
  5
7A
330
2
100
AcDbEntity
  8
AM_CL
100
AcDbCircle
 10
363.9883855139544
 20
136.5903278091835
 30
0.0
 40
0.2
100
AcDbArc
 50
179.9999999999984
 51
237.9636135638559
  0
LINE
  5
7B
330
2
100
AcDbEntity
  8
AM_CL
100
AcDbLine
 10
363.882293969674
 20
136.4207855305855
 30
0.0
 11
365.3944770582348
 21
135.4745328293314
 31
0.0
  0
ARC
  5
7C
330
2
100
AcDbEntity
  8
AM_CL
100
AcDbCircle
 10
365.6883855139544
 20
134.5463193988672
 30
0.0
 40
0.2
100
AcDbArc
 50
180.0
 51
281.0874892109699
  0
LINE
  5
7D
330
2
100
AcDbEntity
  8
AM_CL
100
AcDbLine
 10
365.4883855139544
 20
135.3049905507334
 30
0.0
 11
365.4883855139544
 21
134.5463193988672
 31
0.0
  0
ARC
  5
7E
330
2
100
AcDbEntity
  8
AM_CL
100
AcDbCircle
 10
358.3883855139543
 20
136.5903278091835
 30
0.0
 40
0.2
100
AcDbArc
 50
302.036386436144
 51
0.0
  0
ARC
  5
7F
330
2
100
AcDbEntity
  8
AM_CL
100
AcDbCircle
 10
357.0883855139543
 20
135.3049905507334
 30
0.0
 40
0.2
100
AcDbArc
 50
122.0363864361444
 51
180.0
  0
LINE
  5
80
330
2
100
AcDbEntity
  8
AM_CL
100
AcDbLine
 10
358.4944770582348
 20
136.4207855305855
 30
0.0
 11
356.9822939696738
 21
135.4745328293314
 31
0.0
  0
ARC
  5
81
330
2
100
AcDbEntity
  8
AM_CL
100
AcDbCircle
 10
356.6883855139544
 20
134.5463193988672
 30
0.0
 40
0.2
100
AcDbArc
 50
258.9125107890269
 51
0.0
  0
LINE
  5
82
330
2
100
AcDbEntity
  8
AM_CL
100
AcDbLine
 10
356.8883855139544
 20
135.3049905507334
 30
0.0
 11
356.8883855139544
 21
134.5463193988672
 31
0.0
  0
ARC
  5
83
330
2
100
AcDbEntity
  8
AM_CL
100
AcDbCircle
 10
365.4383855139544
 20
135.8220544810845
 30
0.0
 40
1.5
100
AcDbArc
 50
281.0874892109699
 51
0.0
  0
LINE
  5
84
330
2
100
AcDbEntity
  8
AM_CL
100
AcDbLine
 10
358.5883855139543
 20
137.3463193988671
 30
0.0
 11
358.5883855139543
 21
136.5903278091835
 31
0.0
  0
LINE
  5
85
330
2
100
AcDbEntity
  8
AM_CL
100
AcDbLine
 10
363.7883855139544
 20
137.3463193988671
 30
0.0
 11
363.7883855139544
 21
136.5903278091835
 31
0.0
  0
LINE
  5
86
330
2
100
AcDbEntity
  8
AM_CL
100
AcDbLine
 10
356.8883855139544
 20
151.3463193988672
 30
0.0
 11
356.8883855139544
 21
137.5463193988671
 31
0.0
  0
LINE
  5
87
330
2
100
AcDbEntity
  8
AM_CL
100
AcDbLine
 10
366.9383855139543
 20
162.8463193988671
 30
0.0
 11
366.9383855139543
 21
135.8220544810845
 31
0.0
  0
LINE
  5
88
330
2
100
AcDbEntity
  8
AM_CL
100
AcDbLine
 10
365.4883855139544
 20
151.3463193988671
 30
0.0
 11
365.4883855139544
 21
137.5463193988671
 31
0.0
  0
LINE
  5
89
330
2
100
AcDbEntity
  8
AM_CL
100
AcDbLine
 10
355.4383855139544
 20
162.8463193988671
 30
0.0
 11
355.4383855139544
 21
135.8220544810845
 31
0.0
  0
ARC
  5
8A
330
2
100
AcDbEntity
  8
AM_CL
100
AcDbCircle
 10
356.9383855139544
 20
135.8220544810845
 30
0.0
 40
1.5
100
AcDbArc
 50
180.0
 51
258.9125107890301
  0
ARC
  5
8B
330
2
100
AcDbEntity
  8
AM_CL
100
AcDbCircle
 10
355.9383855139544
 20
162.8463193988671
 30
0.0
 40
0.5
100
AcDbArc
 50
90.0
 51
180.0
  0
LINE
  5
8C
330
2
100
AcDbEntity
  8
AM_CL
100
AcDbLine
 10
372.7883850802043
 20
135.8463192613671
 30
0.0
 11
373.3995306829259
 21
135.8463192613671
 31
0.0
  0
LINE
  5
8D
330
2
100
AcDbEntity
  8
AM_CL
100
AcDbLine
 10
372.7883850802043
 20
135.8463192613671
 30
0.0
 11
373.3995306829259
 21
135.8463192613671
 31
0.0
  0
LINE
  5
8E
330
2
100
AcDbEntity
  8
AM_CL
100
AcDbLine
 10
373.3995306829259
 20
136.4456017660028
 30
0.0
 11
373.3995306829259
 21
135.8463192613671
 31
0.0
  0
LINE
  5
8F
330
2
100
AcDbEntity
  8
AM_CL
100
AcDbLine
 10
376.9772393574829
 20
135.8463192613671
 30
0.0
 11
377.5883849602043
 21
135.8463192613671
 31
0.0
  0
LINE
  5
90
330
2
100
AcDbEntity
  8
AM_CL
100
AcDbLine
 10
376.9772393574829
 20
135.8463192613671
 30
0.0
 11
377.5883849602043
 21
135.8463192613671
 31
0.0
  0
ARC
  5
91
330
2
100
AcDbEntity
  8
AM_CL
100
AcDbCircle
 10
375.1883850202044
 20
134.2463193013672
 30
0.0
 40
2.399999939999999
100
AcDbArc
 50
41.81031489577846
 51
138.1896851042206
  0
LINE
  5
92
330
2
100
AcDbEntity
  8
AM_CL
100
AcDbLine
 10
376.9772393574829
 20
136.4456017660028
 30
0.0
 11
376.9772393574829
 21
135.8463192613671
 31
0.0
  0
ARC
  5
93
330
2
100
AcDbEntity
  8
AM_CL
100
AcDbCircle
 10
379.1779777923578
 20
134.3256380948712
 30
0.0
 40
0.999999975
100
AcDbArc
 50
184.1339697218653
 51
269.9999999999902
  0
ARC
  5
94
330
2
100
AcDbEntity
  8
AM_CL
100
AcDbCircle
 10
371.1987922480509
 20
134.3256380948712
 30
0.0
 40
0.999999975
100
AcDbArc
 50
270.0
 51
355.8660302781347
  0
LINE
  5
95
330
2
100
AcDbEntity
  8
AM_CL
100
AcDbLine
 10
378.1883849452045
 20
154.3463196238672
 30
0.0
 11
372.1883850952043
 21
154.3463196238671
 31
0.0
  0
LINE
  5
96
330
2
100
AcDbEntity
  8
AM_CL
100
AcDbLine
 10
357.2950521342042
 20
150.9589710123711
 30
0.0
 11
365.0817186062042
 21
150.9589710123711
 31
0.0
  0
LINE
  5
97
330
2
100
AcDbEntity
  8
AM_CL
100
AcDbLine
 10
357.9350521182043
 20
150.318971028371
 30
0.0
 11
364.4417186222042
 21
150.318971028371
 31
0.0
  0
LINE
  5
98
330
2
100
AcDbEntity
  8
AM_CL
100
AcDbLine
 10
363.5883853102043
 20
145.5796523513672
 30
0.0
 11
364.4417186222042
 21
145.5796523513672
 31
0.0
  0
LINE
  5
99
330
2
100
AcDbEntity
  8
AM_CL
100
AcDbLine
 10
363.5883853102043
 20
139.9796524913672
 30
0.0
 11
364.4417186222042
 21
139.9796524913672
 31
0.0
  0
LINE
  5
9A
330
2
100
AcDbEntity
  8
AM_CL
100
AcDbLine
 10
364.4417186222042
 20
138.4810507052099
 30
0.0
 11
365.0817186062042
 21
138.4810507052099
 31
0.0
  0
LINE
  5
9B
330
2
100
AcDbEntity
  8
AM_CL
100
AcDbLine
 10
357.9350521182043
 20
145.5796523513672
 30
0.0
 11
358.7883854302043
 21
145.5796523513672
 31
0.0
  0
LINE
  5
9C
330
2
100
AcDbEntity
  8
AM_CL
100
AcDbLine
 10
358.7883854302043
 20
149.7129855813672
 30
0.0
 11
359.3995310329258
 21
149.7129855813672
 31
0.0
  0
LINE
  5
9D
330
2
100
AcDbEntity
  8
AM_CL
100
AcDbLine
 10
358.7883854302043
 20
149.7129855813672
 30
0.0
 11
359.3995310329258
 21
149.7129855813672
 31
0.0
  0
ARC
  5
9E
330
2
100
AcDbEntity
  8
AM_CL
100
AcDbCircle
 10
361.1883853702043
 20
151.3129855413671
 30
0.0
 40
2.399999939999999
100
AcDbArc
 50
221.8103148957793
 51
318.1896851042215
  0
LINE
  5
9F
330
2
100
AcDbEntity
  8
AM_CL
100
AcDbLine
 10
357.9350521182043
 20
139.9796524913672
 30
0.0
 11
358.7883854302043
 21
139.9796524913672
 31
0.0
  0
LINE
  5
A0
330
2
100
AcDbEntity
  8
AM_CL
100
AcDbLine
 10
357.2950521342042
 20
138.4810507052097
 30
0.0
 11
357.9350521182043
 21
138.4810507052097
 31
0.0
  0
LINE
  5
A1
330
2
100
AcDbEntity
  8
AM_CL
100
AcDbLine
 10
362.9772397074829
 20
149.7129855813672
 30
0.0
 11
363.5883853102043
 21
149.7129855813672
 31
0.0
  0
LINE
  5
A2
330
2
100
AcDbEntity
  8
AM_CL
100
AcDbLine
 10
362.9772397074829
 20
149.7129855813672
 30
0.0
 11
363.5883853102043
 21
149.7129855813672
 31
0.0
  0
LINE
  5
A3
330
2
100
AcDbEntity
  8
AM_7
 48
0.5
100
AcDbLine
 10
356.7617188142042
 20
142.7796524213672
 30
0.0
 11
365.6150519262043
 21
142.7796524213672
 31
0.0
  0
LINE
  5
A7
330
2
100
AcDbEntity
  8
AM_CL
100
AcDbLine
 10
365.0817186062042
 20
150.9589710123711
 30
0.0
 11
365.0817186062042
 21
138.4810507052099
 31
0.0
  0
LINE
  5
A8
330
2
100
AcDbEntity
  8
AM_CL
100
AcDbLine
 10
364.4417186222042
 20
150.318971028371
 30
0.0
 11
364.4417186222042
 21
138.4810507052099
 31
0.0
  0
LINE
  5
A9
330
2
100
AcDbEntity
  8
AM_CL
100
AcDbLine
 10
357.2950521342042
 20
150.9589710123711
 30
0.0
 11
357.2950521342042
 21
138.4810507052097
 31
0.0
  0
LINE
  5
AA
330
2
100
AcDbEntity
  8
AM_CL
100
AcDbLine
 10
357.9350521182043
 20
150.318971028371
 30
0.0
 11
357.9350521182043
 21
138.4810507052097
 31
0.0
  0
LINE
  5
AB
330
2
100
AcDbEntity
  8
AM_CL
100
AcDbLine
 10
358.7883854302043
 20
135.8463192613671
 30
0.0
 11
359.3995310329258
 21
135.8463192613671
 31
0.0
  0
ARC
  5
AC
330
2
100
AcDbEntity
  8
AM_CL
100
AcDbCircle
 10
361.1883853702043
 20
134.2463193013672
 30
0.0
 40
2.399999939999999
100
AcDbArc
 50
41.81031489577846
 51
138.1896851042206
  0
LINE
  5
AD
330
2
100
AcDbEntity
  8
AM_CL
100
AcDbLine
 10
362.9772397074829
 20
135.8463192613671
 30
0.0
 11
363.5883853102043
 21
135.8463192613671
 31
0.0
  0
LINE
  5
AE
330
2
100
AcDbEntity
  8
AM_CL
100
AcDbLine
 10
362.9772397074829
 20
135.8463192613671
 30
0.0
 11
363.5883853102043
 21
135.8463192613671
 31
0.0
  0
LINE
  5
AF
330
2
100
AcDbEntity
  8
AM_CL
100
AcDbLine
 10
363.5883853102043
 20
149.7129855813672
 30
0.0
 11
363.5883853102043
 21
135.8463192613671
 31
0.0
  0
LINE
  5
B0
330
2
100
AcDbEntity
  8
AM_CL
100
AcDbLine
 10
362.9772397074829
 20
149.7129855813672
 30
0.0
 11
362.9772397074829
 21
135.8463192613671
 31
0.0
  0
LINE
  5
B1
330
2
100
AcDbEntity
  8
AM_CL
100
AcDbLine
 10
358.7883854302043
 20
149.7129855813672
 30
0.0
 11
358.7883854302043
 21
135.8463192613671
 31
0.0
  0
LINE
  5
B2
330
2
100
AcDbEntity
  8
AM_CL
100
AcDbLine
 10
359.3995310329258
 20
149.7129855813672
 30
0.0
 11
359.3995310329258
 21
135.8463192613671
 31
0.0
  0
ARC
  5
B3
330
2
100
AcDbEntity
  8
AM_CL
100
AcDbCircle
 10
380.3883848902044
 20
162.8463194113671
 30
0.0
 40
0.4999999875000001
100
AcDbArc
 50
0.0
 51
90.0
  0
LINE
  5
B4
330
2
100
AcDbEntity
  8
AM_CL
100
AcDbLine
 10
380.3883848902044
 20
163.3463193988672
 30
0.0
 11
378.1883849452045
 21
163.3463193988671
 31
0.0
  0
LINE
  5
B5
330
2
100
AcDbEntity
  8
AM_CL
100
AcDbLine
 10
372.1883850952043
 20
163.3463193988671
 30
0.0
 11
369.9883851502044
 21
163.3463193988672
 31
0.0
  0
ARC
  5
B6
330
2
100
AcDbEntity
  8
AM_CL
100
AcDbCircle
 10
369.9883851502044
 20
162.8463194113671
 30
0.0
 40
0.4999999875000001
100
AcDbArc
 50
90.0
 51
180.0
  0
ARC
  5
B7
330
2
100
AcDbEntity
  8
AM_CL
100
AcDbCircle
 10
375.1883850202044
 20
134.0372829104523
 30
0.0
 40
2.999999925
100
AcDbArc
 50
4.133969721863488
 51
47.2008360670445
  0
ARC
  5
B8
330
2
100
AcDbEntity
  8
AM_CL
100
AcDbCircle
 10
375.1883850202044
 20
134.0372829104523
 30
0.0
 40
2.999999925
100
AcDbArc
 50
132.7991639329553
 51
175.8660302781365
  0
ARC
  5
B9
330
2
100
AcDbEntity
  8
AM_CL
100
AcDbCircle
 10
375.1883850202044
 20
134.0372829104523
 30
0.0
 40
2.999999925
100
AcDbArc
 50
47.2008360670445
 51
132.7991639329553
  0
LINE
  5
BA
330
2
100
AcDbEntity
  8
AM_CL
100
AcDbLine
 10
379.1779777923576
 20
133.3256381198712
 30
0.0
 11
379.3883849152044
 21
133.3256381198711
 31
0.0
  0
LINE
  5
BB
330
2
100
AcDbEntity
  8
AM_CL
100
AcDbLine
 10
370.9883851252044
 20
133.3256381198712
 30
0.0
 11
371.1987922480509
 21
133.3256381198712
 31
0.0
  0
ARC
  5
BC
330
2
100
AcDbEntity
  8
AM_CL
100
AcDbCircle
 10
370.9883851252044
 20
134.8256380823712
 30
0.0
 40
1.4999999625
100
AcDbArc
 50
180.0
 51
270.0
  0
ARC
  5
BD
330
2
100
AcDbEntity
  8
AM_CL
100
AcDbCircle
 10
379.3883849152044
 20
134.8256380823712
 30
0.0
 40
1.4999999625
100
AcDbArc
 50
270.0
 51
0.0
  0
LINE
  5
BE
330
2
100
AcDbEntity
  8
AM_CL
100
AcDbLine
 10
369.4883851627044
 20
134.8256380823712
 30
0.0
 11
369.4883851627044
 21
162.8463194113671
 31
0.0
  0
LINE
  5
BF
330
2
100
AcDbEntity
  8
AM_CL
100
AcDbLine
 10
380.8883848777044
 20
134.8256380823712
 30
0.0
 11
380.8883848777044
 21
162.8463194113671
 31
0.0
  0
ARC
  5
C0
330
2
100
AcDbEntity
  8
AM_CL
100
AcDbCircle
 10
380.9883848752043
 20
216.8782525925244
 30
0.0
 40
0.199999995
100
AcDbArc
 50
0.0
 51
90.0
  0
ARC
  5
C1
330
2
100
AcDbEntity
  8
AM_CL
100
AcDbCircle
 10
379.9883849002044
 20
215.8782526175244
 30
0.0
 40
0.199999995
100
AcDbArc
 50
0.0
 51
90.0
  0
ARC
  5
C2
330
2
100
AcDbEntity
  8
AM_CL
100
AcDbCircle
 10
367.4883852127043
 20
215.8782526175244
 30
0.0
 40
0.199999995
100
AcDbArc
 50
0.0
 51
90.0
  0
ARC
  5
C3
330
2
100
AcDbEntity
  8
AM_CL
100
AcDbCircle
 10
368.8883851777043
 20
215.8782526175244
 30
0.0
 40
0.199999995
100
AcDbArc
 50
90.0
 51
180.0
  0
LINE
  5
C4
330
2
100
AcDbEntity
  8
AM_CL
100
AcDbLine
 10
368.8883851777043
 20
216.0782526125244
 30
0.0
 11
379.9883849002044
 21
216.0782526125244
 31
0.0
  0
ARC
  5
C5
330
2
100
AcDbEntity
  8
AM_CL
100
AcDbCircle
 10
380.9883848752043
 20
202.2782529575244
 30
0.0
 40
0.199999995
100
AcDbArc
 50
270.0
 51
0.0
  0
ARC
  5
C6
330
2
100
AcDbEntity
  8
AM_CL
100
AcDbCircle
 10
367.4883852127043
 20
206.5586376082441
 30
0.0
 40
0.199999995
100
AcDbArc
 50
240.0
 51
0.0
  0
LINE
  5
C7
330
2
100
AcDbEntity
  8
AM_CL
100
AcDbLine
 10
367.3883852152043
 20
206.3854325318174
 30
0.0
 11
366.5633852358293
 21
206.861746491991
 31
0.0
  0
LINE
  5
C8
330
2
100
AcDbEntity
  8
AM_CL
100
AcDbLine
 10
369.9383851514543
 20
206.8952401402075
 30
0.0
 11
371.1883851202043
 21
206.8952401402075
 31
0.0
  0
LINE
  5
C9
330
2
100
AcDbEntity
  8
AM_CL
100
AcDbLine
 10
368.9883851752043
 20
206.3854325318174
 30
0.0
 11
369.8133851545794
 21
206.861746491991
 31
0.0
  0
ARC
  5
CA
330
2
100
AcDbEntity
  8
AM_CL
100
AcDbCircle
 10
369.9383851514543
 20
206.6452401464576
 30
0.0
 40
0.24999999375
100
AcDbArc
 50
0.0
 51
119.9999999999999
  0
ARC
  5
CB
330
2
100
AcDbEntity
  8
AM_CL
100
AcDbCircle
 10
368.8883851777043
 20
206.5586376082441
 30
0.0
 40
0.199999995
100
AcDbArc
 50
180.0
 51
300.0
  0
LINE
  5
CC
330
2
100
AcDbEntity
  8
AM_CL
100
AcDbLine
 10
372.1883850952043
 20
208.0782525875244
 30
0.0
 11
378.1883849452045
 21
208.0782525875245
 31
0.0
  0
ARC
  5
CD
330
2
100
AcDbEntity
  8
AM_CL
100
AcDbCircle
 10
369.9883851502043
 20
202.2782529575244
 30
0.0
 40
0.199999995
100
AcDbArc
 50
270.0
 51
0.0
  0
LINE
  5
CE
330
2
100
AcDbEntity
  8
AM_CL
100
AcDbLine
 10
371.1883851202043
 20
206.8952401402075
 30
0.0
 11
371.1883851202043
 21
202.0782529625244
 31
0.0
  0
LINE
  5
CF
330
2
100
AcDbEntity
  8
AM_CL
100
AcDbLine
 10
370.1883851452044
 20
206.6452401464576
 30
0.0
 11
370.1883851452044
 21
202.2782529575244
 31
0.0
  0
ARC
  5
D0
330
2
100
AcDbEntity
  8
AM_CL
100
AcDbCircle
 10
380.3883848902043
 20
202.2782529575244
 30
0.0
 40
0.199999995
100
AcDbArc
 50
180.0
 51
270.0
  0
LINE
  5
D1
330
2
100
AcDbEntity
  8
AM_CL
100
AcDbLine
 10
379.1883849202044
 20
202.0782529625244
 30
0.0
 11
380.9883848752043
 21
202.0782529625244
 31
0.0
  0
LINE
  5
D2
330
2
100
AcDbEntity
  8
AM_CL
100
AcDbLine
 10
368.6883851827043
 20
215.8782526175244
 30
0.0
 11
368.6883851827043
 21
206.5586376082441
 31
0.0
  0
LINE
  5
D3
330
2
100
AcDbEntity
  8
AM_CL
100
AcDbLine
 10
367.6883852077044
 20
215.8782526175244
 30
0.0
 11
367.6883852077044
 21
206.5586376082441
 31
0.0
  0
LINE
  5
D4
330
2
100
AcDbEntity
  8
AM_CL
100
AcDbLine
 10
380.1883848952043
 20
215.8782526175244
 30
0.0
 11
380.1883848952043
 21
202.2782529575244
 31
0.0
  0
LINE
  5
D5
330
2
100
AcDbEntity
  8
AM_CL
100
AcDbLine
 10
379.1883849202044
 20
216.0782526125243
 30
0.0
 11
379.1883849202044
 21
202.0782529625244
 31
0.0
  0
LINE
  5
D6
330
2
100
AcDbEntity
  8
AM_CL
100
AcDbLine
 10
381.1883848702044
 20
216.8782525925244
 30
0.0
 11
381.1883848702044
 21
202.2782529575244
 31
0.0
  0
ARC
  5
D7
330
2
100
AcDbEntity
  8
AM_CL
100
AcDbCircle
 10
356.3883854902043
 20
215.8782526175244
 30
0.0
 40
0.199999995
100
AcDbArc
 50
90.0
 51
180.0
  0
ARC
  5
D8
330
2
100
AcDbEntity
  8
AM_CL
100
AcDbCircle
 10
355.3883855152043
 20
216.8782525925244
 30
0.0
 40
0.199999995
100
AcDbArc
 50
90.0
 51
180.0
  0
LINE
  5
D9
330
2
100
AcDbEntity
  8
AM_CL
100
AcDbLine
 10
355.3883855152043
 20
202.0782529625244
 30
0.0
 11
357.1883854702044
 21
202.0782529625244
 31
0.0
  0
ARC
  5
DA
330
2
100
AcDbEntity
  8
AM_CL
100
AcDbCircle
 10
355.9883855002043
 20
202.2782529575244
 30
0.0
 40
0.199999995
100
AcDbArc
 50
270.0
 51
0.0
  0
ARC
  5
DB
330
2
100
AcDbEntity
  8
AM_CL
100
AcDbCircle
 10
355.3883855152043
 20
202.2782529575244
 30
0.0
 40
0.199999995
100
AcDbArc
 50
180.0
 51
270.0
  0
LINE
  5
DC
330
2
100
AcDbEntity
  8
AM_CL
100
AcDbLine
 10
365.1883852702043
 20
206.8952401402075
 30
0.0
 11
365.1883852702043
 21
202.0782529625245
 31
0.0
  0
LINE
  5
DD
330
2
100
AcDbEntity
  8
AM_CL
100
AcDbLine
 10
366.1883852452044
 20
206.6452401464576
 30
0.0
 11
366.1883852452044
 21
202.2782529575244
 31
0.0
  0
LINE
  5
DE
330
2
100
AcDbEntity
  8
AM_CL
100
AcDbLine
 10
355.1883855202043
 20
216.8782525925244
 30
0.0
 11
355.1883855202043
 21
202.2782529575244
 31
0.0
  0
LINE
  5
DF
330
2
100
AcDbEntity
  8
AM_CL
100
AcDbLine
 10
357.1883854702044
 20
216.0782526125243
 30
0.0
 11
357.1883854702044
 21
202.0782529625244
 31
0.0
  0
LINE
  5
E0
330
2
100
AcDbEntity
  8
AM_CL
100
AcDbLine
 10
356.1883854952043
 20
215.8782526175244
 30
0.0
 11
356.1883854952043
 21
202.2782529575244
 31
0.0
  0
LINE
  5
E1
330
2
100
AcDbEntity
  8
AM_CL
100
AcDbLine
 10
356.3883854902043
 20
216.0782526125244
 30
0.0
 11
367.4883852127043
 21
216.0782526125244
 31
0.0
  0
LINE
  5
E2
330
2
100
AcDbEntity
  8
AM_CL
100
AcDbLine
 10
355.3883855152043
 20
217.0782525875244
 30
0.0
 11
380.9883848752043
 21
217.0782525875244
 31
0.0
  0
LINE
  5
E3
330
2
100
AcDbEntity
  8
AM_CL
100
AcDbLine
 10
365.1883852702043
 20
202.0782529625245
 30
0.0
 11
371.1883851202043
 21
202.0782529625244
 31
0.0
  0
ARC
  5
E4
330
2
100
AcDbEntity
  8
AM_CL
100
AcDbCircle
 10
366.3883852402043
 20
202.2782529575244
 30
0.0
 40
0.199999995
100
AcDbArc
 50
180.0
 51
270.0
  0
ARC
  5
E5
330
2
100
AcDbEntity
  8
AM_CL
100
AcDbCircle
 10
366.4383852389543
 20
206.6452401464576
 30
0.0
 40
0.24999999375
100
AcDbArc
 50
60.00000000000006
 51
180.0
  0
LINE
  5
E6
330
2
100
AcDbEntity
  8
AM_CL
100
AcDbLine
 10
366.4383852389543
 20
206.8952401402075
 30
0.0
 11
365.1883852702043
 21
206.8952401402075
 31
0.0
  0
HATCH
  5
E7
330
2
100
AcDbEntity
  8
AM_CL
100
AcDbHatch
 10
0.0
 20
0.0
 30
0.0
210
0.0
220
0.0
230
1.0
  2
SOLID
 70
     1
 71
     0
 91
        4
 92
        7
 72
     1
 73
     1
 93
        6
 10
356.1883854952043
 20
202.2782529575244
 42
-0.4142135623730398
 10
355.9883855002043
 20
202.0782529625244
 42
0.0
 10
357.1883854702044
 20
202.0782529625244
 42
0.0
 10
357.1883854702044
 20
216.0782526125244
 42
0.0
 10
356.3883854902043
 20
216.0782526125244
 42
0.4142135623730406
 10
356.1883854952043
 20
215.8782526175245
 42
0.0
 97
        0
 92
        7
 72
     1
 73
     1
 93
        6
 10
365.1883852702043
 20
202.0782529625244
 42
0.0
 10
366.3883852402043
 20
202.0782529625244
 42
-0.4142135623730379
 10
366.1883852452044
 20
202.2782529575244
 42
0.0
 10
366.1883852452044
 20
206.6452401464576
 42
-0.4142135623731037
 10
366.4383852389543
 20
206.8952401402075
 42
0.0
 10
365.1883852702043
 20
206.8952401402076
 42
0.0
 97
        0
 92
        7
 72
     1
 73
     1
 93
        6
 10
370.1883851452044
 20
202.2782529575244
 42
-0.4142135623730392
 10
369.9883851502044
 20
202.0782529625244
 42
0.0
 10
371.1883851202043
 20
202.0782529625245
 42
0.0
 10
371.1883851202043
 20
206.8952401402075
 42
0.0
 10
369.9383851514543
 20
206.8952401402075
 42
-0.4142135623731037
 10
370.1883851452044
 20
206.6452401464576
 42
0.0
 97
        0
 92
        7
 72
     1
 73
     1
 93
        6
 10
379.1883849202044
 20
202.0782529625244
 42
0.0
 10
380.3883848902043
 20
202.0782529625244
 42
-0.41421356237304
 10
380.1883848952043
 20
202.2782529575244
 42
0.0
 10
380.1883848952043
 20
215.8782526175245
 42
0.4142135623730406
 10
379.9883849002044
 20
216.0782526125244
 42
0.0
 10
379.1883849202044
 20
216.0782526125244
 42
0.0
 97
        0
 75
     0
 76
     1
 47
0.0315567598989463
 98
        4
 10
356.5395505880198
 20
213.0564431225436
 10
365.5056344251606
 20
205.1462155094879
 10
370.4727606072148
 20
204.935837101919
 10
379.5230330654468
 20
206.997545437071
450
        0
451
        0
460
0.0
461
0.0
452
        0
462
0.0
453
        0
470

  0
LINE
  5
E8
330
2
100
AcDbEntity
  8
AM_CL
100
AcDbLine
 10
365.4883852627043
 20
134.6463201163672
 30
0.0
 11
365.5383852614544
 21
134.6463201163672
 31
0.0
  0
ARC
  5
E9
330
2
100
AcDbEntity
  8
AM_CL
100
AcDbCircle
 10
375.3387655357778
 20
134.4966998144406
 30
0.0
 40
0.6496194644265476
100
AcDbArc
 50
0.0
 51
178.3232660073769
  0
LINE
  5
EA
330
2
100
AcDbEntity
  8
AM_CL
100
AcDbLine
 10
374.0995881172214
 20
132.4167553391603
 30
0.0
 11
374.1001928433087
 21
132.4178155368529
 31
0.0
  0
ARC
  5
EB
330
2
100
AcDbEntity
  8
AM_CL
100
AcDbCircle
 10
370.1913511260578
 20
134.6473794890596
 30
0.0
 40
4.499999887499999
100
AcDbArc
 50
330.2999999999992
 51
358.3232660073784
  0
ARC
  5
EC
330
2
100
AcDbEntity
  8
AM_CL
100
AcDbCircle
 10
376.9883849752043
 20
130.5463193938671
 30
0.0
 40
0.199999995
100
AcDbArc
 50
270.0
 51
0.0
  0
LINE
  5
ED
330
2
100
AcDbEntity
  8
AM_CL
100
AcDbLine
 10
377.1883849702043
 20
134.6463192913672
 30
0.0
 11
377.1883849702043
 21
130.5463193938671
 31
0.0
  0
ARC
  5
EE
330
2
100
AcDbEntity
  8
AM_CL
100
AcDbCircle
 10
376.1883849952044
 20
130.5463193938671
 30
0.0
 40
0.199999995
100
AcDbArc
 50
180.0
 51
270.0
  0
LINE
  5
EF
330
2
100
AcDbEntity
  8
AM_CL
100
AcDbLine
 10
375.9883850002044
 20
134.4966998144406
 30
0.0
 11
375.9883850002043
 21
130.5463193938671
 31
0.0
  0
LINE
  5
F0
330
2
100
AcDbEntity
  8
AM_CL
100
AcDbLine
 10
376.9883849752043
 20
130.3463193988672
 30
0.0
 11
376.1883849952044
 21
130.3463193988672
 31
0.0
  0
ARC
  5
F1
330
2
100
AcDbEntity
  8
AM_CL
100
AcDbCircle
 10
370.1893852451993
 20
134.5463192938671
 30
0.0
 40
2.999999925
100
AcDbArc
 50
270.0
 51
1.145991998389076
  0
ARC
  5
F2
330
2
100
AcDbEntity
  8
AM_CL
100
AcDbCircle
 10
370.1907463999706
 20
134.6463192913671
 30
0.0
 40
4.499999887499999
100
AcDbArc
 50
270.0
 51
330.2999999999992
  0
ARC
  5
F3
330
2
100
AcDbEntity
  8
AM_CL
100
AcDbCircle
 10
375.1883850202044
 20
134.6463192913672
 30
0.0
 40
1.99999995
100
AcDbArc
 50
0.0
 51
181.145991998389
  0
ARC
  5
F4
330
2
100
AcDbEntity
  8
AM_CL
100
AcDbCircle
 10
361.0380048546309
 20
134.4966998144406
 30
0.0
 40
0.6496194644265476
100
AcDbArc
 50
1.676733992623032
 51
180.0
  0
ARC
  5
F5
330
2
100
AcDbEntity
  8
AM_CL
100
AcDbCircle
 10
360.1883853952044
 20
130.5463193938671
 30
0.0
 40
0.199999995
100
AcDbArc
 50
270.0
 51
0.0
  0
LINE
  5
F6
330
2
100
AcDbEntity
  8
AM_CL
100
AcDbLine
 10
360.3883853902043
 20
134.4966998144406
 30
0.0
 11
360.3883853902043
 21
130.5463193938671
 31
0.0
  0
LINE
  5
F7
330
2
100
AcDbEntity
  8
AM_CL
100
AcDbLine
 10
360.1883853952044
 20
130.3463193988672
 30
0.0
 11
359.3883854152043
 21
130.3463193988672
 31
0.0
  0
ARC
  5
F8
330
2
100
AcDbEntity
  8
AM_CL
100
AcDbCircle
 10
366.1860239904382
 20
134.6463192913672
 30
0.0
 40
4.499999887499999
100
AcDbArc
 50
209.7000000000008
 51
270.0
  0
ARC
  5
F9
330
2
100
AcDbEntity
  8
AM_CL
100
AcDbCircle
 10
366.1873851452094
 20
134.5463192938671
 30
0.0
 40
2.999999925
100
AcDbArc
 50
178.8540080016109
 51
270.0
  0
LINE
  5
FA
330
2
100
AcDbEntity
  8
AM_CL
100
AcDbLine
 10
362.2771822731873
 20
132.2820240328176
 30
0.0
 11
362.2765775471
 21
132.28308423051
 31
0.0
  0
ARC
  5
FB
330
2
100
AcDbEntity
  8
AM_CL
100
AcDbCircle
 10
366.1854192643509
 20
134.6473794890596
 30
0.0
 40
4.499999887499999
100
AcDbArc
 50
181.6767339926215
 51
209.7000000000008
  0
LINE
  5
FC
330
2
100
AcDbEntity
  8
AM_CL
100
AcDbLine
 10
359.1883854202043
 20
134.6463192913672
 30
0.0
 11
359.1883854202043
 21
130.5463193938671
 31
0.0
  0
ARC
  5
FD
330
2
100
AcDbEntity
  8
AM_CL
100
AcDbCircle
 10
359.3883854152043
 20
130.5463193938671
 30
0.0
 40
0.199999995
100
AcDbArc
 50
180.0
 51
270.0
  0
ARC
  5
FE
330
2
100
AcDbEntity
  8
AM_CL
100
AcDbCircle
 10
361.1883853702043
 20
134.6463192913672
 30
0.0
 40
1.99999995
100
AcDbArc
 50
358.8540080016108
 51
180.0
  0
LINE
  5
FF
330
2
100
AcDbEntity
  8
AM_CL
100
AcDbLine
 10
366.1860239904382
 20
130.1463194038672
 30
0.0
 11
370.1907463999706
 21
130.1463194038671
 31
0.0
  0
LINE
  5
100
330
2
100
AcDbEntity
  8
AM_CL
100
AcDbLine
 10
366.1873851452094
 20
131.5463193688671
 30
0.0
 11
370.1893852451993
 21
131.5463193688671
 31
0.0
  0
LINE
  5
101
330
2
100
AcDbEntity
  8
AM_CL
100
AcDbLine
 10
372.1883850952043
 20
194.5146292227066
 30
0.0
 11
372.1883850952043
 21
154.3463196238672
 31
0.0
  0
LINE
  5
102
330
2
100
AcDbEntity
  8
AM_CL
100
AcDbLine
 10
372.1883850952043
 20
208.0782525875244
 30
0.0
 11
372.1883850952043
 21
196.5049558233128
 31
0.0
  0
LINE
  5
103
330
2
100
AcDbEntity
  8
AM_CL
100
AcDbLine
 10
378.1883849452043
 20
194.5146292227066
 30
0.0
 11
378.1883849452045
 21
154.3463196238672
 31
0.0
  0
LINE
  5
104
330
2
100
AcDbEntity
  8
AM_CL
100
AcDbLine
 10
378.1883849452043
 20
208.0782525875244
 30
0.0
 11
378.1883849452043
 21
196.5049558233128
 31
0.0
  0
MTEXT
  5
105
102
{ACAD_XDICTIONARY
360
27E
102
}
330
2
100
AcDbEntity
  8
AM_0
100
AcDbMText
 10
374.871934858277
 20
12.20259903832584
 30
0.0
 40
5.0
 41
143.4216733775022
 71
     1
 72
     5
  1
{\fArial|b0|i0|c0|p34;Supra Beschlag bis 8mm Glasst\U+00E4rke}
 73
     1
 44
1.0
  0
MTEXT
  5
106
330
2
100
AcDbEntity
  8
AM_CL
100
AcDbMText
 10
266.5825527886309
 20
9.119388179637439
 30
0.0
 40
2.5
 41
29.85933839171366
 71
     1
 72
     5
  1
222375_22.09.09
 11
0.0000000000000001
 21
1.0
 31
0.0
 73
     1
 44
1.0
  0
INSERT
  5
107
330
2
100
AcDbEntity
  8
AM_4
100
AcDbBlockReference
  2
BORDER
 10
261.5173306856025
 20
0.0
 30
0.0
 41
210.0
 42
297.0
 43
210.0
  0
INSERT
  5
22A
330
2
100
AcDbEntity
  8
AM_0
100
AcDbBlockReference
  2
Schutzvermerk
 10
268.5173306856025
 20
189.5000000000059
 30
0.0
  0
INSERT
  5
272
330
2
100
AcDbEntity
  8
AM_0
100
AcDbBlockReference
  2
VITRIS_LOGO
 10
261.5173306856025
 20
297.0000000000119
 30
0.0
  0
ENDSEC
  0
SECTION
  2
OBJECTS
  0
DICTIONARY
  5
B
330
0
100
AcDbDictionary
281
     1
  3
ACAD_COLOR
350
34
  3
ACAD_GROUP
350
2F
  3
ACAD_IMAGE_DICT
350
5D
  3
ACAD_IMAGE_VARS
350
1A3
  3
ACAD_LAYOUT
350
11
  3
ACAD_MATERIAL
350
D
  3
ACAD_MLEADERSTYLE
350
19E
  3
ACAD_MLINESTYLE
350
30
  3
ACAD_PLOTSETTINGS
350
31
  3
ACAD_PLOTSTYLENAME
350
A
  3
ACAD_SCALELIST
350
35
  3
ACAD_TABLESTYLE
350
36
  3
ACAD_VISUALSTYLE
350
14
  3
ACDB_RECOMPOSE_DATA
350
275
  3
AcDbVariableDictionary
350
175
  3
AcmDictionary
350
120
  3
AMG
350
111
  3
AMGSNAPSETTINGS
350
219
  0
DICTIONARY
  5
1B
330
1A
100
AcDbDictionary
280
     1
281
     1
  3
ACAD_LAYERSTATES
360
1C
  0
DICTIONARY
  5
7
330
6
100
AcDbDictionary
280
     1
281
     1
  3
ADSK_XREC_LAYER_RECONCILED
360
8
  0
DICTIONARY
  5
38
330
37
100
AcDbDictionary
280
     1
281
     1
  3
ADSK_XREC_LAYER_RECONCILED
360
39
  0
DICTIONARY
  5
A5
330
A4
100
AcDbDictionary
280
     1
281
     1
  0
DICTIONARY
  5
5B
330
5A
100
AcDbDictionary
280
     1
281
     1
  0
DICTIONARY
  5
3
330
2
100
AcDbDictionary
280
     1
281
     1
  3
ACAD_SORTENTS
360
10F
  0
DICTIONARY
  5
225
330
221
100
AcDbDictionary
280
     1
281
     1
  3
ACAD_SORTENTS
360
226
  0
DICTIONARY
  5
26D
330
230
100
AcDbDictionary
280
     1
281
     1
  3
ACAD_SORTENTS
360
26E
  0
DICTIONARY
  5
27E
330
105
100
AcDbDictionary
280
     1
281
     1
  3
ACAD_MTEXT_2008_RT
360
27F
  0
DICTIONARY
  5
34
102
{ACAD_REACTORS
330
B
102
}
330
B
100
AcDbDictionary
281
     1
  0
DICTIONARY
  5
2F
102
{ACAD_REACTORS
330
B
102
}
330
B
100
AcDbDictionary
281
     1
  0
DICTIONARY
  5
5D
102
{ACAD_REACTORS
330
B
102
}
330
B
100
AcDbDictionary
281
     1
  3
Vitris_Logo_rgb
350
5C
  0
RASTERVARIABLES
  5
1A3
102
{ACAD_REACTORS
330
B
102
}
330
B
100
AcDbRasterVariables
 90
        0
 70
     1
 71
     1
 72
     1
  0
DICTIONARY
  5
11
102
{ACAD_REACTORS
330
B
102
}
330
B
100
AcDbDictionary
281
     1
  3
Layout1
350
19
  3
Model
350
10
  0
DICTIONARY
  5
D
102
{ACAD_REACTORS
330
B
102
}
330
B
100
AcDbDictionary
281
     1
  3
ByBlock
350
33
  3
ByLayer
350
32
  3
Global
350
C
  0
DICTIONARY
  5
19E
102
{ACAD_REACTORS
330
B
102
}
330
B
100
AcDbDictionary
281
     1
  3
Standard
350
19F
  0
DICTIONARY
  5
30
102
{ACAD_REACTORS
330
B
102
}
330
B
100
AcDbDictionary
281
     1
  3
Standard
350
3A
  0
DICTIONARY
  5
31
102
{ACAD_REACTORS
330
B
102
}
330
B
100
AcDbDictionary
281
     1
  0
ACDBDICTIONARYWDFLT
  5
A
102
{ACAD_REACTORS
330
B
102
}
330
B
100
AcDbDictionary
281
     1
  3
Normal
350
9
100
AcDbDictionaryWithDefault
340
9
  0
DICTIONARY
  5
35
102
{ACAD_REACTORS
330
B
102
}
330
B
100
AcDbDictionary
281
     1
  3
A0
350
41
  3
A1
350
42
  3
A2
350
43
  3
A3
350
44
  3
A4
350
45
  3
A5
350
46
  3
A6
350
47
  3
A7
350
48
  3
A8
350
49
  3
A9
350
4A
  3
B0
350
4B
  3
B1
350
4C
  3
B2
350
4D
  3
B3
350
4E
  3
B4
350
4F
  3
B5
350
50
  3
B6
350
51
  0
DICTIONARY
  5
36
102
{ACAD_REACTORS
330
B
102
}
330
B
100
AcDbDictionary
281
     1
  3
Standard
350
3F
  3
Willach
350
3B
  0
DICTIONARY
  5
14
102
{ACAD_REACTORS
330
B
102
}
330
B
100
AcDbDictionary
281
     1
  3
2dWireframe
350
13
  3
3dWireframe
350
3E
  3
Basic
350
18C
  3
Brighten
350
191
  3
ColorChange
350
195
  3
Conceptual
350
18F
  3
Dim
350
190
  3
EdgeColorOff
350
19D
  3
Facepattern
350
194
  3
Flat
350
188
  3
FlatWithEdges
350
189
  3
Gouraud
350
18A
  3
GouraudWithEdges
350
18B
  3
Hidden
350
18E
  3
JitterOff
350
19B
  3
Linepattern
350
193
  3
OverhangOff
350
19C
  3
Realistic
350
3D
  3
Shaded
350
19A
  3
Shaded with edges
350
199
  3
Shades of Gray
350
196
  3
Sketchy
350
197
  3
Thicken
350
192
  3
Wireframe
350
18D
  3
X-Ray
350
198
  0
XRECORD
  5
275
102
{ACAD_REACTORS
330
B
102
}
330
B
100
AcDbXrecord
280
     1
 90
        1
330
3B
330
3F
  0
DICTIONARY
  5
175
102
{ACAD_REACTORS
330
B
102
}
330
B
100
AcDbDictionary
281
     1
  3
CANNOSCALE
350
178
  3
CMLEADERSTYLE
350
177
  3
CTABLESTYLE
350
176
  0
DICTIONARY
  5
120
102
{ACAD_REACTORS
330
B
102
}
330
B
100
AcDbDictionary
281
     1
  3
AcmStdDictionary
350
121
  0
DICTIONARY
  5
111
102
{ACAD_REACTORS
330
B
102
}
330
B
100
AcDbDictionary
281
     1
  0
DICTIONARY
  5
219
102
{ACAD_REACTORS
330
B
102
}
330
B
100
AcDbDictionary
281
     1
  0
DICTIONARY
  5
1C
102
{ACAD_REACTORS
330
1B
102
}
330
1B
100
AcDbDictionary
281
     1
  0
XRECORD
  5
8
102
{ACAD_REACTORS
330
7
102
}
330
7
100
AcDbXrecord
280
     1
290
     1
  0
XRECORD
  5
39
102
{ACAD_REACTORS
330
38
102
}
330
38
100
AcDbXrecord
280
     1
290
     1
  0
SORTENTSTABLE
  5
10F
102
{ACAD_REACTORS
330
3
102
}
330
3
100
AcDbSortentsTable
330
2
331
E6
  5
82
331
74
  5
F4
331
E2
  5
86
331
70
  5
F8
331
B7
  5
B4
331
DE
  5
8A
331
DA
  5
8E
331
55
  5
106
331
B3
  5
B8
331
6E
  5
FA
331
6A
  5
FE
331
AF
  5
BC
331
D6
  5
92
331
AB
  5
C0
331
D2
  5
96
331
9F
  5
C9
331
CE
  5
9A
331
CA
  5
9E
331
104
  5
58
331
9B
  5
CD
331
100
  5
63
331
C6
  5
A2
331
97
  5
D1
331
93
  5
D5
331
C2
  5
A9
331
FD
  5
6B
331
8F
  5
D9
331
A2
  5
C6
331
BE
  5
AD
331
F9
  5
6F
331
8B
  5
DD
331
BA
  5
B1
331
F5
  5
73
331
87
  5
E1
331
83
  5
E5
331
62
  5
101
331
F1
  5
77
331
7F
  5
E9
331
ED
  5
7B
331
E9
  5
7F
331
7B
  5
ED
331
E5
  5
83
331
77
  5
F1
331
73
  5
F5
331
E1
  5
87
331
B6
  5
B5
331
DD
  5
8B
331
D9
  5
8F
331
B2
  5
B9
331
6D
  5
FB
331
69
  5
FF
331
AE
  5
BD
331
D5
  5
93
331
AA
  5
C1
331
D1
  5
97
331
107
  5
52
331
9E
  5
CA
331
CD
  5
9B
331
C9
  5
9F
331
103
  5
59
331
9A
  5
CE
331
96
  5
D2
331
C5
  5
A3
331
92
  5
D6
331
C1
  5
AA
331
FC
  5
6C
331
8E
  5
DA
331
A1
  5
C7
331
BD
  5
AE
331
B9
  5
B2
331
F8
  5
70
331
8A
  5
DE
331
F4
  5
74
331
86
  5
E2
331
82
  5
E6
331
F0
  5
78
331
EC
  5
7C
331
7E
  5
EA
331
E8
  5
80
331
7A
  5
EE
331
E4
  5
84
331
76
  5
F2
331
72
  5
F6
331
E0
  5
88
331
57
  5
105
331
B5
  5
B6
331
DC
  5
8C
331
D8
  5
90
331
6C
  5
FC
331
B1
  5
BA
331
AD
  5
BE
331
D4
  5
94
331
A9
  5
C2
331
D0
  5
98
331
106
  5
55
331
9D
  5
CB
331
CC
  5
9C
331
C8
  5
A0
331
102
  5
5F
331
99
  5
CF
331
58
  5
104
331
95
  5
D3
331
C4
  5
A7
331
91
  5
D7
331
C0
  5
AB
331
FF
  5
69
331
FB
  5
6D
331
8D
  5
DB
331
A0
  5
C8
331
BC
  5
AF
331
B8
  5
B3
331
89
  5
DF
331
F7
  5
71
331
85
  5
E3
331
F3
  5
75
331
81
  5
E7
331
EF
  5
79
331
EB
  5
7D
331
7D
  5
EB
331
79
  5
EF
331
E7
  5
81
331
E3
  5
85
331
75
  5
F3
331
71
  5
F7
331
DF
  5
89
331
DB
  5
8D
331
B4
  5
B7
331
6F
  5
F9
331
6B
  5
FD
331
B0
  5
BB
331
D7
  5
91
331
AC
  5
BF
331
D3
  5
95
331
A8
  5
C3
331
CF
  5
99
331
105
  5
57
331
9C
  5
CC
331
5F
  5
102
331
CB
  5
9D
331
101
  5
62
331
98
  5
D0
331
C7
  5
A1
331
94
  5
D4
331
A7
  5
C4
331
C3
  5
A8
331
90
  5
D8
331
A3
  5
C5
331
BF
  5
AC
331
FE
  5
6A
331
FA
  5
6E
331
8C
  5
DC
331
BB
  5
B0
331
88
  5
E0
331
F6
  5
72
331
84
  5
E4
331
63
  5
100
331
F2
  5
76
331
80
  5
E8
331
EE
  5
7A
331
EA
  5
7E
331
7C
  5
EC
331
78
  5
F0
  0
SORTENTSTABLE
  5
226
102
{ACAD_REACTORS
330
225
102
}
330
225
100
AcDbSortentsTable
330
221
  0
SORTENTSTABLE
  5
26E
102
{ACAD_REACTORS
330
26D
102
}
330
26D
100
AcDbSortentsTable
330
230
  0
XRECORD
  5
27F
102
{ACAD_REACTORS
330
27E
102
}
330
27E
100
AcDbXrecord
280
     1
 40
171109.0
  1
{\fArial|b0|i0|c0|p34;Supra Beschlag bis 8mm Glasstärke}
  0
IMAGEDEF
  5
5C
102
{ACAD_REACTORS
330
5D
330
5E
102
}
330
5D
100
AcDbRasterImageDef
 90
        0
  1
C:\Documents and Settings\Dm\Desktop\Vitris_Logo_rgb.JPG
 10
378.0
 20
146.0
 11
0.1693333333333333
 21
0.1693333333333333
280
     1
281
     5
  0
LAYOUT
  5
19
102
{ACAD_REACTORS
330
11
102
}
330
11
100
AcDbPlotSettings
  1

  2

  4

  6

 40
0.0
 41
0.0
 42
0.0
 43
0.0
 44
0.0
 45
0.0
 46
0.0
 47
0.0
 48
0.0
 49
0.0
140
0.0
141
0.0
142
1.0
143
1.0
 70
   688
 72
     0
 73
     0
 74
     5
  7
HP 4050_schwarz_duenner.ctb
 75
    16
147
1.0
 76
     0
 77
     2
 78
   300
148
0.0
149
0.0
100
AcDbLayout
  1
Layout1
 70
     1
 71
     1
 10
0.0
 20
0.0
 11
420.0
 21
297.0
 12
0.0
 22
0.0
 32
0.0
 14
1.000000000000000E+20
 24
1.000000000000000E+20
 34
1.000000000000000E+20
 15
-1.000000000000000E+20
 25
-1.000000000000000E+20
 35
-1.000000000000000E+20
146
0.0
 13
0.0
 23
0.0
 33
0.0
 16
1.0
 26
0.0
 36
0.0
 17
0.0
 27
1.0
 37
0.0
 76
     0
330
16
  0
LAYOUT
  5
10
102
{ACAD_REACTORS
330
11
102
}
330
11
100
AcDbPlotSettings
  1
DWF_Page
  2
DWF6 ePlot.pc3
  4
ISO_A3_(420.00_x_297.00_MM)
  6
AM_VIEW1
 40
5.793749809265136
 41
17.79375076293945
 42
5.79376220703125
 43
17.79376220703125
 44
420.0
 45
297.0
 46
0.0
 47
75.90656845827492
 48
1701.618145564118
 49
9.522985938868259
140
2702.390645564927
141
454.1229859406889
142
1.0
143
11.25293470015486
 70
 11956
 72
     1
 73
     0
 74
     1
  7
DWF_Mono.ctb
 75
     0
147
0.0888657071818109
 76
     1
 77
     2
 78
   300
148
1702.661462903077
149
-38.94237863787976
100
AcDbLayout
  1
Model
 70
     1
 71
     0
 10
0.0
 20
0.0
 11
12.0
 21
9.0
 12
0.0
 22
0.0
 32
0.0
 14
0.0
 24
0.0
 34
0.0
 15
0.0
 25
0.0
 35
0.0
146
0.0
 13
0.0
 23
0.0
 33
0.0
 16
1.0
 26
0.0
 36
0.0
 17
0.0
 27
1.0
 37
0.0
 76
     0
330
2
331
26
1001
ACAD_PSEXT
1000
DWF6 ePlot.pc3
1000
DWF6 ePlot
1000
Datei
1000

1070
     0
  0
MATERIAL
  5
33
102
{ACAD_XDICTIONARY
360
181
102
}
102
{ACAD_REACTORS
330
D
102
}
330
D
100
AcDbMaterial
  1
ByBlock
 73
     1
 78
     1
172
     1
176
     1
270
     1
274
     1
  0
MATERIAL
  5
32
102
{ACAD_XDICTIONARY
360
17F
102
}
102
{ACAD_REACTORS
330
D
102
}
330
D
100
AcDbMaterial
  1
ByLayer
 73
     1
 78
     1
172
     1
176
     1
270
     1
274
     1
  0
MATERIAL
  5
C
102
{ACAD_XDICTIONARY
360
17D
102
}
102
{ACAD_REACTORS
330
D
102
}
330
D
100
AcDbMaterial
  1
Global
 73
     1
 78
     1
172
     1
176
     1
270
     1
274
     1
  0
MLEADERSTYLE
  5
19F
102
{ACAD_REACTORS
330
19E
102
}
330
19E
100
AcDbMLeaderStyle
170
     2
171
     1
172
     0
 90
        2
 40
0.0
 41
0.0
173
     1
 91
-1056964608
340
21
 92
       -2
290
     1
 42
2.0
291
     1
 43
0.36
  3
Standard
 44
4.0
300

342
1E
174
     1
178
     6
175
     1
176
     0
 93
-1056964608
 45
4.0
292
     0
297
     0
 46
4.0
 94
-1056964608
 47
1.0
 49
1.0
140
1.0
293
     1
141
0.0
294
     1
177
     0
142
1.0
295
     0
296
     0
143
0.125
1001
ACAD_MLEADERVER
1070
     2
  0
MLINESTYLE
  5
3A
102
{ACAD_REACTORS
330
30
102
}
330
30
100
AcDbMlineStyle
  2
STANDARD
 70
     0
  3

 62
   256
 51
90.0
 52
90.0
 71
     2
 49
0.5
 62
   256
  6
BYLAYER
 49
-0.5
 62
   256
  6
BYLAYER
  0
ACDBPLACEHOLDER
  5
9
102
{ACAD_REACTORS
330
A
102
}
330
A
  0
SCALE
  5
41
102
{ACAD_REACTORS
330
35
102
}
330
35
100
AcDbScale
 70
     0
300
1:1
140
1.0
141
1.0
290
     1
  0
SCALE
  5
42
102
{ACAD_REACTORS
330
35
102
}
330
35
100
AcDbScale
 70
     0
300
1:2
140
1.0
141
2.0
290
     0
  0
SCALE
  5
43
102
{ACAD_REACTORS
330
35
102
}
330
35
100
AcDbScale
 70
     0
300
1:4
140
1.0
141
4.0
290
     0
  0
SCALE
  5
44
102
{ACAD_REACTORS
330
35
102
}
330
35
100
AcDbScale
 70
     0
300
1:5
140
1.0
141
5.0
290
     0
  0
SCALE
  5
45
102
{ACAD_REACTORS
330
35
102
}
330
35
100
AcDbScale
 70
     0
300
1:8
140
1.0
141
8.0
290
     0
  0
SCALE
  5
46
102
{ACAD_REACTORS
330
35
102
}
330
35
100
AcDbScale
 70
     0
300
1:10
140
1.0
141
10.0
290
     0
  0
SCALE
  5
47
102
{ACAD_REACTORS
330
35
102
}
330
35
100
AcDbScale
 70
     0
300
1:16
140
1.0
141
16.0
290
     0
  0
SCALE
  5
48
102
{ACAD_REACTORS
330
35
102
}
330
35
100
AcDbScale
 70
     0
300
1:20
140
1.0
141
20.0
290
     0
  0
SCALE
  5
49
102
{ACAD_REACTORS
330
35
102
}
330
35
100
AcDbScale
 70
     0
300
1:30
140
1.0
141
30.0
290
     0
  0
SCALE
  5
4A
102
{ACAD_REACTORS
330
35
102
}
330
35
100
AcDbScale
 70
     0
300
1:40
140
1.0
141
40.0
290
     0
  0
SCALE
  5
4B
102
{ACAD_REACTORS
330
35
102
}
330
35
100
AcDbScale
 70
     0
300
1:50
140
1.0
141
50.0
290
     0
  0
SCALE
  5
4C
102
{ACAD_REACTORS
330
35
102
}
330
35
100
AcDbScale
 70
     0
300
1:100
140
1.0
141
100.0
290
     0
  0
SCALE
  5
4D
102
{ACAD_REACTORS
330
35
102
}
330
35
100
AcDbScale
 70
     0
300
2:1
140
2.0
141
1.0
290
     0
  0
SCALE
  5
4E
102
{ACAD_REACTORS
330
35
102
}
330
35
100
AcDbScale
 70
     0
300
4:1
140
4.0
141
1.0
290
     0
  0
SCALE
  5
4F
102
{ACAD_REACTORS
330
35
102
}
330
35
100
AcDbScale
 70
     0
300
8:1
140
8.0
141
1.0
290
     0
  0
SCALE
  5
50
102
{ACAD_REACTORS
330
35
102
}
330
35
100
AcDbScale
 70
     0
300
10:1
140
10.0
141
1.0
290
     0
  0
SCALE
  5
51
102
{ACAD_REACTORS
330
35
102
}
330
35
100
AcDbScale
 70
     0
300
100:1
140
100.0
141
1.0
290
     0
  0
TABLESTYLE
  5
3F
102
{ACAD_XDICTIONARY
360
40
102
}
102
{ACAD_REACTORS
330
36
102
}
330
36
100
AcDbTableStyle
  3
Standard
 70
     0
 71
     0
 40
1.5
 41
1.5
280
     0
281
     0
  7
Standard
140
4.5
170
     2
 62
     0
 63
     7
283
     0
274
    -2
284
     1
 64
     0
275
    -2
285
     1
 65
     0
276
    -2
286
     1
 66
     0
277
    -2
287
     1
 67
     0
278
    -2
288
     1
 68
     0
279
    -2
289
     1
 69
     0
  7
Standard
140
6.0
170
     5
 62
     0
 63
     7
283
     0
274
    -2
284
     1
 64
     0
275
    -2
285
     1
 65
     0
276
    -2
286
     1
 66
     0
277
    -2
287
     1
 67
     0
278
    -2
288
     1
 68
     0
279
    -2
289
     1
 69
     0
  7
Standard
140
4.5
170
     5
 62
     0
 63
     7
283
     0
274
    -2
284
     1
 64
     0
275
    -2
285
     1
 65
     0
276
    -2
286
     1
 66
     0
277
    -2
287
     1
 67
     0
278
    -2
288
     1
 68
     0
279
    -2
289
     1
 69
     0
  0
TABLESTYLE
  5
3B
102
{ACAD_XDICTIONARY
360
3C
102
}
102
{ACAD_REACTORS
330
36
102
}
330
36
100
AcDbTableStyle
  3
Standard
 70
     0
 71
     0
 40
1.5
 41
1.5
280
     0
281
     0
  7
Standard
140
3.5
170
     5
 62
     2
 63
     7
283
     0
274
    -2
284
     1
 64
     0
275
    -2
285
     1
 65
     0
276
    -2
286
     1
 66
     0
277
    -2
287
     1
 67
     0
278
    -2
288
     1
 68
     0
279
    -2
289
     1
 69
     0
  7
Standard
140
5.0
170
     5
 62
     7
 63
     7
283
     0
274
    -2
284
     1
 64
     0
275
    -2
285
     1
 65
     0
276
    -2
286
     1
 66
     0
277
    -2
287
     1
 67
     0
278
    -2
288
     1
 68
     0
279
    -2
289
     1
 69
     0
  7
Standard
140
3.5
170
     5
 62
     2
 63
   254
283
     1
274
    -2
284
     1
 64
     0
275
    -2
285
     1
 65
     0
276
    -2
286
     1
 66
     0
277
    -2
287
     1
 67
     0
278
    -2
288
     1
 68
     0
279
    -2
289
     1
 69
     0
  0
VISUALSTYLE
  5
13
102
{ACAD_XDICTIONARY
360
276
102
}
102
{ACAD_REACTORS
330
14
102
}
330
14
100
AcDbVisualStyle
  2

 70
     4
 71
     0
 72
     2
 73
     0
 90
        0
 40
-0.6
 41
-30.0
 62
     5
 63
     7
421
 16777215
 74
     1
 91
        4
 64
     7
 65
   257
 75
     1
175
     1
 42
1.0
 92
        0
 66
   257
 43
1.0
 76
     1
 77
     6
 78
     2
 67
     7
 79
     5
170
     0
171
     0
290
     0
174
     0
 93
        1
 44
0.0
173
     0
291
     0
 45
0.0
1001
ACAD
1000
AcDbSavedByObjectVersion
1070
     0
  0
VISUALSTYLE
  5
3E
102
{ACAD_XDICTIONARY
360
27B
102
}
102
{ACAD_REACTORS
330
14
102
}
330
14
100
AcDbVisualStyle
  2

 70
     5
 71
     0
 72
     2
 73
     0
 90
        0
 40
-0.6
 41
-30.0
 62
     5
 63
     7
421
 16777215
 74
     1
 91
        4
 64
     7
 65
   257
 75
     1
175
     1
 42
1.0
 92
        0
 66
   257
 43
1.0
 76
     1
 77
     6
 78
     2
 67
     7
 79
     5
170
     0
171
     0
290
     0
174
     0
 93
        1
 44
0.0
173
     0
291
     0
 45
0.0
1001
ACAD
1000
AcDbSavedByObjectVersion
1070
     0
  0
VISUALSTYLE
  5
18C
102
{ACAD_XDICTIONARY
360
288
102
}
102
{ACAD_REACTORS
330
14
102
}
330
14
100
AcDbVisualStyle
  2
Basic
 70
     7
 71
     1
 72
     0
 73
     1
 90
        0
 40
-0.6
 41
-30.0
 62
     5
 63
     7
421
 16777215
 74
     0
 91
        4
 64
     7
 65
   257
 75
     1
175
     1
 42
1.0
 92
        8
 66
     7
 43
1.0
 76
     1
 77
     6
 78
     2
 67
     7
 79
     5
170
     0
171
     0
290
     0
174
     0
 93
        1
 44
0.0
173
     0
291
     1
 45
0.0
1001
ACAD
1000
AcDbSavedByObjectVersion
1070
     0
  0
VISUALSTYLE
  5
191
102
{ACAD_XDICTIONARY
360
292
102
}
102
{ACAD_REACTORS
330
14
102
}
330
14
100
AcDbVisualStyle
  2
Brighten
 70
    12
 71
     2
 72
     2
 73
     0
 90
        0
 40
-0.6
 41
-30.0
 62
     5
 63
     7
421
 16777215
 74
     1
 91
        4
 64
     7
 65
   257
 75
     1
175
     1
 42
1.0
 92
        8
 66
     7
 43
1.0
 76
     1
 77
     6
 78
     2
 67
     7
 79
     5
170
     0
171
     0
290
     0
174
     0
 93
        1
 44
50.0
173
     0
291
     1
 45
0.0
1001
ACAD
1000
AcDbSavedByObjectVersion
1070
     0
  0
VISUALSTYLE
  5
195
102
{ACAD_XDICTIONARY
360
29A
102
}
102
{ACAD_REACTORS
330
14
102
}
330
14
100
AcDbVisualStyle
  2
ColorChange
 70
    16
 71
     2
 72
     2
 73
     3
 90
        0
 40
-0.6
 41
-30.0
 62
     5
 63
     8
421
  8421504
 74
     1
 91
        4
 64
     7
 65
   257
 75
     1
175
     1
 42
1.0
 92
        8
 66
     8
424
  8421504
 43
1.0
 76
     1
 77
     6
 78
     2
 67
     7
 79
     5
170
     0
171
     0
290
     0
174
     0
 93
        1
 44
0.0
173
     0
291
     1
 45
0.0
1001
ACAD
1000
AcDbSavedByObjectVersion
1070
     0
  0
VISUALSTYLE
  5
18F
102
{ACAD_XDICTIONARY
360
28E
102
}
102
{ACAD_REACTORS
330
14
102
}
330
14
100
AcDbVisualStyle
  2
Conceptual
 70
     9
 71
     3
 72
     2
 73
     0
 90
        0
 40
-0.6
 41
-30.0
 62
     5
 63
     7
421
 16777215
 74
     2
 91
        2
 64
     7
 65
   257
 75
     1
175
     1
 42
179.0
 92
        8
 66
     7
 43
1.0
 76
     1
 77
     6
 78
     2
 67
     7
 79
     3
170
     0
171
     0
290
     0
174
     0
 93
        1
 44
0.0
173
     0
291
     0
 45
0.0
1001
ACAD
1000
AcDbSavedByObjectVersion
1070
     0
  0
VISUALSTYLE
  5
190
102
{ACAD_XDICTIONARY
360
290
102
}
102
{ACAD_REACTORS
330
14
102
}
330
14
100
AcDbVisualStyle
  2
Dim
 70
    11
 71
     2
 72
     2
 73
     0
 90
        0
 40
-0.6
 41
-30.0
 62
     5
 63
     7
421
 16777215
 74
     1
 91
        4
 64
     7
 65
   257
 75
     1
175
     1
 42
1.0
 92
        8
 66
     7
 43
1.0
 76
     1
 77
     6
 78
     2
 67
     7
 79
     5
170
     0
171
     0
290
     0
174
     0
 93
        1
 44
-50.0
173
     0
291
     1
 45
0.0
1001
ACAD
1000
AcDbSavedByObjectVersion
1070
     0
  0
VISUALSTYLE
  5
19D
102
{ACAD_XDICTIONARY
360
2AA
102
}
102
{ACAD_REACTORS
330
14
102
}
330
14
100
AcDbVisualStyle
  2
EdgeColorOff
 70
    22
 71
     2
 72
     2
 73
     0
 90
        0
 40
-0.6
 41
-30.0
 62
     5
 63
     7
421
 16777215
 74
     1
 91
        4
 64
     7
 65
   257
 75
     1
175
     1
 42
1.0
 92
        8
 66
     7
 43
1.0
 76
     1
 77
     6
 78
     2
 67
     7
 79
     5
170
     0
171
     0
290
     0
174
     0
 93
        1
 44
0.0
173
     0
291
     1
 45
0.0
1001
ACAD
1000
AcDbSavedByObjectVersion
1070
     0
  0
VISUALSTYLE
  5
194
102
{ACAD_XDICTIONARY
360
298
102
}
102
{ACAD_REACTORS
330
14
102
}
330
14
100
AcDbVisualStyle
  2
Facepattern
 70
    15
 71
     2
 72
     2
 73
     0
 90
        0
 40
-0.6
 41
-30.0
 62
     5
 63
     7
421
 16777215
 74
     1
 91
        4
 64
     7
 65
   257
 75
     1
175
     1
 42
1.0
 92
        8
 66
     7
 43
1.0
 76
     1
 77
     6
 78
     2
 67
     7
 79
     5
170
     0
171
     0
290
     0
174
     0
 93
        1
 44
0.0
173
     0
291
     1
 45
0.0
1001
ACAD
1000
AcDbSavedByObjectVersion
1070
     0
  0
VISUALSTYLE
  5
188
102
{ACAD_XDICTIONARY
360
280
102
}
102
{ACAD_REACTORS
330
14
102
}
330
14
100
AcDbVisualStyle
  2
Flat
 70
     0
 71
     2
 72
     1
 73
     1
 90
        2
 40
-0.6
 41
30.0
 62
     5
 63
     7
421
 16777215
 74
     0
 91
        0
 64
     7
 65
   257
 75
     1
175
     1
 42
1.0
 92
        8
 66
     7
 43
1.0
 76
     1
 77
     6
 78
     2
 67
     7
 79
     5
170
     0
171
     0
290
     0
174
     0
 93
       13
 44
0.0
173
     0
291
     1
 45
0.0
1001
ACAD
1000
AcDbSavedByObjectVersion
1070
     0
  0
VISUALSTYLE
  5
189
102
{ACAD_XDICTIONARY
360
282
102
}
102
{ACAD_REACTORS
330
14
102
}
330
14
100
AcDbVisualStyle
  2
FlatWithEdges
 70
     1
 71
     2
 72
     1
 73
     1
 90
        2
 40
-0.6
 41
30.0
 62
     5
 63
     7
421
 16777215
 74
     1
 91
        0
 64
     7
 65
   257
 75
     1
175
     1
 42
1.0
 92
        0
 66
   257
 43
1.0
 76
     1
 77
     6
 78
     2
 67
     7
 79
     5
170
     0
171
     0
290
     0
174
     0
 93
       13
 44
0.0
173
     0
291
     1
 45
0.0
1001
ACAD
1000
AcDbSavedByObjectVersion
1070
     0
  0
VISUALSTYLE
  5
18A
102
{ACAD_XDICTIONARY
360
284
102
}
102
{ACAD_REACTORS
330
14
102
}
330
14
100
AcDbVisualStyle
  2
Gouraud
 70
     2
 71
     2
 72
     2
 73
     1
 90
        2
 40
-0.6
 41
30.0
 62
     5
 63
     7
421
 16777215
 74
     0
 91
        0
 64
     7
 65
   257
 75
     1
175
     1
 42
1.0
 92
        0
 66
     7
 43
1.0
 76
     1
 77
     6
 78
     2
 67
     7
 79
     5
170
     0
171
     0
290
     0
174
     0
 93
       13
 44
0.0
173
     0
291
     1
 45
0.0
1001
ACAD
1000
AcDbSavedByObjectVersion
1070
     0
  0
VISUALSTYLE
  5
18B
102
{ACAD_XDICTIONARY
360
286
102
}
102
{ACAD_REACTORS
330
14
102
}
330
14
100
AcDbVisualStyle
  2
GouraudWithEdges
 70
     3
 71
     2
 72
     2
 73
     1
 90
        2
 40
-0.6
 41
30.0
 62
     5
 63
     7
421
 16777215
 74
     1
 91
        0
 64
     7
 65
   257
 75
     1
175
     1
 42
1.0
 92
        0
 66
   257
 43
1.0
 76
     1
 77
     6
 78
     2
 67
     7
 79
     5
170
     0
171
     0
290
     0
174
     0
 93
       13
 44
0.0
173
     0
291
     1
 45
0.0
1001
ACAD
1000
AcDbSavedByObjectVersion
1070
     0
  0
VISUALSTYLE
  5
18E
102
{ACAD_XDICTIONARY
360
28C
102
}
102
{ACAD_REACTORS
330
14
102
}
330
14
100
AcDbVisualStyle
  2
Hidden
 70
     6
 71
     1
 72
     2
 73
     2
 90
        0
 40
-0.6
 41
-30.0
 62
     5
 63
     7
421
 16777215
 74
     2
 91
        2
 64
     7
 65
   257
 75
     2
175
     1
 42
40.0
 92
        0
 66
   257
 43
1.0
 76
     1
 77
     6
 78
     2
 67
     7
 79
     3
170
     0
171
     0
290
     0
174
     0
 93
        1
 44
0.0
173
     0
291
     0
 45
0.0
1001
ACAD
1000
AcDbSavedByObjectVersion
1070
     0
  0
VISUALSTYLE
  5
19B
102
{ACAD_XDICTIONARY
360
2A6
102
}
102
{ACAD_REACTORS
330
14
102
}
330
14
100
AcDbVisualStyle
  2
JitterOff
 70
    20
 71
     2
 72
     2
 73
     0
 90
        0
 40
-0.6
 41
-30.0
 62
     5
 63
     7
421
 16777215
 74
     1
 91
        4
 64
     7
 65
   257
 75
     1
175
     1
 42
1.0
 92
       10
 66
     7
 43
1.0
 76
     1
 77
     6
 78
     2
 67
     7
 79
     5
170
     0
171
     0
290
     0
174
     0
 93
        1
 44
0.0
173
     0
291
     1
 45
0.0
1001
ACAD
1000
AcDbSavedByObjectVersion
1070
     0
  0
VISUALSTYLE
  5
193
102
{ACAD_XDICTIONARY
360
296
102
}
102
{ACAD_REACTORS
330
14
102
}
330
14
100
AcDbVisualStyle
  2
Linepattern
 70
    14
 71
     2
 72
     2
 73
     0
 90
        0
 40
-0.6
 41
-30.0
 62
     5
 63
     7
421
 16777215
 74
     1
 91
        4
 64
     7
 65
   257
 75
     7
175
     7
 42
1.0
 92
        8
 66
     7
 43
1.0
 76
     1
 77
     6
 78
     2
 67
     7
 79
     5
170
     0
171
     0
290
     0
174
     0
 93
        1
 44
0.0
173
     0
291
     1
 45
0.0
1001
ACAD
1000
AcDbSavedByObjectVersion
1070
     0
  0
VISUALSTYLE
  5
19C
102
{ACAD_XDICTIONARY
360
2A8
102
}
102
{ACAD_REACTORS
330
14
102
}
330
14
100
AcDbVisualStyle
  2
OverhangOff
 70
    21
 71
     2
 72
     2
 73
     0
 90
        0
 40
-0.6
 41
-30.0
 62
     5
 63
     7
421
 16777215
 74
     1
 91
        4
 64
     7
 65
   257
 75
     1
175
     1
 42
1.0
 92
        9
 66
     7
 43
1.0
 76
     1
 77
     6
 78
     2
 67
     7
 79
     5
170
     0
171
     0
290
     0
174
     0
 93
        1
 44
0.0
173
     0
291
     1
 45
0.0
1001
ACAD
1000
AcDbSavedByObjectVersion
1070
     0
  0
VISUALSTYLE
  5
3D
102
{ACAD_XDICTIONARY
360
279
102
}
102
{ACAD_REACTORS
330
14
102
}
330
14
100
AcDbVisualStyle
  2

 70
     8
 71
     2
 72
     2
 73
     0
 90
        0
 40
-0.6
 41
-30.0
 62
     5
 63
     7
421
 16777215
 74
     1
 91
        0
 64
     7
 65
   257
 75
     1
175
     1
 42
1.0
 92
        8
 66
     8
424
  7895160
 43
1.0
 76
     1
 77
     6
 78
     2
 67
     7
 79
     5
170
     0
171
     0
290
     0
174
     0
 93
       13
 44
0.0
173
     0
291
     0
 45
0.0
1001
ACAD
1000
AcDbSavedByObjectVersion
1070
     0
  0
VISUALSTYLE
  5
19A
102
{ACAD_XDICTIONARY
360
2A4
102
}
102
{ACAD_REACTORS
330
14
102
}
330
14
100
AcDbVisualStyle
  2
Shaded
 70
    27
 71
     2
 72
     2
 73
     1
 90
        2
 40
-0.6
 41
30.0
 62
     5
 63
     7
421
 16777215
 74
     0
 91
        4
 64
     7
 65
   257
 75
     1
175
     1
 42
1.0
 92
        8
 66
   257
 43
1.0
 76
     1
 77
     6
 78
     2
 67
     8
425
  7895160
 79
     3
170
     0
171
     0
290
     0
174
     0
 93
        5
 44
0.0
173
     0
291
     0
 45
0.0
1001
ACAD
1000
AcDbSavedByObjectVersion
1070
     0
  0
VISUALSTYLE
  5
199
102
{ACAD_XDICTIONARY
360
2A2
102
}
102
{ACAD_REACTORS
330
14
102
}
330
14
100
AcDbVisualStyle
  2
Shaded with edges
 70
    26
 71
     2
 72
     2
 73
     1
 90
        2
 40
-0.6
 41
30.0
 62
     5
 63
     7
421
 16777215
 74
     1
 91
       10
 64
     7
 65
   257
 75
     2
175
     1
 42
1.0
 92
        8
 66
   257
 43
1.0
 76
     1
 77
     6
 78
     2
 67
     7
 79
     3
170
     0
171
     0
290
     0
174
     0
 93
        5
 44
0.0
173
     0
291
     0
 45
0.0
1001
ACAD
1000
AcDbSavedByObjectVersion
1070
     0
  0
VISUALSTYLE
  5
196
102
{ACAD_XDICTIONARY
360
29C
102
}
102
{ACAD_REACTORS
330
14
102
}
330
14
100
AcDbVisualStyle
  2
Shades of Gray
 70
    23
 71
     2
 72
     2
 73
     3
 90
        0
 40
-0.6
 41
-30.0
 62
     5
 63
     7
421
 16777215
 74
     2
 91
        2
 64
     7
 65
     7
 75
     1
175
     1
 42
40.0
 92
        8
 66
     7
 43
1.0
 76
     1
 77
     6
 78
     2
 67
     7
 79
     3
170
     0
171
     0
290
     0
174
     0
 93
        1
 44
0.0
173
     0
291
     0
 45
0.0
1001
ACAD
1000
AcDbSavedByObjectVersion
1070
     0
  0
VISUALSTYLE
  5
197
102
{ACAD_XDICTIONARY
360
29E
102
}
102
{ACAD_REACTORS
330
14
102
}
330
14
100
AcDbVisualStyle
  2
Sketchy
 70
    24
 71
     1
 72
     2
 73
     2
 90
        0
 40
-0.6
 41
-30.0
 62
     5
 63
     7
421
 16777215
 74
     2
 91
        2
 64
     7
 65
     7
 75
     1
175
     1
 42
40.0
 92
       11
 66
     7
 43
1.0
 76
     1
 77
     6
 78
     2
 67
     7
 79
     6
170
     0
171
     0
290
     0
174
     0
 93
        1
 44
0.0
173
     0
291
     0
 45
0.0
1001
ACAD
1000
AcDbSavedByObjectVersion
1070
     0
  0
VISUALSTYLE
  5
192
102
{ACAD_XDICTIONARY
360
294
102
}
102
{ACAD_REACTORS
330
14
102
}
330
14
100
AcDbVisualStyle
  2
Thicken
 70
    13
 71
     2
 72
     2
 73
     0
 90
        0
 40
-0.6
 41
-30.0
 62
     5
 63
     7
421
 16777215
 74
     1
 91
        4
 64
     7
 65
   257
 75
     1
175
     1
 42
1.0
 92
       12
 66
     7
 43
1.0
 76
     1
 77
     6
 78
     2
 67
     7
 79
     5
170
     0
171
     0
290
     0
174
     0
 93
        1
 44
0.0
173
     0
291
     1
 45
0.0
1001
ACAD
1000
AcDbSavedByObjectVersion
1070
     0
  0
VISUALSTYLE
  5
18D
102
{ACAD_XDICTIONARY
360
28A
102
}
102
{ACAD_REACTORS
330
14
102
}
330
14
100
AcDbVisualStyle
  2
Wireframe
 70
     5
 71
     0
 72
     2
 73
     0
 90
        0
 40
-0.6
 41
-30.0
 62
     5
 63
     7
421
 16777215
 74
     1
 91
        4
 64
     7
 65
   257
 75
     1
175
     1
 42
1.0
 92
        0
 66
   257
 43
1.0
 76
     1
 77
     6
 78
     2
 67
     7
 79
     3
170
     0
171
     0
290
     0
174
     0
 93
        1
 44
0.0
173
     0
291
     0
 45
0.0
1001
ACAD
1000
AcDbSavedByObjectVersion
1070
     0
  0
VISUALSTYLE
  5
198
102
{ACAD_XDICTIONARY
360
2A0
102
}
102
{ACAD_REACTORS
330
14
102
}
330
14
100
AcDbVisualStyle
  2
X-Ray
 70
    25
 71
     2
 72
     2
 73
     1
 90
        1
 40
0.5
 41
-30.0
 62
     5
 63
     7
421
 16777215
 74
     1
 91
        0
 64
     7
 65
   257
 75
     1
175
     1
 42
1.0
 92
        8
 66
     7
 43
1.0
 76
     1
 77
     6
 78
     2
 67
     7
 79
     3
170
     0
171
     0
290
     0
174
     0
 93
       13
 44
0.0
173
     0
291
     0
 45
0.0
1001
ACAD
1000
AcDbSavedByObjectVersion
1070
     0
  0
DICTIONARYVAR
  5
178
102
{ACAD_REACTORS
330
175
102
}
330
175
100
DictionaryVariables
280
     0
  1
1:1
  0
DICTIONARYVAR
  5
177
102
{ACAD_REACTORS
330
175
102
}
330
175
100
DictionaryVariables
280
     0
  1
STANDARD
  0
DICTIONARYVAR
  5
176
102
{ACAD_REACTORS
330
175
102
}
330
175
100
DictionaryVariables
280
     0
  1
Willach
  0
DICTIONARY
  5
121
102
{ACAD_REACTORS
330
120
102
}
330
120
100
AcDbDictionary
281
     1
  0
DICTIONARY
  5
181
330
33
100
AcDbDictionary
280
     1
281
     1
  3
ACAD_XREC_ROUNDTRIP
360
182
  0
DICTIONARY
  5
17F
330
32
100
AcDbDictionary
280
     1
281
     1
  3
ACAD_XREC_ROUNDTRIP
360
180
  0
DICTIONARY
  5
17D
330
C
100
AcDbDictionary
280
     1
281
     1
  3
ACAD_XREC_ROUNDTRIP
360
17E
  0
DICTIONARY
  5
40
330
3F
100
AcDbDictionary
280
     1
281
     1
  3
ACAD_ROUNDTRIP_2008_TABLESTYLE_CELLSTYLEMAP
360
274
  3
ACAD_XREC_ROUNDTRIP
360
27D
  0
DICTIONARY
  5
3C
330
3B
100
AcDbDictionary
280
     1
281
     1
  3
ACAD_ROUNDTRIP_2008_TABLESTYLE_CELLSTYLEMAP
360
273
  3
ACAD_XREC_ROUNDTRIP
360
278
  0
DICTIONARY
  5
276
330
13
100
AcDbDictionary
280
     1
281
     1
  3
ACAD_XREC_ROUNDTRIP
360
277
  0
DICTIONARY
  5
27B
330
3E
100
AcDbDictionary
280
     1
281
     1
  3
ACAD_XREC_ROUNDTRIP
360
27C
  0
DICTIONARY
  5
288
330
18C
100
AcDbDictionary
280
     1
281
     1
  3
ACAD_XREC_ROUNDTRIP
360
289
  0
DICTIONARY
  5
292
330
191
100
AcDbDictionary
280
     1
281
     1
  3
ACAD_XREC_ROUNDTRIP
360
293
  0
DICTIONARY
  5
29A
330
195
100
AcDbDictionary
280
     1
281
     1
  3
ACAD_XREC_ROUNDTRIP
360
29B
  0
DICTIONARY
  5
28E
330
18F
100
AcDbDictionary
280
     1
281
     1
  3
ACAD_XREC_ROUNDTRIP
360
28F
  0
DICTIONARY
  5
290
330
190
100
AcDbDictionary
280
     1
281
     1
  3
ACAD_XREC_ROUNDTRIP
360
291
  0
DICTIONARY
  5
2AA
330
19D
100
AcDbDictionary
280
     1
281
     1
  3
ACAD_XREC_ROUNDTRIP
360
2AB
  0
DICTIONARY
  5
298
330
194
100
AcDbDictionary
280
     1
281
     1
  3
ACAD_XREC_ROUNDTRIP
360
299
  0
DICTIONARY
  5
280
330
188
100
AcDbDictionary
280
     1
281
     1
  3
ACAD_XREC_ROUNDTRIP
360
281
  0
DICTIONARY
  5
282
330
189
100
AcDbDictionary
280
     1
281
     1
  3
ACAD_XREC_ROUNDTRIP
360
283
  0
DICTIONARY
  5
284
330
18A
100
AcDbDictionary
280
     1
281
     1
  3
ACAD_XREC_ROUNDTRIP
360
285
  0
DICTIONARY
  5
286
330
18B
100
AcDbDictionary
280
     1
281
     1
  3
ACAD_XREC_ROUNDTRIP
360
287
  0
DICTIONARY
  5
28C
330
18E
100
AcDbDictionary
280
     1
281
     1
  3
ACAD_XREC_ROUNDTRIP
360
28D
  0
DICTIONARY
  5
2A6
330
19B
100
AcDbDictionary
280
     1
281
     1
  3
ACAD_XREC_ROUNDTRIP
360
2A7
  0
DICTIONARY
  5
296
330
193
100
AcDbDictionary
280
     1
281
     1
  3
ACAD_XREC_ROUNDTRIP
360
297
  0
DICTIONARY
  5
2A8
330
19C
100
AcDbDictionary
280
     1
281
     1
  3
ACAD_XREC_ROUNDTRIP
360
2A9
  0
DICTIONARY
  5
279
330
3D
100
AcDbDictionary
280
     1
281
     1
  3
ACAD_XREC_ROUNDTRIP
360
27A
  0
DICTIONARY
  5
2A4
330
19A
100
AcDbDictionary
280
     1
281
     1
  3
ACAD_XREC_ROUNDTRIP
360
2A5
  0
DICTIONARY
  5
2A2
330
199
100
AcDbDictionary
280
     1
281
     1
  3
ACAD_XREC_ROUNDTRIP
360
2A3
  0
DICTIONARY
  5
29C
330
196
100
AcDbDictionary
280
     1
281
     1
  3
ACAD_XREC_ROUNDTRIP
360
29D
  0
DICTIONARY
  5
29E
330
197
100
AcDbDictionary
280
     1
281
     1
  3
ACAD_XREC_ROUNDTRIP
360
29F
  0
DICTIONARY
  5
294
330
192
100
AcDbDictionary
280
     1
281
     1
  3
ACAD_XREC_ROUNDTRIP
360
295
  0
DICTIONARY
  5
28A
330
18D
100
AcDbDictionary
280
     1
281
     1
  3
ACAD_XREC_ROUNDTRIP
360
28B
  0
DICTIONARY
  5
2A0
330
198
100
AcDbDictionary
280
     1
281
     1
  3
ACAD_XREC_ROUNDTRIP
360
2A1
  0
XRECORD
  5
182
102
{ACAD_REACTORS
330
181
102
}
330
181
100
AcDbXrecord
280
     1
102
MATERIAL
148
0.0
149
0.0
149
0.0
 93
        0
 94
      127
282
     0
 72
     1
 77
     1
171
     1
175
     1
179
     1
273
     0
  0
XRECORD
  5
180
102
{ACAD_REACTORS
330
17F
102
}
330
17F
100
AcDbXrecord
280
     1
102
MATERIAL
148
0.0
149
0.0
149
0.0
 93
        0
 94
      127
282
     0
 72
     1
 77
     1
171
     1
175
     1
179
     1
273
     0
  0
XRECORD
  5
17E
102
{ACAD_REACTORS
330
17D
102
}
330
17D
100
AcDbXrecord
280
     1
102
MATERIAL
148
0.0
149
0.0
149
0.0
 93
        0
 94
      127
282
     0
 72
     1
 77
     1
171
     1
175
     1
179
     1
273
     0
  0
CELLSTYLEMAP
  5
274
102
{ACAD_REACTORS
330
40
102
}
330
40
100
AcDbCellStyleMap
 90
        3
300
CELLSTYLE
  1
TABLEFORMAT_BEGIN
 90
        5
170
     1
 91
        0
 92
    32768
 62
   257
 93
        1
300
CONTENTFORMAT
  1
CONTENTFORMAT_BEGIN
 90
        0
 91
        0
 92
        4
 93
        0
300

 40
0.0
140
1.0
 94
        5
 62
     0
340
1E
144
6.0
309
CONTENTFORMAT_END
171
     1
301
MARGIN
  1
CELLMARGIN_BEGIN
 40
1.5
 40
1.5
 40
1.5
 40
1.5
 40
0.18
 40
0.18
309
CELLMARGIN_END
 94
        6
 95
        1
302
GRIDFORMAT
  1
GRIDFORMAT_BEGIN
 90
        0
 91
        1
 62
     0
 92
       -2
340
0
 93
        0
 40
0.045
309
GRIDFORMAT_END
 95
        2
302
GRIDFORMAT
  1
GRIDFORMAT_BEGIN
 90
        0
 91
        1
 62
     0
 92
       -2
340
0
 93
        0
 40
0.045
309
GRIDFORMAT_END
 95
        4
302
GRIDFORMAT
  1
GRIDFORMAT_BEGIN
 90
        0
 91
        1
 62
     0
 92
       -2
340
0
 93
        0
 40
0.045
309
GRIDFORMAT_END
 95
        8
302
GRIDFORMAT
  1
GRIDFORMAT_BEGIN
 90
        0
 91
        1
 62
     0
 92
       -2
340
0
 93
        0
 40
0.045
309
GRIDFORMAT_END
 95
       16
302
GRIDFORMAT
  1
GRIDFORMAT_BEGIN
 90
        0
 91
        1
 62
     0
 92
       -2
340
0
 93
        0
 40
0.045
309
GRIDFORMAT_END
 95
       32
302
GRIDFORMAT
  1
GRIDFORMAT_BEGIN
 90
        0
 91
        1
 62
     0
 92
       -2
340
0
 93
        0
 40
0.045
309
GRIDFORMAT_END
309
TABLEFORMAT_END
  1
CELLSTYLE_BEGIN
 90
        1
 91
        1
300
_TITLE
309
CELLSTYLE_END
300
CELLSTYLE
  1
TABLEFORMAT_BEGIN
 90
        5
170
     1
 91
        0
 92
        0
 62
   257
 93
        1
300
CONTENTFORMAT
  1
CONTENTFORMAT_BEGIN
 90
        0
 91
        0
 92
        4
 93
        0
300

 40
0.0
140
1.0
 94
        5
 62
     0
340
1E
144
4.5
309
CONTENTFORMAT_END
171
     1
301
MARGIN
  1
CELLMARGIN_BEGIN
 40
1.5
 40
1.5
 40
1.5
 40
1.5
 40
0.18
 40
0.18
309
CELLMARGIN_END
 94
        6
 95
        1
302
GRIDFORMAT
  1
GRIDFORMAT_BEGIN
 90
        0
 91
        1
 62
     0
 92
       -2
340
0
 93
        0
 40
0.045
309
GRIDFORMAT_END
 95
        2
302
GRIDFORMAT
  1
GRIDFORMAT_BEGIN
 90
        0
 91
        1
 62
     0
 92
       -2
340
0
 93
        0
 40
0.045
309
GRIDFORMAT_END
 95
        4
302
GRIDFORMAT
  1
GRIDFORMAT_BEGIN
 90
        0
 91
        1
 62
     0
 92
       -2
340
0
 93
        0
 40
0.045
309
GRIDFORMAT_END
 95
        8
302
GRIDFORMAT
  1
GRIDFORMAT_BEGIN
 90
        0
 91
        1
 62
     0
 92
       -2
340
0
 93
        0
 40
0.045
309
GRIDFORMAT_END
 95
       16
302
GRIDFORMAT
  1
GRIDFORMAT_BEGIN
 90
        0
 91
        1
 62
     0
 92
       -2
340
0
 93
        0
 40
0.045
309
GRIDFORMAT_END
 95
       32
302
GRIDFORMAT
  1
GRIDFORMAT_BEGIN
 90
        0
 91
        1
 62
     0
 92
       -2
340
0
 93
        0
 40
0.045
309
GRIDFORMAT_END
309
TABLEFORMAT_END
  1
CELLSTYLE_BEGIN
 90
        2
 91
        1
300
_HEADER
309
CELLSTYLE_END
300
CELLSTYLE
  1
TABLEFORMAT_BEGIN
 90
        5
170
     1
 91
        0
 92
        0
 62
   257
 93
        1
300
CONTENTFORMAT
  1
CONTENTFORMAT_BEGIN
 90
        0
 91
        0
 92
        4
 93
        0
300

 40
0.0
140
1.0
 94
        2
 62
     0
340
1E
144
4.5
309
CONTENTFORMAT_END
171
     1
301
MARGIN
  1
CELLMARGIN_BEGIN
 40
1.5
 40
1.5
 40
1.5
 40
1.5
 40
0.18
 40
0.18
309
CELLMARGIN_END
 94
        6
 95
        1
302
GRIDFORMAT
  1
GRIDFORMAT_BEGIN
 90
        0
 91
        1
 62
     0
 92
       -2
340
0
 93
        0
 40
0.045
309
GRIDFORMAT_END
 95
        2
302
GRIDFORMAT
  1
GRIDFORMAT_BEGIN
 90
        0
 91
        1
 62
     0
 92
       -2
340
0
 93
        0
 40
0.045
309
GRIDFORMAT_END
 95
        4
302
GRIDFORMAT
  1
GRIDFORMAT_BEGIN
 90
        0
 91
        1
 62
     0
 92
       -2
340
0
 93
        0
 40
0.045
309
GRIDFORMAT_END
 95
        8
302
GRIDFORMAT
  1
GRIDFORMAT_BEGIN
 90
        0
 91
        1
 62
     0
 92
       -2
340
0
 93
        0
 40
0.045
309
GRIDFORMAT_END
 95
       16
302
GRIDFORMAT
  1
GRIDFORMAT_BEGIN
 90
        0
 91
        1
 62
     0
 92
       -2
340
0
 93
        0
 40
0.045
309
GRIDFORMAT_END
 95
       32
302
GRIDFORMAT
  1
GRIDFORMAT_BEGIN
 90
        0
 91
        1
 62
     0
 92
       -2
340
0
 93
        0
 40
0.045
309
GRIDFORMAT_END
309
TABLEFORMAT_END
  1
CELLSTYLE_BEGIN
 90
        3
 91
        2
300
_DATA
309
CELLSTYLE_END
  0
XRECORD
  5
27D
102
{ACAD_REACTORS
330
40
102
}
330
40
100
AcDbXrecord
280
     1
102
ACAD_ROUNDTRIP_PRE2007_TABLESTYLE
 90
        4
 91
        0
  1

 92
        4
 93
        0
  2

 94
        4
 95
        0
  3

  0
CELLSTYLEMAP
  5
273
102
{ACAD_REACTORS
330
3C
102
}
330
3C
100
AcDbCellStyleMap
 90
        3
300
CELLSTYLE
  1
TABLEFORMAT_BEGIN
 90
        5
170
     1
 91
        0
 92
    32768
 62
   257
 93
        1
300
CONTENTFORMAT
  1
CONTENTFORMAT_BEGIN
 90
        0
 91
        0
 92
        4
 93
        0
300

 40
0.0
140
1.0
 94
        5
 62
     7
340
1E
144
5.0
309
CONTENTFORMAT_END
171
     1
301
MARGIN
  1
CELLMARGIN_BEGIN
 40
1.5
 40
1.5
 40
1.5
 40
1.5
 40
0.18
 40
0.18
309
CELLMARGIN_END
 94
        6
 95
        1
302
GRIDFORMAT
  1
GRIDFORMAT_BEGIN
 90
        0
 91
        1
 62
     0
 92
       -2
340
0
 93
        0
 40
0.045
309
GRIDFORMAT_END
 95
        2
302
GRIDFORMAT
  1
GRIDFORMAT_BEGIN
 90
        0
 91
        1
 62
     0
 92
       -2
340
0
 93
        0
 40
0.045
309
GRIDFORMAT_END
 95
        4
302
GRIDFORMAT
  1
GRIDFORMAT_BEGIN
 90
        0
 91
        1
 62
     0
 92
       -2
340
0
 93
        0
 40
0.045
309
GRIDFORMAT_END
 95
        8
302
GRIDFORMAT
  1
GRIDFORMAT_BEGIN
 90
        0
 91
        1
 62
     0
 92
       -2
340
0
 93
        0
 40
0.045
309
GRIDFORMAT_END
 95
       16
302
GRIDFORMAT
  1
GRIDFORMAT_BEGIN
 90
        0
 91
        1
 62
     0
 92
       -2
340
0
 93
        0
 40
0.045
309
GRIDFORMAT_END
 95
       32
302
GRIDFORMAT
  1
GRIDFORMAT_BEGIN
 90
        0
 91
        1
 62
     0
 92
       -2
340
0
 93
        0
 40
0.045
309
GRIDFORMAT_END
309
TABLEFORMAT_END
  1
CELLSTYLE_BEGIN
 90
        1
 91
        1
300
_TITLE
309
CELLSTYLE_END
300
CELLSTYLE
  1
TABLEFORMAT_BEGIN
 90
        5
170
     1
 91
        0
 92
        0
 62
   254
 93
        1
300
CONTENTFORMAT
  1
CONTENTFORMAT_BEGIN
 90
        0
 91
        0
 92
        4
 93
        0
300

 40
0.0
140
1.0
 94
        5
 62
     2
340
1E
144
3.5
309
CONTENTFORMAT_END
171
     1
301
MARGIN
  1
CELLMARGIN_BEGIN
 40
1.5
 40
1.5
 40
1.5
 40
1.5
 40
0.18
 40
0.18
309
CELLMARGIN_END
 94
        6
 95
        1
302
GRIDFORMAT
  1
GRIDFORMAT_BEGIN
 90
        0
 91
        1
 62
     0
 92
       -2
340
0
 93
        0
 40
0.045
309
GRIDFORMAT_END
 95
        2
302
GRIDFORMAT
  1
GRIDFORMAT_BEGIN
 90
        0
 91
        1
 62
     0
 92
       -2
340
0
 93
        0
 40
0.045
309
GRIDFORMAT_END
 95
        4
302
GRIDFORMAT
  1
GRIDFORMAT_BEGIN
 90
        0
 91
        1
 62
     0
 92
       -2
340
0
 93
        0
 40
0.045
309
GRIDFORMAT_END
 95
        8
302
GRIDFORMAT
  1
GRIDFORMAT_BEGIN
 90
        0
 91
        1
 62
     0
 92
       -2
340
0
 93
        0
 40
0.045
309
GRIDFORMAT_END
 95
       16
302
GRIDFORMAT
  1
GRIDFORMAT_BEGIN
 90
        0
 91
        1
 62
     0
 92
       -2
340
0
 93
        0
 40
0.045
309
GRIDFORMAT_END
 95
       32
302
GRIDFORMAT
  1
GRIDFORMAT_BEGIN
 90
        0
 91
        1
 62
     0
 92
       -2
340
0
 93
        0
 40
0.045
309
GRIDFORMAT_END
309
TABLEFORMAT_END
  1
CELLSTYLE_BEGIN
 90
        2
 91
        1
300
_HEADER
309
CELLSTYLE_END
300
CELLSTYLE
  1
TABLEFORMAT_BEGIN
 90
        5
170
     1
 91
        0
 92
        0
 62
   257
 93
        1
300
CONTENTFORMAT
  1
CONTENTFORMAT_BEGIN
 90
        0
 91
        0
 92
        4
 93
        0
300

 40
0.0
140
1.0
 94
        5
 62
     2
340
1E
144
3.5
309
CONTENTFORMAT_END
171
     1
301
MARGIN
  1
CELLMARGIN_BEGIN
 40
1.5
 40
1.5
 40
1.5
 40
1.5
 40
0.18
 40
0.18
309
CELLMARGIN_END
 94
        6
 95
        1
302
GRIDFORMAT
  1
GRIDFORMAT_BEGIN
 90
        0
 91
        1
 62
     0
 92
       -2
340
0
 93
        0
 40
0.045
309
GRIDFORMAT_END
 95
        2
302
GRIDFORMAT
  1
GRIDFORMAT_BEGIN
 90
        0
 91
        1
 62
     0
 92
       -2
340
0
 93
        0
 40
0.045
309
GRIDFORMAT_END
 95
        4
302
GRIDFORMAT
  1
GRIDFORMAT_BEGIN
 90
        0
 91
        1
 62
     0
 92
       -2
340
0
 93
        0
 40
0.045
309
GRIDFORMAT_END
 95
        8
302
GRIDFORMAT
  1
GRIDFORMAT_BEGIN
 90
        0
 91
        1
 62
     0
 92
       -2
340
0
 93
        0
 40
0.045
309
GRIDFORMAT_END
 95
       16
302
GRIDFORMAT
  1
GRIDFORMAT_BEGIN
 90
        0
 91
        1
 62
     0
 92
       -2
340
0
 93
        0
 40
0.045
309
GRIDFORMAT_END
 95
       32
302
GRIDFORMAT
  1
GRIDFORMAT_BEGIN
 90
        0
 91
        1
 62
     0
 92
       -2
340
0
 93
        0
 40
0.045
309
GRIDFORMAT_END
309
TABLEFORMAT_END
  1
CELLSTYLE_BEGIN
 90
        3
 91
        2
300
_DATA
309
CELLSTYLE_END
  0
XRECORD
  5
278
102
{ACAD_REACTORS
330
3C
102
}
330
3C
100
AcDbXrecord
280
     1
102
ACAD_ROUNDTRIP_PRE2007_TABLESTYLE
 90
        4
 91
        0
  1

 92
        4
 93
        0
  2

 94
        4
 95
        0
  3

  0
XRECORD
  5
277
102
{ACAD_REACTORS
330
276
102
}
330
276
100
AcDbXrecord
280
     1
102
RTVSPropertyOp0
 70
     1
102
RTVSPropertyOp1
 70
     1
102
RTVSPropertyOp2
 70
     1
102
RTVSPropertyOp3
 70
     1
102
RTVSPropertyOp4
 70
     1
102
RTVSPropertyOp5
 70
     1
102
RTVSPropertyOp6
 70
     1
102
RTVSPropertyOp7
 70
     1
102
RTVSPropertyOp8
 70
     1
102
RTVSPropertyOp9
 70
     1
102
RTVSPropertyOp10
 70
     1
102
RTVSPropertyOp11
 70
     1
102
RTVSPropertyOp12
 70
     1
102
RTVSPropertyOp13
 70
     1
102
RTVSPropertyOp14
 70
     1
102
RTVSPropertyOp15
 70
     1
102
RTVSPropertyOp16
 70
     1
102
RTVSPropertyOp17
 70
     1
102
RTVSPropertyOp18
 70
     1
102
RTVSPropertyOp19
 70
     1
102
RTVSPropertyOp20
 70
     1
102
RTVSPropertyOp21
 70
     1
102
RTVSPropertyOp22
 70
     1
102
RTVSPropertyOp23
 70
     1
102
RTVSPropertyOp24
 70
     1
102
RTVSPropertyOp25
 70
     1
102
RTVSPropertyOp26
 70
     1
102
RTVSPropertyOp27
 70
     1
102
RTVSPropertyOp28
 70
     1
102
RTVSPropertyOp29
 70
     1
102
RTVSPropertyOp30
 70
     1
102
RTVSPropertyOp31
 70
     1
102
RTVSPropertyOp32
 70
     1
  0
XRECORD
  5
27C
102
{ACAD_REACTORS
330
27B
102
}
330
27B
100
AcDbXrecord
280
     1
102
RTVSPropertyOp0
 70
     1
102
RTVSPropertyOp1
 70
     1
102
RTVSPropertyOp2
 70
     1
102
RTVSPropertyOp3
 70
     1
102
RTVSPropertyOp4
 70
     1
102
RTVSPropertyOp5
 70
     1
102
RTVSPropertyOp6
 70
     1
102
RTVSPropertyOp7
 70
     1
102
RTVSPropertyOp8
 70
     1
102
RTVSPropertyOp9
 70
     1
102
RTVSPropertyOp10
 70
     1
102
RTVSPropertyOp11
 70
     1
102
RTVSPropertyOp12
 70
     1
102
RTVSPropertyOp13
 70
     1
102
RTVSPropertyOp14
 70
     1
102
RTVSPropertyOp15
 70
     1
102
RTVSPropertyOp16
 70
     1
102
RTVSPropertyOp17
 70
     1
102
RTVSPropertyOp18
 70
     1
102
RTVSPropertyOp19
 70
     1
102
RTVSPropertyOp20
 70
     1
102
RTVSPropertyOp21
 70
     1
102
RTVSPropertyOp22
 70
     1
102
RTVSPropertyOp23
 70
     1
102
RTVSPropertyOp24
 70
     1
102
RTVSPropertyOp25
 70
     1
102
RTVSPropertyOp26
 70
     1
102
RTVSPropertyOp27
 70
     1
102
RTVSPropertyOp28
 70
     1
102
RTVSPropertyOp29
 70
     1
102
RTVSPropertyOp30
 70
     1
102
RTVSPropertyOp31
 70
     1
102
RTVSPropertyOp32
 70
     1
  0
XRECORD
  5
289
102
{ACAD_REACTORS
330
288
102
}
330
288
100
AcDbXrecord
280
     1
102
RTVSPropertyOp0
 70
     1
102
RTVSPropertyOp1
 70
     1
102
RTVSPropertyOp2
 70
     1
102
RTVSPropertyOp3
 70
     1
102
RTVSPropertyOp4
 70
     1
102
RTVSPropertyOp5
 70
     1
102
RTVSPropertyOp6
 70
     1
102
RTVSPropertyOp7
 70
     1
102
RTVSPropertyOp8
 70
     1
102
RTVSPropertyOp9
 70
     1
102
RTVSPropertyOp10
 70
     1
102
RTVSPropertyOp11
 70
     1
102
RTVSPropertyOp12
 70
     1
102
RTVSPropertyOp13
 70
     1
102
RTVSPropertyOp14
 70
     1
102
RTVSPropertyOp15
 70
     1
102
RTVSPropertyOp16
 70
     1
102
RTVSPropertyOp17
 70
     1
102
RTVSPropertyOp18
 70
     1
102
RTVSPropertyOp19
 70
     1
102
RTVSPropertyOp20
 70
     1
102
RTVSPropertyOp21
 70
     1
102
RTVSPropertyOp22
 70
     1
102
RTVSPropertyOp23
 70
     1
102
RTVSPropertyOp24
 70
     1
102
RTVSPropertyOp25
 70
     1
102
RTVSPropertyOp26
 70
     1
102
RTVSPropertyOp27
 70
     1
102
RTVSPropertyOp28
 70
     1
102
RTVSPropertyOp29
 70
     1
102
RTVSPropertyOp30
 70
     1
102
RTVSPropertyOp31
 70
     1
102
RTVSPropertyOp32
 70
     1
  0
XRECORD
  5
293
102
{ACAD_REACTORS
330
292
102
}
330
292
100
AcDbXrecord
280
     1
102
RTVSPropertyOp0
 70
     1
102
RTVSPropertyOp1
 70
     1
102
RTVSPropertyOp2
 70
     1
102
RTVSPropertyOp3
 70
     1
102
RTVSPropertyOp4
 70
     1
102
RTVSPropertyOp5
 70
     1
102
RTVSPropertyOp6
 70
     1
102
RTVSPropertyOp7
 70
     1
102
RTVSPropertyOp8
 70
     1
102
RTVSPropertyOp9
 70
     1
102
RTVSPropertyOp10
 70
     1
102
RTVSPropertyOp11
 70
     1
102
RTVSPropertyOp12
 70
     1
102
RTVSPropertyOp13
 70
     1
102
RTVSPropertyOp14
 70
     1
102
RTVSPropertyOp15
 70
     1
102
RTVSPropertyOp16
 70
     1
102
RTVSPropertyOp17
 70
     1
102
RTVSPropertyOp18
 70
     1
102
RTVSPropertyOp19
 70
     1
102
RTVSPropertyOp20
 70
     1
102
RTVSPropertyOp21
 70
     1
102
RTVSPropertyOp22
 70
     1
102
RTVSPropertyOp23
 70
     1
102
RTVSPropertyOp24
 70
     1
102
RTVSPropertyOp25
 70
     1
102
RTVSPropertyOp26
 70
     1
102
RTVSPropertyOp27
 70
     1
102
RTVSPropertyOp28
 70
     1
102
RTVSPropertyOp29
 70
     1
102
RTVSPropertyOp30
 70
     1
102
RTVSPropertyOp31
 70
     1
102
RTVSPropertyOp32
 70
     1
  0
XRECORD
  5
29B
102
{ACAD_REACTORS
330
29A
102
}
330
29A
100
AcDbXrecord
280
     1
102
RTVSPropertyOp0
 70
     1
102
RTVSPropertyOp1
 70
     1
102
RTVSPropertyOp2
 70
     1
102
RTVSPropertyOp3
 70
     1
102
RTVSPropertyOp4
 70
     1
102
RTVSPropertyOp5
 70
     1
102
RTVSPropertyOp6
 70
     1
102
RTVSPropertyOp7
 70
     1
102
RTVSPropertyOp8
 70
     1
102
RTVSPropertyOp9
 70
     1
102
RTVSPropertyOp10
 70
     1
102
RTVSPropertyOp11
 70
     1
102
RTVSPropertyOp12
 70
     1
102
RTVSPropertyOp13
 70
     1
102
RTVSPropertyOp14
 70
     1
102
RTVSPropertyOp15
 70
     1
102
RTVSPropertyOp16
 70
     1
102
RTVSPropertyOp17
 70
     1
102
RTVSPropertyOp18
 70
     1
102
RTVSPropertyOp19
 70
     1
102
RTVSPropertyOp20
 70
     1
102
RTVSPropertyOp21
 70
     1
102
RTVSPropertyOp22
 70
     1
102
RTVSPropertyOp23
 70
     1
102
RTVSPropertyOp24
 70
     1
102
RTVSPropertyOp25
 70
     1
102
RTVSPropertyOp26
 70
     1
102
RTVSPropertyOp27
 70
     1
102
RTVSPropertyOp28
 70
     1
102
RTVSPropertyOp29
 70
     1
102
RTVSPropertyOp30
 70
     1
102
RTVSPropertyOp31
 70
     1
102
RTVSPropertyOp32
 70
     1
  0
XRECORD
  5
28F
102
{ACAD_REACTORS
330
28E
102
}
330
28E
100
AcDbXrecord
280
     1
102
RTVSPropertyOp0
 70
     1
102
RTVSPropertyOp1
 70
     1
102
RTVSPropertyOp2
 70
     1
102
RTVSPropertyOp3
 70
     1
102
RTVSPropertyOp4
 70
     1
102
RTVSPropertyOp5
 70
     1
102
RTVSPropertyOp6
 70
     1
102
RTVSPropertyOp7
 70
     1
102
RTVSPropertyOp8
 70
     1
102
RTVSPropertyOp9
 70
     1
102
RTVSPropertyOp10
 70
     1
102
RTVSPropertyOp11
 70
     1
102
RTVSPropertyOp12
 70
     1
102
RTVSPropertyOp13
 70
     1
102
RTVSPropertyOp14
 70
     1
102
RTVSPropertyOp15
 70
     1
102
RTVSPropertyOp16
 70
     1
102
RTVSPropertyOp17
 70
     1
102
RTVSPropertyOp18
 70
     1
102
RTVSPropertyOp19
 70
     1
102
RTVSPropertyOp20
 70
     1
102
RTVSPropertyOp21
 70
     1
102
RTVSPropertyOp22
 70
     1
102
RTVSPropertyOp23
 70
     1
102
RTVSPropertyOp24
 70
     1
102
RTVSPropertyOp25
 70
     1
102
RTVSPropertyOp26
 70
     1
102
RTVSPropertyOp27
 70
     1
102
RTVSPropertyOp28
 70
     1
102
RTVSPropertyOp29
 70
     1
102
RTVSPropertyOp30
 70
     1
102
RTVSPropertyOp31
 70
     1
102
RTVSPropertyOp32
 70
     1
  0
XRECORD
  5
291
102
{ACAD_REACTORS
330
290
102
}
330
290
100
AcDbXrecord
280
     1
102
RTVSPropertyOp0
 70
     1
102
RTVSPropertyOp1
 70
     1
102
RTVSPropertyOp2
 70
     1
102
RTVSPropertyOp3
 70
     1
102
RTVSPropertyOp4
 70
     1
102
RTVSPropertyOp5
 70
     1
102
RTVSPropertyOp6
 70
     1
102
RTVSPropertyOp7
 70
     1
102
RTVSPropertyOp8
 70
     1
102
RTVSPropertyOp9
 70
     1
102
RTVSPropertyOp10
 70
     1
102
RTVSPropertyOp11
 70
     1
102
RTVSPropertyOp12
 70
     1
102
RTVSPropertyOp13
 70
     1
102
RTVSPropertyOp14
 70
     1
102
RTVSPropertyOp15
 70
     1
102
RTVSPropertyOp16
 70
     1
102
RTVSPropertyOp17
 70
     1
102
RTVSPropertyOp18
 70
     1
102
RTVSPropertyOp19
 70
     1
102
RTVSPropertyOp20
 70
     1
102
RTVSPropertyOp21
 70
     1
102
RTVSPropertyOp22
 70
     1
102
RTVSPropertyOp23
 70
     1
102
RTVSPropertyOp24
 70
     1
102
RTVSPropertyOp25
 70
     1
102
RTVSPropertyOp26
 70
     1
102
RTVSPropertyOp27
 70
     1
102
RTVSPropertyOp28
 70
     1
102
RTVSPropertyOp29
 70
     1
102
RTVSPropertyOp30
 70
     1
102
RTVSPropertyOp31
 70
     1
102
RTVSPropertyOp32
 70
     1
  0
XRECORD
  5
2AB
102
{ACAD_REACTORS
330
2AA
102
}
330
2AA
100
AcDbXrecord
280
     1
102
RTVSPropertyOp0
 70
     0
102
RTVSPropertyOp1
 70
     0
102
RTVSPropertyOp2
 70
     0
102
RTVSPropertyOp3
 70
     0
102
RTVSPropertyOp4
 70
     0
102
RTVSPropertyOp5
 70
     0
102
RTVSPropertyOp6
 70
     0
102
RTVSPropertyOp7
 70
     0
102
RTVSPropertyOp8
 70
     0
102
RTVSPropertyOp9
 70
     0
102
RTVSPropertyOp10
 70
     0
102
RTVSPropertyOp11
 70
     0
102
RTVSPropertyOp12
 70
     0
102
RTVSPropertyOp13
 70
     0
102
RTVSPropertyOp14
 70
     2
102
RTVSPropertyOp15
 70
     0
102
RTVSPropertyOp16
 70
     0
102
RTVSPropertyOp17
 70
     0
102
RTVSPropertyOp18
 70
     0
102
RTVSPropertyOp19
 70
     0
102
RTVSPropertyOp20
 70
     0
102
RTVSPropertyOp21
 70
     0
102
RTVSPropertyOp22
 70
     0
102
RTVSPropertyOp23
 70
     0
102
RTVSPropertyOp24
 70
     0
102
RTVSPropertyOp25
 70
     0
102
RTVSPropertyOp26
 70
     0
102
RTVSPropertyOp27
 70
     0
102
RTVSPropertyOp28
 70
     0
102
RTVSPropertyOp29
 70
     0
102
RTVSPropertyOp30
 70
     0
102
RTVSPropertyOp31
 70
     0
102
RTVSPropertyOp32
 70
     0
  0
XRECORD
  5
299
102
{ACAD_REACTORS
330
298
102
}
330
298
100
AcDbXrecord
280
     1
102
RTVSPropertyOp0
 70
     1
102
RTVSPropertyOp1
 70
     1
102
RTVSPropertyOp2
 70
     1
102
RTVSPropertyOp3
 70
     1
102
RTVSPropertyOp4
 70
     1
102
RTVSPropertyOp5
 70
     1
102
RTVSPropertyOp6
 70
     1
102
RTVSPropertyOp7
 70
     1
102
RTVSPropertyOp8
 70
     1
102
RTVSPropertyOp9
 70
     1
102
RTVSPropertyOp10
 70
     1
102
RTVSPropertyOp11
 70
     1
102
RTVSPropertyOp12
 70
     1
102
RTVSPropertyOp13
 70
     1
102
RTVSPropertyOp14
 70
     1
102
RTVSPropertyOp15
 70
     1
102
RTVSPropertyOp16
 70
     1
102
RTVSPropertyOp17
 70
     1
102
RTVSPropertyOp18
 70
     1
102
RTVSPropertyOp19
 70
     1
102
RTVSPropertyOp20
 70
     1
102
RTVSPropertyOp21
 70
     1
102
RTVSPropertyOp22
 70
     1
102
RTVSPropertyOp23
 70
     1
102
RTVSPropertyOp24
 70
     1
102
RTVSPropertyOp25
 70
     1
102
RTVSPropertyOp26
 70
     1
102
RTVSPropertyOp27
 70
     1
102
RTVSPropertyOp28
 70
     1
102
RTVSPropertyOp29
 70
     1
102
RTVSPropertyOp30
 70
     1
102
RTVSPropertyOp31
 70
     1
102
RTVSPropertyOp32
 70
     1
  0
XRECORD
  5
281
102
{ACAD_REACTORS
330
280
102
}
330
280
100
AcDbXrecord
280
     1
102
RTVSPropertyOp0
 70
     1
102
RTVSPropertyOp1
 70
     1
102
RTVSPropertyOp2
 70
     1
102
RTVSPropertyOp3
 70
     1
102
RTVSPropertyOp4
 70
     1
102
RTVSPropertyOp5
 70
     1
102
RTVSPropertyOp6
 70
     1
102
RTVSPropertyOp7
 70
     1
102
RTVSPropertyOp8
 70
     1
102
RTVSPropertyOp9
 70
     1
102
RTVSPropertyOp10
 70
     1
102
RTVSPropertyOp11
 70
     1
102
RTVSPropertyOp12
 70
     1
102
RTVSPropertyOp13
 70
     1
102
RTVSPropertyOp14
 70
     1
102
RTVSPropertyOp15
 70
     1
102
RTVSPropertyOp16
 70
     1
102
RTVSPropertyOp17
 70
     1
102
RTVSPropertyOp18
 70
     1
102
RTVSPropertyOp19
 70
     1
102
RTVSPropertyOp20
 70
     1
102
RTVSPropertyOp21
 70
     1
102
RTVSPropertyOp22
 70
     1
102
RTVSPropertyOp23
 70
     1
102
RTVSPropertyOp24
 70
     1
102
RTVSPropertyOp25
 70
     1
102
RTVSPropertyOp26
 70
     1
102
RTVSPropertyOp27
 70
     1
102
RTVSPropertyOp28
 70
     1
102
RTVSPropertyOp29
 70
     1
102
RTVSPropertyOp30
 70
     1
102
RTVSPropertyOp31
 70
     1
102
RTVSPropertyOp32
 70
     1
  0
XRECORD
  5
283
102
{ACAD_REACTORS
330
282
102
}
330
282
100
AcDbXrecord
280
     1
102
RTVSPropertyOp0
 70
     1
102
RTVSPropertyOp1
 70
     1
102
RTVSPropertyOp2
 70
     1
102
RTVSPropertyOp3
 70
     1
102
RTVSPropertyOp4
 70
     1
102
RTVSPropertyOp5
 70
     1
102
RTVSPropertyOp6
 70
     1
102
RTVSPropertyOp7
 70
     1
102
RTVSPropertyOp8
 70
     1
102
RTVSPropertyOp9
 70
     1
102
RTVSPropertyOp10
 70
     1
102
RTVSPropertyOp11
 70
     1
102
RTVSPropertyOp12
 70
     1
102
RTVSPropertyOp13
 70
     1
102
RTVSPropertyOp14
 70
     1
102
RTVSPropertyOp15
 70
     1
102
RTVSPropertyOp16
 70
     1
102
RTVSPropertyOp17
 70
     1
102
RTVSPropertyOp18
 70
     1
102
RTVSPropertyOp19
 70
     1
102
RTVSPropertyOp20
 70
     1
102
RTVSPropertyOp21
 70
     1
102
RTVSPropertyOp22
 70
     1
102
RTVSPropertyOp23
 70
     1
102
RTVSPropertyOp24
 70
     1
102
RTVSPropertyOp25
 70
     1
102
RTVSPropertyOp26
 70
     1
102
RTVSPropertyOp27
 70
     1
102
RTVSPropertyOp28
 70
     1
102
RTVSPropertyOp29
 70
     1
102
RTVSPropertyOp30
 70
     1
102
RTVSPropertyOp31
 70
     1
102
RTVSPropertyOp32
 70
     1
  0
XRECORD
  5
285
102
{ACAD_REACTORS
330
284
102
}
330
284
100
AcDbXrecord
280
     1
102
RTVSPropertyOp0
 70
     1
102
RTVSPropertyOp1
 70
     1
102
RTVSPropertyOp2
 70
     1
102
RTVSPropertyOp3
 70
     1
102
RTVSPropertyOp4
 70
     1
102
RTVSPropertyOp5
 70
     1
102
RTVSPropertyOp6
 70
     1
102
RTVSPropertyOp7
 70
     1
102
RTVSPropertyOp8
 70
     1
102
RTVSPropertyOp9
 70
     1
102
RTVSPropertyOp10
 70
     1
102
RTVSPropertyOp11
 70
     1
102
RTVSPropertyOp12
 70
     1
102
RTVSPropertyOp13
 70
     1
102
RTVSPropertyOp14
 70
     1
102
RTVSPropertyOp15
 70
     1
102
RTVSPropertyOp16
 70
     1
102
RTVSPropertyOp17
 70
     1
102
RTVSPropertyOp18
 70
     1
102
RTVSPropertyOp19
 70
     1
102
RTVSPropertyOp20
 70
     1
102
RTVSPropertyOp21
 70
     1
102
RTVSPropertyOp22
 70
     1
102
RTVSPropertyOp23
 70
     1
102
RTVSPropertyOp24
 70
     1
102
RTVSPropertyOp25
 70
     1
102
RTVSPropertyOp26
 70
     1
102
RTVSPropertyOp27
 70
     1
102
RTVSPropertyOp28
 70
     1
102
RTVSPropertyOp29
 70
     1
102
RTVSPropertyOp30
 70
     1
102
RTVSPropertyOp31
 70
     1
102
RTVSPropertyOp32
 70
     1
  0
XRECORD
  5
287
102
{ACAD_REACTORS
330
286
102
}
330
286
100
AcDbXrecord
280
     1
102
RTVSPropertyOp0
 70
     1
102
RTVSPropertyOp1
 70
     1
102
RTVSPropertyOp2
 70
     1
102
RTVSPropertyOp3
 70
     1
102
RTVSPropertyOp4
 70
     1
102
RTVSPropertyOp5
 70
     1
102
RTVSPropertyOp6
 70
     1
102
RTVSPropertyOp7
 70
     1
102
RTVSPropertyOp8
 70
     1
102
RTVSPropertyOp9
 70
     1
102
RTVSPropertyOp10
 70
     1
102
RTVSPropertyOp11
 70
     1
102
RTVSPropertyOp12
 70
     1
102
RTVSPropertyOp13
 70
     1
102
RTVSPropertyOp14
 70
     1
102
RTVSPropertyOp15
 70
     1
102
RTVSPropertyOp16
 70
     1
102
RTVSPropertyOp17
 70
     1
102
RTVSPropertyOp18
 70
     1
102
RTVSPropertyOp19
 70
     1
102
RTVSPropertyOp20
 70
     1
102
RTVSPropertyOp21
 70
     1
102
RTVSPropertyOp22
 70
     1
102
RTVSPropertyOp23
 70
     1
102
RTVSPropertyOp24
 70
     1
102
RTVSPropertyOp25
 70
     1
102
RTVSPropertyOp26
 70
     1
102
RTVSPropertyOp27
 70
     1
102
RTVSPropertyOp28
 70
     1
102
RTVSPropertyOp29
 70
     1
102
RTVSPropertyOp30
 70
     1
102
RTVSPropertyOp31
 70
     1
102
RTVSPropertyOp32
 70
     1
  0
XRECORD
  5
28D
102
{ACAD_REACTORS
330
28C
102
}
330
28C
100
AcDbXrecord
280
     1
102
RTVSPropertyOp0
 70
     1
102
RTVSPropertyOp1
 70
     1
102
RTVSPropertyOp2
 70
     1
102
RTVSPropertyOp3
 70
     1
102
RTVSPropertyOp4
 70
     1
102
RTVSPropertyOp5
 70
     1
102
RTVSPropertyOp6
 70
     1
102
RTVSPropertyOp7
 70
     1
102
RTVSPropertyOp8
 70
     1
102
RTVSPropertyOp9
 70
     1
102
RTVSPropertyOp10
 70
     1
102
RTVSPropertyOp11
 70
     1
102
RTVSPropertyOp12
 70
     1
102
RTVSPropertyOp13
 70
     1
102
RTVSPropertyOp14
 70
     1
102
RTVSPropertyOp15
 70
     1
102
RTVSPropertyOp16
 70
     1
102
RTVSPropertyOp17
 70
     1
102
RTVSPropertyOp18
 70
     1
102
RTVSPropertyOp19
 70
     1
102
RTVSPropertyOp20
 70
     1
102
RTVSPropertyOp21
 70
     1
102
RTVSPropertyOp22
 70
     1
102
RTVSPropertyOp23
 70
     1
102
RTVSPropertyOp24
 70
     1
102
RTVSPropertyOp25
 70
     1
102
RTVSPropertyOp26
 70
     1
102
RTVSPropertyOp27
 70
     1
102
RTVSPropertyOp28
 70
     1
102
RTVSPropertyOp29
 70
     1
102
RTVSPropertyOp30
 70
     1
102
RTVSPropertyOp31
 70
     1
102
RTVSPropertyOp32
 70
     1
  0
XRECORD
  5
2A7
102
{ACAD_REACTORS
330
2A6
102
}
330
2A6
100
AcDbXrecord
280
     1
102
RTVSPropertyOp0
 70
     0
102
RTVSPropertyOp1
 70
     0
102
RTVSPropertyOp2
 70
     0
102
RTVSPropertyOp3
 70
     0
102
RTVSPropertyOp4
 70
     0
102
RTVSPropertyOp5
 70
     0
102
RTVSPropertyOp6
 70
     0
102
RTVSPropertyOp7
 70
     0
102
RTVSPropertyOp8
 70
     0
102
RTVSPropertyOp9
 70
     0
102
RTVSPropertyOp10
 70
     0
102
RTVSPropertyOp11
 70
     0
102
RTVSPropertyOp12
 70
     0
102
RTVSPropertyOp13
 70
     0
102
RTVSPropertyOp14
 70
     2
102
RTVSPropertyOp15
 70
     0
102
RTVSPropertyOp16
 70
     0
102
RTVSPropertyOp17
 70
     0
102
RTVSPropertyOp18
 70
     0
102
RTVSPropertyOp19
 70
     0
102
RTVSPropertyOp20
 70
     0
102
RTVSPropertyOp21
 70
     0
102
RTVSPropertyOp22
 70
     0
102
RTVSPropertyOp23
 70
     0
102
RTVSPropertyOp24
 70
     0
102
RTVSPropertyOp25
 70
     0
102
RTVSPropertyOp26
 70
     0
102
RTVSPropertyOp27
 70
     0
102
RTVSPropertyOp28
 70
     0
102
RTVSPropertyOp29
 70
     0
102
RTVSPropertyOp30
 70
     0
102
RTVSPropertyOp31
 70
     0
102
RTVSPropertyOp32
 70
     0
  0
XRECORD
  5
297
102
{ACAD_REACTORS
330
296
102
}
330
296
100
AcDbXrecord
280
     1
102
RTVSPropertyOp0
 70
     1
102
RTVSPropertyOp1
 70
     1
102
RTVSPropertyOp2
 70
     1
102
RTVSPropertyOp3
 70
     1
102
RTVSPropertyOp4
 70
     1
102
RTVSPropertyOp5
 70
     1
102
RTVSPropertyOp6
 70
     1
102
RTVSPropertyOp7
 70
     1
102
RTVSPropertyOp8
 70
     1
102
RTVSPropertyOp9
 70
     1
102
RTVSPropertyOp10
 70
     1
102
RTVSPropertyOp11
 70
     1
102
RTVSPropertyOp12
 70
     1
102
RTVSPropertyOp13
 70
     1
102
RTVSPropertyOp14
 70
     1
102
RTVSPropertyOp15
 70
     1
102
RTVSPropertyOp16
 70
     1
102
RTVSPropertyOp17
 70
     1
102
RTVSPropertyOp18
 70
     1
102
RTVSPropertyOp19
 70
     1
102
RTVSPropertyOp20
 70
     1
102
RTVSPropertyOp21
 70
     1
102
RTVSPropertyOp22
 70
     1
102
RTVSPropertyOp23
 70
     1
102
RTVSPropertyOp24
 70
     1
102
RTVSPropertyOp25
 70
     1
102
RTVSPropertyOp26
 70
     1
102
RTVSPropertyOp27
 70
     1
102
RTVSPropertyOp28
 70
     1
102
RTVSPropertyOp29
 70
     1
102
RTVSPropertyOp30
 70
     1
102
RTVSPropertyOp31
 70
     1
102
RTVSPropertyOp32
 70
     1
  0
XRECORD
  5
2A9
102
{ACAD_REACTORS
330
2A8
102
}
330
2A8
100
AcDbXrecord
280
     1
102
RTVSPropertyOp0
 70
     0
102
RTVSPropertyOp1
 70
     0
102
RTVSPropertyOp2
 70
     0
102
RTVSPropertyOp3
 70
     0
102
RTVSPropertyOp4
 70
     0
102
RTVSPropertyOp5
 70
     0
102
RTVSPropertyOp6
 70
     0
102
RTVSPropertyOp7
 70
     0
102
RTVSPropertyOp8
 70
     0
102
RTVSPropertyOp9
 70
     0
102
RTVSPropertyOp10
 70
     0
102
RTVSPropertyOp11
 70
     0
102
RTVSPropertyOp12
 70
     0
102
RTVSPropertyOp13
 70
     0
102
RTVSPropertyOp14
 70
     2
102
RTVSPropertyOp15
 70
     0
102
RTVSPropertyOp16
 70
     0
102
RTVSPropertyOp17
 70
     0
102
RTVSPropertyOp18
 70
     0
102
RTVSPropertyOp19
 70
     0
102
RTVSPropertyOp20
 70
     0
102
RTVSPropertyOp21
 70
     0
102
RTVSPropertyOp22
 70
     0
102
RTVSPropertyOp23
 70
     0
102
RTVSPropertyOp24
 70
     0
102
RTVSPropertyOp25
 70
     0
102
RTVSPropertyOp26
 70
     0
102
RTVSPropertyOp27
 70
     0
102
RTVSPropertyOp28
 70
     0
102
RTVSPropertyOp29
 70
     0
102
RTVSPropertyOp30
 70
     0
102
RTVSPropertyOp31
 70
     0
102
RTVSPropertyOp32
 70
     0
  0
XRECORD
  5
27A
102
{ACAD_REACTORS
330
279
102
}
330
279
100
AcDbXrecord
280
     1
102
RTVSPropertyOp0
 70
     1
102
RTVSPropertyOp1
 70
     1
102
RTVSPropertyOp2
 70
     1
102
RTVSPropertyOp3
 70
     1
102
RTVSPropertyOp4
 70
     1
102
RTVSPropertyOp5
 70
     1
102
RTVSPropertyOp6
 70
     1
102
RTVSPropertyOp7
 70
     1
102
RTVSPropertyOp8
 70
     1
102
RTVSPropertyOp9
 70
     1
102
RTVSPropertyOp10
 70
     1
102
RTVSPropertyOp11
 70
     1
102
RTVSPropertyOp12
 70
     1
102
RTVSPropertyOp13
 70
     1
102
RTVSPropertyOp14
 70
     1
102
RTVSPropertyOp15
 70
     1
102
RTVSPropertyOp16
 70
     1
102
RTVSPropertyOp17
 70
     1
102
RTVSPropertyOp18
 70
     1
102
RTVSPropertyOp19
 70
     1
102
RTVSPropertyOp20
 70
     1
102
RTVSPropertyOp21
 70
     1
102
RTVSPropertyOp22
 70
     1
102
RTVSPropertyOp23
 70
     1
102
RTVSPropertyOp24
 70
     1
102
RTVSPropertyOp25
 70
     1
102
RTVSPropertyOp26
 70
     1
102
RTVSPropertyOp27
 70
     1
102
RTVSPropertyOp28
 70
     1
102
RTVSPropertyOp29
 70
     1
102
RTVSPropertyOp30
 70
     1
102
RTVSPropertyOp31
 70
     1
102
RTVSPropertyOp32
 70
     1
  0
XRECORD
  5
2A5
102
{ACAD_REACTORS
330
2A4
102
}
330
2A4
100
AcDbXrecord
280
     1
102
RTVSPropertyOp0
 70
     1
102
RTVSPropertyOp1
 70
     1
102
RTVSPropertyOp2
 70
     1
102
RTVSPropertyOp3
 70
     1
102
RTVSPropertyOp4
 70
     1
102
RTVSPropertyOp5
 70
     1
102
RTVSPropertyOp6
 70
     1
102
RTVSPropertyOp7
 70
     1
102
RTVSPropertyOp8
 70
     1
102
RTVSPropertyOp9
 70
     1
102
RTVSPropertyOp10
 70
     1
102
RTVSPropertyOp11
 70
     1
102
RTVSPropertyOp12
 70
     1
102
RTVSPropertyOp13
 70
     1
102
RTVSPropertyOp14
 70
     1
102
RTVSPropertyOp15
 70
     1
102
RTVSPropertyOp16
 70
     1
102
RTVSPropertyOp17
 70
     1
102
RTVSPropertyOp18
 70
     1
102
RTVSPropertyOp19
 70
     1
102
RTVSPropertyOp20
 70
     1
102
RTVSPropertyOp21
 70
     1
102
RTVSPropertyOp22
 70
     1
102
RTVSPropertyOp23
 70
     1
102
RTVSPropertyOp24
 70
     1
102
RTVSPropertyOp25
 70
     1
102
RTVSPropertyOp26
 70
     1
102
RTVSPropertyOp27
 70
     1
102
RTVSPropertyOp28
 70
     1
102
RTVSPropertyOp29
 70
     1
102
RTVSPropertyOp30
 70
     1
102
RTVSPropertyOp31
 70
     1
102
RTVSPropertyOp32
 70
     1
  0
XRECORD
  5
2A3
102
{ACAD_REACTORS
330
2A2
102
}
330
2A2
100
AcDbXrecord
280
     1
102
RTVSPropertyOp0
 70
     1
102
RTVSPropertyOp1
 70
     1
102
RTVSPropertyOp2
 70
     1
102
RTVSPropertyOp3
 70
     1
102
RTVSPropertyOp4
 70
     1
102
RTVSPropertyOp5
 70
     1
102
RTVSPropertyOp6
 70
     1
102
RTVSPropertyOp7
 70
     1
102
RTVSPropertyOp8
 70
     1
102
RTVSPropertyOp9
 70
     1
102
RTVSPropertyOp10
 70
     1
102
RTVSPropertyOp11
 70
     1
102
RTVSPropertyOp12
 70
     1
102
RTVSPropertyOp13
 70
     1
102
RTVSPropertyOp14
 70
     1
102
RTVSPropertyOp15
 70
     1
102
RTVSPropertyOp16
 70
     1
102
RTVSPropertyOp17
 70
     1
102
RTVSPropertyOp18
 70
     1
102
RTVSPropertyOp19
 70
     1
102
RTVSPropertyOp20
 70
     1
102
RTVSPropertyOp21
 70
     1
102
RTVSPropertyOp22
 70
     1
102
RTVSPropertyOp23
 70
     1
102
RTVSPropertyOp24
 70
     1
102
RTVSPropertyOp25
 70
     1
102
RTVSPropertyOp26
 70
     1
102
RTVSPropertyOp27
 70
     1
102
RTVSPropertyOp28
 70
     1
102
RTVSPropertyOp29
 70
     1
102
RTVSPropertyOp30
 70
     1
102
RTVSPropertyOp31
 70
     1
102
RTVSPropertyOp32
 70
     1
  0
XRECORD
  5
29D
102
{ACAD_REACTORS
330
29C
102
}
330
29C
100
AcDbXrecord
280
     1
102
RTVSPropertyOp0
 70
     1
102
RTVSPropertyOp1
 70
     1
102
RTVSPropertyOp2
 70
     1
102
RTVSPropertyOp3
 70
     1
102
RTVSPropertyOp4
 70
     1
102
RTVSPropertyOp5
 70
     1
102
RTVSPropertyOp6
 70
     1
102
RTVSPropertyOp7
 70
     1
102
RTVSPropertyOp8
 70
     1
102
RTVSPropertyOp9
 70
     1
102
RTVSPropertyOp10
 70
     1
102
RTVSPropertyOp11
 70
     1
102
RTVSPropertyOp12
 70
     1
102
RTVSPropertyOp13
 70
     1
102
RTVSPropertyOp14
 70
     1
102
RTVSPropertyOp15
 70
     1
102
RTVSPropertyOp16
 70
     1
102
RTVSPropertyOp17
 70
     1
102
RTVSPropertyOp18
 70
     1
102
RTVSPropertyOp19
 70
     1
102
RTVSPropertyOp20
 70
     1
102
RTVSPropertyOp21
 70
     1
102
RTVSPropertyOp22
 70
     1
102
RTVSPropertyOp23
 70
     1
102
RTVSPropertyOp24
 70
     1
102
RTVSPropertyOp25
 70
     1
102
RTVSPropertyOp26
 70
     1
102
RTVSPropertyOp27
 70
     1
102
RTVSPropertyOp28
 70
     1
102
RTVSPropertyOp29
 70
     1
102
RTVSPropertyOp30
 70
     1
102
RTVSPropertyOp31
 70
     1
102
RTVSPropertyOp32
 70
     1
  0
XRECORD
  5
29F
102
{ACAD_REACTORS
330
29E
102
}
330
29E
100
AcDbXrecord
280
     1
102
RTVSPropertyOp0
 70
     1
102
RTVSPropertyOp1
 70
     1
102
RTVSPropertyOp2
 70
     1
102
RTVSPropertyOp3
 70
     1
102
RTVSPropertyOp4
 70
     1
102
RTVSPropertyOp5
 70
     1
102
RTVSPropertyOp6
 70
     1
102
RTVSPropertyOp7
 70
     1
102
RTVSPropertyOp8
 70
     1
102
RTVSPropertyOp9
 70
     1
102
RTVSPropertyOp10
 70
     1
102
RTVSPropertyOp11
 70
     1
102
RTVSPropertyOp12
 70
     1
102
RTVSPropertyOp13
 70
     1
102
RTVSPropertyOp14
 70
     1
102
RTVSPropertyOp15
 70
     1
102
RTVSPropertyOp16
 70
     1
102
RTVSPropertyOp17
 70
     1
102
RTVSPropertyOp18
 70
     1
102
RTVSPropertyOp19
 70
     1
102
RTVSPropertyOp20
 70
     1
102
RTVSPropertyOp21
 70
     1
102
RTVSPropertyOp22
 70
     1
102
RTVSPropertyOp23
 70
     1
102
RTVSPropertyOp24
 70
     1
102
RTVSPropertyOp25
 70
     1
102
RTVSPropertyOp26
 70
     1
102
RTVSPropertyOp27
 70
     1
102
RTVSPropertyOp28
 70
     1
102
RTVSPropertyOp29
 70
     1
102
RTVSPropertyOp30
 70
     1
102
RTVSPropertyOp31
 70
     1
102
RTVSPropertyOp32
 70
     1
  0
XRECORD
  5
295
102
{ACAD_REACTORS
330
294
102
}
330
294
100
AcDbXrecord
280
     1
102
RTVSPropertyOp0
 70
     1
102
RTVSPropertyOp1
 70
     1
102
RTVSPropertyOp2
 70
     1
102
RTVSPropertyOp3
 70
     1
102
RTVSPropertyOp4
 70
     1
102
RTVSPropertyOp5
 70
     1
102
RTVSPropertyOp6
 70
     1
102
RTVSPropertyOp7
 70
     1
102
RTVSPropertyOp8
 70
     1
102
RTVSPropertyOp9
 70
     1
102
RTVSPropertyOp10
 70
     1
102
RTVSPropertyOp11
 70
     1
102
RTVSPropertyOp12
 70
     1
102
RTVSPropertyOp13
 70
     1
102
RTVSPropertyOp14
 70
     1
102
RTVSPropertyOp15
 70
     1
102
RTVSPropertyOp16
 70
     1
102
RTVSPropertyOp17
 70
     1
102
RTVSPropertyOp18
 70
     1
102
RTVSPropertyOp19
 70
     1
102
RTVSPropertyOp20
 70
     1
102
RTVSPropertyOp21
 70
     1
102
RTVSPropertyOp22
 70
     1
102
RTVSPropertyOp23
 70
     1
102
RTVSPropertyOp24
 70
     1
102
RTVSPropertyOp25
 70
     1
102
RTVSPropertyOp26
 70
     1
102
RTVSPropertyOp27
 70
     1
102
RTVSPropertyOp28
 70
     1
102
RTVSPropertyOp29
 70
     1
102
RTVSPropertyOp30
 70
     1
102
RTVSPropertyOp31
 70
     1
102
RTVSPropertyOp32
 70
     1
  0
XRECORD
  5
28B
102
{ACAD_REACTORS
330
28A
102
}
330
28A
100
AcDbXrecord
280
     1
102
RTVSPropertyOp0
 70
     1
102
RTVSPropertyOp1
 70
     1
102
RTVSPropertyOp2
 70
     1
102
RTVSPropertyOp3
 70
     1
102
RTVSPropertyOp4
 70
     1
102
RTVSPropertyOp5
 70
     1
102
RTVSPropertyOp6
 70
     1
102
RTVSPropertyOp7
 70
     1
102
RTVSPropertyOp8
 70
     1
102
RTVSPropertyOp9
 70
     1
102
RTVSPropertyOp10
 70
     1
102
RTVSPropertyOp11
 70
     1
102
RTVSPropertyOp12
 70
     1
102
RTVSPropertyOp13
 70
     1
102
RTVSPropertyOp14
 70
     1
102
RTVSPropertyOp15
 70
     1
102
RTVSPropertyOp16
 70
     1
102
RTVSPropertyOp17
 70
     1
102
RTVSPropertyOp18
 70
     1
102
RTVSPropertyOp19
 70
     1
102
RTVSPropertyOp20
 70
     1
102
RTVSPropertyOp21
 70
     1
102
RTVSPropertyOp22
 70
     1
102
RTVSPropertyOp23
 70
     1
102
RTVSPropertyOp24
 70
     1
102
RTVSPropertyOp25
 70
     1
102
RTVSPropertyOp26
 70
     1
102
RTVSPropertyOp27
 70
     1
102
RTVSPropertyOp28
 70
     1
102
RTVSPropertyOp29
 70
     1
102
RTVSPropertyOp30
 70
     1
102
RTVSPropertyOp31
 70
     1
102
RTVSPropertyOp32
 70
     1
  0
XRECORD
  5
2A1
102
{ACAD_REACTORS
330
2A0
102
}
330
2A0
100
AcDbXrecord
280
     1
102
RTVSPropertyOp0
 70
     1
102
RTVSPropertyOp1
 70
     1
102
RTVSPropertyOp2
 70
     1
102
RTVSPropertyOp3
 70
     1
102
RTVSPropertyOp4
 70
     1
102
RTVSPropertyOp5
 70
     1
102
RTVSPropertyOp6
 70
     1
102
RTVSPropertyOp7
 70
     1
102
RTVSPropertyOp8
 70
     1
102
RTVSPropertyOp9
 70
     1
102
RTVSPropertyOp10
 70
     1
102
RTVSPropertyOp11
 70
     1
102
RTVSPropertyOp12
 70
     1
102
RTVSPropertyOp13
 70
     1
102
RTVSPropertyOp14
 70
     1
102
RTVSPropertyOp15
 70
     1
102
RTVSPropertyOp16
 70
     1
102
RTVSPropertyOp17
 70
     1
102
RTVSPropertyOp18
 70
     1
102
RTVSPropertyOp19
 70
     1
102
RTVSPropertyOp20
 70
     1
102
RTVSPropertyOp21
 70
     1
102
RTVSPropertyOp22
 70
     1
102
RTVSPropertyOp23
 70
     1
102
RTVSPropertyOp24
 70
     1
102
RTVSPropertyOp25
 70
     1
102
RTVSPropertyOp26
 70
     1
102
RTVSPropertyOp27
 70
     1
102
RTVSPropertyOp28
 70
     1
102
RTVSPropertyOp29
 70
     1
102
RTVSPropertyOp30
 70
     1
102
RTVSPropertyOp31
 70
     1
102
RTVSPropertyOp32
 70
     1
  0
ENDSEC
  0
EOF
