  0
SECTION
  2
HEADER
  9
$ACADVER
  1
AC1018
  9
$ACADMAINTVER
 70
   104
  9
$DWGCODEPAGE
  3
ANSI_1252
  9
$LASTSAVEDBY
  1
Dm
  9
$INSBASE
 10
0.0
 20
0.0
 30
0.0
  9
$EXTMIN
 10
218.908583376935
 20
0.0
 30
0.0
  9
$EXTMAX
 10
428.9085833769434
 20
297.0000000000119
 30
0.0
  9
$LIMMIN
 10
0.0
 20
5.000000000000476
  9
$LIMMAX
 10
205.0000000000001
 20
292.0
  9
$ORTHOMODE
 70
     1
  9
$REGENMODE
 70
     1
  9
$FILLMODE
 70
     1
  9
$QTEXTMODE
 70
     0
  9
$MIRRTEXT
 70
     1
  9
$LTSCALE
 40
1.0
  9
$ATTMODE
 70
     1
  9
$TEXTSIZE
 40
2.5
  9
$TRACEWID
 40
1.0
  9
$TEXTSTYLE
  7
Standard
  9
$CLAYER
  8
AM_7
  9
$CELTYPE
  6
AM_ISO08W050x2
  9
$CECOLOR
 62
   256
  9
$CELTSCALE
 40
1.0
  9
$DISPSILH
 70
     0
  9
$DIMSCALE
 40
1.0
  9
$DIMASZ
 40
3.5
  9
$DIMEXO
 40
0.0
  9
$DIMDLI
 40
10.0
  9
$DIMRND
 40
0.0
  9
$DIMDLE
 40
0.0
  9
$DIMEXE
 40
1.5
  9
$DIMTP
 40
0.1
  9
$DIMTM
 40
0.1
  9
$DIMTXT
 40
3.5
  9
$DIMCEN
 40
0.0
  9
$DIMTSZ
 40
0.0
  9
$DIMTOL
 70
     0
  9
$DIMLIM
 70
     0
  9
$DIMTIH
 70
     0
  9
$DIMTOH
 70
     0
  9
$DIMSE1
 70
     0
  9
$DIMSE2
 70
     0
  9
$DIMTAD
 70
     1
  9
$DIMZIN
 70
     8
  9
$DIMBLK
  1

  9
$DIMASO
 70
     1
  9
$DIMSHO
 70
     1
  9
$DIMPOST
  1

  9
$DIMAPOST
  1
"
  9
$DIMALT
 70
     0
  9
$DIMALTD
 70
     2
  9
$DIMALTF
 40
0.0393701
  9
$DIMLFAC
 40
1.0
  9
$DIMTOFL
 70
     1
  9
$DIMTVP
 40
0.0
  9
$DIMTIX
 70
     0
  9
$DIMSOXD
 70
     0
  9
$DIMSAH
 70
     0
  9
$DIMBLK1
  1

  9
$DIMBLK2
  1

  9
$DIMSTYLE
  2
AM_DIN
  9
$DIMCLRD
 70
   256
  9
$DIMCLRE
 70
   256
  9
$DIMCLRT
 70
     2
  9
$DIMTFAC
 40
0.71
  9
$DIMGAP
 40
1.5
  9
$DIMJUST
 70
     0
  9
$DIMSD1
 70
     0
  9
$DIMSD2
 70
     0
  9
$DIMTOLJ
 70
     0
  9
$DIMTZIN
 70
     0
  9
$DIMALTZ
 70
     0
  9
$DIMALTTZ
 70
     0
  9
$DIMUPT
 70
     0
  9
$DIMDEC
 70
     1
  9
$DIMTDEC
 70
     3
  9
$DIMALTU
 70
     2
  9
$DIMALTTD
 70
     2
  9
$DIMTXSTY
  7
Standard
  9
$DIMAUNIT
 70
     0
  9
$DIMADEC
 70
     0
  9
$DIMALTRND
 40
0.0
  9
$DIMAZIN
 70
     2
  9
$DIMDSEP
 70
    46
  9
$DIMATFIT
 70
     3
  9
$DIMFRAC
 70
     0
  9
$DIMLDRBLK
  1

  9
$DIMLUNIT
 70
     2
  9
$DIMLWD
 70
    -1
  9
$DIMLWE
 70
    -1
  9
$DIMTMOVE
 70
     0
  9
$LUNITS
 70
     2
  9
$LUPREC
 70
     2
  9
$SKETCHINC
 40
1.0
  9
$FILLETRAD
 40
10.0
  9
$AUNITS
 70
     0
  9
$AUPREC
 70
     0
  9
$MENU
  1
.
  9
$ELEVATION
 40
0.0
  9
$PELEVATION
 40
0.0
  9
$THICKNESS
 40
0.0
  9
$LIMCHECK
 70
     0
  9
$CHAMFERA
 40
10.0
  9
$CHAMFERB
 40
10.0
  9
$CHAMFERC
 40
20.0
  9
$CHAMFERD
 40
0.0
  9
$SKPOLY
 70
     0
  9
$TDCREATE
 40
2455097.369131783
  9
$TDUCREATE
 40
2455097.327465116
  9
$TDUPDATE
 40
2455601.361731504
  9
$TDUUPDATE
 40
2455601.320064838
  9
$TDINDWG
 40
0.2036427778
  9
$TDUSRTIMER
 40
0.2036425694
  9
$USRTIMER
 70
     1
  9
$ANGBASE
 50
0.0
  9
$ANGDIR
 70
     0
  9
$PDMODE
 70
     0
  9
$PDSIZE
 40
0.0
  9
$PLINEWID
 40
0.0
  9
$SPLFRAME
 70
     0
  9
$SPLINETYPE
 70
     6
  9
$SPLINESEGS
 70
     8
  9
$HANDSEED
  5
345
  9
$SURFTAB1
 70
     6
  9
$SURFTAB2
 70
     6
  9
$SURFTYPE
 70
     6
  9
$SURFU
 70
     6
  9
$SURFV
 70
     6
  9
$UCSBASE
  2

  9
$UCSNAME
  2

  9
$UCSORG
 10
0.0
 20
0.0
 30
0.0
  9
$UCSXDIR
 10
1.0
 20
0.0
 30
0.0
  9
$UCSYDIR
 10
0.0
 20
1.0
 30
0.0
  9
$UCSORTHOREF
  2

  9
$UCSORTHOVIEW
 70
     0
  9
$UCSORGTOP
 10
0.0
 20
0.0
 30
0.0
  9
$UCSORGBOTTOM
 10
0.0
 20
0.0
 30
0.0
  9
$UCSORGLEFT
 10
0.0
 20
0.0
 30
0.0
  9
$UCSORGRIGHT
 10
0.0
 20
0.0
 30
0.0
  9
$UCSORGFRONT
 10
0.0
 20
0.0
 30
0.0
  9
$UCSORGBACK
 10
0.0
 20
0.0
 30
0.0
  9
$PUCSBASE
  2

  9
$PUCSNAME
  2

  9
$PUCSORG
 10
0.0
 20
0.0
 30
0.0
  9
$PUCSXDIR
 10
1.0
 20
0.0
 30
0.0
  9
$PUCSYDIR
 10
0.0
 20
1.0
 30
0.0
  9
$PUCSORTHOREF
  2

  9
$PUCSORTHOVIEW
 70
     0
  9
$PUCSORGTOP
 10
0.0
 20
0.0
 30
0.0
  9
$PUCSORGBOTTOM
 10
0.0
 20
0.0
 30
0.0
  9
$PUCSORGLEFT
 10
0.0
 20
0.0
 30
0.0
  9
$PUCSORGRIGHT
 10
0.0
 20
0.0
 30
0.0
  9
$PUCSORGFRONT
 10
0.0
 20
0.0
 30
0.0
  9
$PUCSORGBACK
 10
0.0
 20
0.0
 30
0.0
  9
$USERI1
 70
     0
  9
$USERI2
 70
     0
  9
$USERI3
 70
     0
  9
$USERI4
 70
     0
  9
$USERI5
 70
     0
  9
$USERR1
 40
0.0
  9
$USERR2
 40
0.0
  9
$USERR3
 40
0.0
  9
$USERR4
 40
0.0
  9
$USERR5
 40
0.0
  9
$WORLDVIEW
 70
     1
  9
$SHADEDGE
 70
     3
  9
$SHADEDIF
 70
    70
  9
$TILEMODE
 70
     1
  9
$MAXACTVP
 70
    64
  9
$PINSBASE
 10
0.0
 20
0.0
 30
0.0
  9
$PLIMCHECK
 70
     0
  9
$PEXTMIN
 10
1.000000000000000E+20
 20
1.000000000000000E+20
 30
1.000000000000000E+20
  9
$PEXTMAX
 10
-1.000000000000000E+20
 20
-1.000000000000000E+20
 30
-1.000000000000000E+20
  9
$PLIMMIN
 10
0.0
 20
0.0
  9
$PLIMMAX
 10
420.0
 20
297.0
  9
$UNITMODE
 70
     0
  9
$VISRETAIN
 70
     1
  9
$PLINEGEN
 70
     0
  9
$PSLTSCALE
 70
     1
  9
$TREEDEPTH
 70
  3020
  9
$CMLSTYLE
  2
Standard
  9
$CMLJUST
 70
     0
  9
$CMLSCALE
 40
20.0
  9
$PROXYGRAPHICS
 70
     1
  9
$MEASUREMENT
 70
     1
  9
$CELWEIGHT
370
    -1
  9
$ENDCAPS
280
     0
  9
$JOINSTYLE
280
     0
  9
$LWDISPLAY
290
     0
  9
$INSUNITS
 70
     4
  9
$HYPERLINKBASE
  1

  9
$STYLESHEET
  1

  9
$XEDIT
290
     1
  9
$CEPSNTYPE
380
     0
  9
$PSTYLEMODE
290
     1
  9
$FINGERPRINTGUID
  2
{3ACC8B14-4BDC-403E-8EE2-503EA5A3C343}
  9
$VERSIONGUID
  2
{48B83219-D823-44B5-A8B3-63E32123F961}
  9
$EXTNAMES
290
     1
  9
$PSVPSCALE
 40
0.0
  9
$OLESTARTUP
290
     0
  9
$SORTENTS
280
   127
  9
$INDEXCTL
280
     0
  9
$HIDETEXT
280
     1
  9
$XCLIPFRAME
290
     0
  9
$HALOGAP
280
     0
  9
$OBSCOLOR
 70
   257
  9
$OBSLTYPE
280
     0
  9
$INTERSECTIONDISPLAY
280
     0
  9
$INTERSECTIONCOLOR
 70
   257
  9
$DIMASSOC
280
     1
  9
$PROJECTNAME
  1

  0
ENDSEC
  0
SECTION
  2
CLASSES
  0
CLASS
  1
ACDBDICTIONARYWDFLT
  2
AcDbDictionaryWithDefault
  3
ObjectDBX Classes
 90
        0
 91
        1
280
     0
281
     0
  0
CLASS
  1
ACME_DOCUMENT
  2
AcMeDbDoc
  3
AcMeServices
 90
     1024
 91
        1
280
     0
281
     0
  0
CLASS
  1
AMGSETTINGSOBJ
  2
AmgSettingsObj
  3
"AcadM|Product Description: AutoCAD Mechanical|Company: Autodesk, Inc."
 90
     1024
 91
        2
280
     0
281
     0
  0
CLASS
  1
ACMESCOPE
  2
AcMeScope
  3
AcMeServices
 90
     1024
 91
        1
280
     0
281
     0
  0
CLASS
  1
ACMECOMMANDHISTORY
  2
AcMeCommandHistory
  3
AcMeServices
 90
     1024
 91
        1
280
     0
281
     0
  0
CLASS
  1
DICTIONARYVAR
  2
AcDbDictionaryVar
  3
ObjectDBX Classes
 90
        0
 91
        3
280
     0
281
     0
  0
CLASS
  1
ACIMSYSVARMAN
  2
AcImSysVarManager
  3
AcMeServices
 90
     1024
 91
        4
280
     0
281
     0
  0
CLASS
  1
ACIMREALSYSVAR
  2
AcImRealSysVar
  3
AcMeServices
 90
     1024
 91
        1
280
     0
281
     0
  0
CLASS
  1
ACIMINTSYSVAR
  2
AcImIntSysVar
  3
AcMeServices
 90
     1024
 91
       27
280
     0
281
     0
  0
CLASS
  1
ACMEDRAWINGMAN
  2
AcMeDrawingMan
  3
AcMeServices
 90
     1024
 91
        0
280
     0
281
     0
  0
CLASS
  1
ACMEVIEW
  2
AcMeView
  3
AcMeServices
 90
     1024
 91
        0
280
     0
281
     0
  0
CLASS
  1
ACDBENTITYCACHE
  2
AcMeEntityCache
  3
AcMeServices
 90
     1024
 91
        1
280
     0
281
     0
  0
CLASS
  1
GSMANAGER
  2
AcMeGSManager
  3
AcMeServices
 90
     1024
 91
        0
280
     0
281
     0
  0
CLASS
  1
AMDTINTERNALREACTOR
  2
AmdtInternalReactor
  3
AcMeServices
 90
     1024
 91
        1
280
     0
281
     0
  0
CLASS
  1
ACMESTATEMGR
  2
AcMeStateMgr
  3
AcMeServices
 90
     1024
 91
        1
280
     0
281
     0
  0
CLASS
  1
ACME_DATABASE
  2
AcMeDbDatabase
  3
AcMeServices
 90
     1024
 91
        3
280
     0
281
     0
  0
CLASS
  1
ACRFINSADJUSTERMGR
  2
AcRfInsAdjusterMgr
  3
AcMeServices
 90
     1024
 91
        1
280
     0
281
     0
  0
CLASS
  1
ACMDATADICTIONARY
  2
AcmDataDictionary
  3
"AcmSymBB|Product Description: AutoCAD Mechanical|Company: Autodesk, Inc."
 90
     1024
 91
        1
280
     0
281
     0
  0
CLASS
  1
ACMDATAENTRYBLOCK
  2
AcmDataEntryBlock
  3
AcmSymBB|Product Description: AutoCAD Mechanical|Company: Autodesk, Inc.
 90
     1024
 91
        2
280
     0
281
     0
  0
CLASS
  1
AMGOBJPROPCFG
  2
AmgObjPropCfg
  3
"AmgLay|Product Description: AutoCAD Mechanical|Company: Autodesk, Inc."
 90
     1025
 91
        1
280
     0
281
     0
  0
CLASS
  1
LAYER_INDEX
  2
AcDbLayerIndex
  3
ObjectDBX Classes
 90
        0
 91
        0
280
     0
281
     0
  0
CLASS
  1
IDBUFFER
  2
AcDbIdBuffer
  3
ObjectDBX Classes
 90
        0
 91
        0
280
     0
281
     0
  0
CLASS
  1
ACAMGFILTERDAT
  2
AcAmgFilterDat
  3
"AcadM|Product Description: AutoCAD Mechanical|Company: Autodesk, Inc."
 90
     1024
 91
        6
280
     0
281
     0
  0
CLASS
  1
ACIMSTRSYSVAR
  2
AcImStrSysVar
  3
AcMeServices
 90
     1024
 91
        5
280
     0
281
     0
  0
CLASS
  1
ACMSTANDARDISO
  2
AcmStandardISO
  3
"Amdt_StdImp|Product Description: AutoCAD Mechanical|Company: Autodesk, Inc."
 90
     1024
 91
        0
280
     0
281
     0
  0
CLASS
  1
AMDTEDGESTANDARDISO
  2
AmdtEdgeStdISO
  3
"Amdt_StdImp|Product Description: AutoCAD Mechanical|Company: Autodesk, Inc."
 90
     1024
 91
        0
280
     0
281
     0
  0
CLASS
  1
ACMSURFSTANDARDISO
  2
AcmSurfTextStdISO
  3
"Amdt_StdImp|Product Description: AutoCAD Mechanical|Company: Autodesk, Inc."
 90
     1024
 91
        0
280
     0
281
     0
  0
CLASS
  1
ACMFCFSTANDARDISO
  2
AcmFCFStdISO
  3
"Amdt_StdImp|Product Description: AutoCAD Mechanical|Company: Autodesk, Inc."
 90
     1024
 91
        0
280
     0
281
     0
  0
CLASS
  1
ACMWELDSTANDARDISO
  2
AcmWeldingStdISO
  3
"Amdt_StdImp|Product Description: AutoCAD Mechanical|Company: Autodesk, Inc."
 90
     1024
 91
        0
280
     0
281
     0
  0
CLASS
  1
ACMIDSTANDARDISO
  2
AcmIdStdISO
  3
"Amdt_StdImp|Product Description: AutoCAD Mechanical|Company: Autodesk, Inc."
 90
     1024
 91
        0
280
     0
281
     0
  0
CLASS
  1
ACMDATUMSTANDARDISO
  2
AcmDatumStdISO
  3
"Amdt_StdImp|Product Description: AutoCAD Mechanical|Company: Autodesk, Inc."
 90
     1024
 91
        0
280
     0
281
     0
  0
CLASS
  1
ACMBOMSTANDARDISO
  2
AcmBOMStdISO
  3
"Amdt_StdImp|Product Description: AutoCAD Mechanical|Company: Autodesk, Inc."
 90
     1024
 91
        0
280
     0
281
     0
  0
CLASS
  1
ACMSTANDARDDIN
  2
AcmStandardDIN
  3
"Amdt_StdImp|Product Description: AutoCAD Mechanical|Company: Autodesk, Inc."
 90
     1024
 91
        1
280
     0
281
     0
  0
CLASS
  1
AMDTEDGESTANDARDDIN
  2
AmdtEdgeStdDIN
  3
"Amdt_StdImp|Product Description: AutoCAD Mechanical|Company: Autodesk, Inc."
 90
     1024
 91
        0
280
     0
281
     0
  0
CLASS
  1
ACMSURFSTANDARDDIN
  2
AcmSurfTextStdDIN
  3
"Amdt_StdImp|Product Description: AutoCAD Mechanical|Company: Autodesk, Inc."
 90
     1024
 91
        0
280
     0
281
     0
  0
CLASS
  1
ACMFCFSTANDARDDIN
  2
AcmFCFStdDIN
  3
"Amdt_StdImp|Product Description: AutoCAD Mechanical|Company: Autodesk, Inc."
 90
     1024
 91
        1
280
     0
281
     0
  0
CLASS
  1
ACMWELDSTANDARDDIN
  2
AcmWeldingStdDIN
  3
"Amdt_StdImp|Product Description: AutoCAD Mechanical|Company: Autodesk, Inc."
 90
     1024
 91
        1
280
     0
281
     0
  0
CLASS
  1
ACMIDSTANDARDDIN
  2
AcmIdStdDIN
  3
"Amdt_StdImp|Product Description: AutoCAD Mechanical|Company: Autodesk, Inc."
 90
     1024
 91
        1
280
     0
281
     0
  0
CLASS
  1
ACMDATUMSTANDARDDIN
  2
AcmDatumStdDIN
  3
"Amdt_StdImp|Product Description: AutoCAD Mechanical|Company: Autodesk, Inc."
 90
     1024
 91
        1
280
     0
281
     0
  0
CLASS
  1
ACMBOMSTANDARDDIN
  2
AcmBOMStdDIN
  3
"Amdt_StdImp|Product Description: AutoCAD Mechanical|Company: Autodesk, Inc."
 90
     1024
 91
        1
280
     0
281
     0
  0
CLASS
  1
ACGREFMASTER
  2
AcGrefMaster
  3
AcAttribServices
 90
     1024
 91
        1
280
     0
281
     0
  0
CLASS
  1
ACGREFACADMASTER
  2
AcGrefacadMaster
  3
AcGrefServices
 90
     1024
 91
        1
280
     0
281
     0
  0
CLASS
  1
AMIMASTER
  2
AmiMaster
  3
AmiServices
 90
     1024
 91
        1
280
     0
281
     0
  0
CLASS
  1
ACAMGTITLESTD
  2
AcAmgTitleStd
  3
"AmgTitle|Product Description: AutoCAD Mechanical|Company: Autodesk, Inc."
 90
     4095
 91
        1
280
     0
281
     0
  0
CLASS
  1
ACMDETAILSTANDARDISO
  2
AmdtDetailSymStdISO
  3
"Amdt_StdImp|Product Description: AutoCAD Mechanical|Company: Autodesk, Inc."
 90
     1024
 91
        0
280
     0
281
     0
  0
CLASS
  1
ACMSECTIONSTANDARDISO
  2
AmdtSectionSymStdISO
  3
"Amdt_StdImp|Product Description: AutoCAD Mechanical|Company: Autodesk, Inc."
 90
     1024
 91
        0
280
     0
281
     0
  0
CLASS
  1
ACMCENTERLINESTANDARDISO
  2
AmdtCenterLineStdISO
  3
"Amdt_StdImp|Product Description: AutoCAD Mechanical|Company: Autodesk, Inc."
 90
     1024
 91
        0
280
     0
281
     0
  0
CLASS
  1
ACMNOTESTANDARDISO
  2
AmdtNoteStdISO
  3
"Amdt_StdImp|Product Description: AutoCAD Mechanical|Company: Autodesk, Inc."
 90
     1024
 91
        0
280
     0
281
     0
  0
CLASS
  1
ACMDETAILSTANDARDDIN
  2
AmdtDetailSymStdDIN
  3
"Amdt_StdImp|Product Description: AutoCAD Mechanical|Company: Autodesk, Inc."
 90
     1024
 91
        1
280
     0
281
     0
  0
CLASS
  1
ACMSECTIONSTANDARDDIN
  2
AmdtSectionSymStdDIN
  3
"Amdt_StdImp|Product Description: AutoCAD Mechanical|Company: Autodesk, Inc."
 90
     1024
 91
        1
280
     0
281
     0
  0
CLASS
  1
ACMCENTERLINESTANDARDDIN
  2
AmdtCenterLineStdDIN
  3
"Amdt_StdImp|Product Description: AutoCAD Mechanical|Company: Autodesk, Inc."
 90
     1024
 91
        1
280
     0
281
     0
  0
CLASS
  1
ACMNOTESTANDARDDIN
  2
AmdtNoteStdDIN
  3
"Amdt_StdImp|Product Description: AutoCAD Mechanical|Company: Autodesk, Inc."
 90
     1024
 91
        1
280
     0
281
     0
  0
CLASS
  1
ACAMGLAYSTD
  2
AcAmgLayStd
  3
"AmgLay|Product Description: AutoCAD Mechanical|Company: Autodesk, Inc."
 90
     1024
 91
        1
280
     0
281
     0
  0
CLASS
  1
ACAMGDIMSTD
  2
AcAmgDimStd
  3
"AmgDim|Product Description: AutoCAD Mechanical|Company: Autodesk, Inc."
 90
     1024
 91
        1
280
     0
281
     0
  0
CLASS
  1
ACAMGHOLECHARTSTDDIN
  2
AcAmgHoleChartStdDIN
  3
AmgDim|Product Description: AutoCAD Mechanical|Company: Autodesk, Inc.
 90
     1024
 91
        1
280
     0
281
     0
  0
CLASS
  1
ACAMGHOLECHARTSTDISO
  2
AcAmgHoleChartStdISO
  3
AmgDim|Product Description: AutoCAD Mechanical|Company: Autodesk, Inc.
 90
     1024
 91
        0
280
     0
281
     0
  0
CLASS
  1
AMDTNOTE
  2
AmdtNote
  3
"AcmSymBB|Product Description: AutoCAD Mechanical|Company: Autodesk, Inc."
 90
     4095
 91
        0
280
     0
281
     1
  0
CLASS
  1
AMDTFORMULAUPDATEDISPATCHER
  2
AmdtFormulaUpdateDispatcher
  3
AcMeServices
 90
     1024
 91
        0
280
     0
281
     0
  0
CLASS
  1
PLOTSETTINGS
  2
AcDbPlotSettings
  3
ObjectDBX Classes
 90
        0
 91
        0
280
     0
281
     0
  0
CLASS
  1
TABLESTYLE
  2
AcDbTableStyle
  3
ObjectDBX Classes
 90
     4095
 91
        2
280
     0
281
     0
  0
CLASS
  1
AM_DRAWING_MGR
  2
AcDmDwgMgr
  3
AcMechDwgViewMgmt
 90
     1024
 91
        1
280
     0
281
     0
  0
CLASS
  1
AM_DWG_DOCUMENT
  2
AcDmDwgDocument
  3
AcMechDwgViewMgmt
 90
     1024
 91
        1
280
     0
281
     0
  0
CLASS
  1
AM_DWG_SHEET
  2
AcDmSheet
  3
AcMechDwgViewMgmt
 90
     1024
 91
        1
280
     0
281
     0
  0
CLASS
  1
AM_VIEWDIMPARMAP
  2
AcDmViewDimParMap
  3
AcMechDwgViewMgmt
 90
     1024
 91
        1
280
     0
281
     0
  0
CLASS
  1
AM_DWGMGR_NAME
  2
AcDmDwgMgrName
  3
AcMechDwgViewMgmt
 90
     1024
 91
        1
280
     0
281
     0
  0
CLASS
  1
AMDTMENUSTATEMGR
  2
AmdtMenuStateMgr
  3
McadcomServices
 90
     1024
 91
        1
280
     0
281
     0
  0
CLASS
  1
AMDTMCOMMENUSTATE
  2
AmdtMcomMenuState
  3
McadcomServices
 90
     1024
 91
        1
280
     0
281
     0
  0
CLASS
  1
MAPIAMMOUDLE
  2
MApiAmModule
  3
MApiAmServices
 90
     1024
 91
        1
280
     0
281
     0
  0
CLASS
  1
AMDTADMENUSTATE
  2
AmdtAdMenuState
  3
DesignerServices
 90
     1024
 91
        0
280
     0
281
     0
  0
CLASS
  1
ADAPPL
  2
AcAdAppl
  3
DesignerAssemblies
 90
     1024
 91
        0
280
     0
281
     0
  0
CLASS
  1
DEPMGR
  2
AcAdDepMgr
  3
DesignerAssemblies
 90
     1024
 91
        0
280
     0
281
     0
  0
CLASS
  1
PARAMMGR
  2
AcAdParamMgr
  3
DesignerAssemblies
 90
     1024
 91
        0
280
     0
281
     0
  0
CLASS
  1
PARAMSCOPE
  2
AcAdParamScope
  3
DesignerAssemblies
 90
     1024
 91
        0
280
     0
281
     0
  0
CLASS
  1
NAMEDAPPL
  2
AcAdNamedAppl
  3
DesignerAssemblies
 90
     1024
 91
        0
280
     0
281
     0
  0
CLASS
  1
AMDTDMMENUSTATE
  2
AmdtDmMenuState
  3
AcMechDwgViewMgmt
 90
     1024
 91
        1
280
     0
281
     0
  0
CLASS
  1
AMDTAMMENUSTATE
  2
AmdtAmMenuState
  3
DesignerAssemblies
 90
     1024
 91
        1
280
     0
281
     0
  0
CLASS
  1
ACAMPROJECT
  2
AcAmProject
  3
DesignerAssemblies
 90
     1024
 91
        1
280
     0
281
     0
  0
CLASS
  1
ACAMGRCOMPDEF
  2
AcAmGrCompDef
  3
DesignerAssemblies
 90
     1024
 91
        1
280
     0
281
     0
  0
CLASS
  1
ACCMCONTEXT
  2
AcCmContext
  3
DesignerAssemblies
 90
     1024
 91
        0
280
     0
281
     0
  0
CLASS
  1
ACAMCOMPDEF
  2
AcAmCompDef
  3
DesignerAssemblies
 90
     1024
 91
        1
280
     0
281
     0
  0
CLASS
  1
ACAMCOMPDEFMGR
  2
AcAmCompDefMgr
  3
DesignerAssemblies
 90
     1024
 91
        1
280
     0
281
     0
  0
CLASS
  1
AMCONTEXTMGR
  2
AcAmContextMgr
  3
DesignerAssemblies
 90
     1024
 91
        1
280
     0
281
     0
  0
CLASS
  1
ACAMCONTEXTMODELER
  2
AcAmContextModeler
  3
DesignerAssemblies
 90
     1024
 91
        1
280
     0
281
     0
  0
CLASS
  1
ACMTHREADLINESTANDARDISO
  2
AmdtThreadLineStdISO
  3
"Amdt_StdImp|Product Description: AutoCAD Mechanical|Company: Autodesk, Inc."
 90
     1024
 91
        0
280
     0
281
     0
  0
CLASS
  1
ACMTHREADLINESTANDARDDIN
  2
AmdtThreadLineStdDIN
  3
"Amdt_StdImp|Product Description: AutoCAD Mechanical|Company: Autodesk, Inc."
 90
     1024
 91
        1
280
     0
281
     0
  0
CLASS
  1
CATALOGSTATE
  2
AcAmCatalogState
  3
DesignerAssemblies
 90
     1024
 91
        0
280
     0
281
     0
  0
CLASS
  1
ACAMGRCOMPDEFSET
  2
AcAmGrCompDefSet
  3
DesignerAssemblies
 90
     1024
 91
        1
280
     0
281
     0
  0
CLASS
  1
AMDTBROWSERDBTAB
  2
AmdtBrowserDbTab
  3
McadcomServices
 90
     1024
 91
        1
280
     0
281
     0
  0
CLASS
  1
CBROWSERAPPOBJECT
  2
CBrowserAppObject
  3
McadcomServices
 90
     1024
 91
        2
280
     0
281
     0
  0
CLASS
  1
DM_PLACEHOLDER
  2
AcDmSelsetPlaceholder
  3
AcMechDwgViewMgmt
 90
     1024
 91
        1
280
     0
281
     0
  0
CLASS
  1
MATERIAL
  2
AcDbMaterial
  3
ObjectDBX Classes
 90
     1153
 91
        3
280
     0
281
     0
  0
CLASS
  1
VISUALSTYLE
  2
AcDbVisualStyle
  3
ObjectDBX Classes
 90
     4095
 91
       25
280
     0
281
     0
  0
CLASS
  1
ACRFATTGENMGR
  2
AcRfAttGeneralMgr
  3
AcAttribServices
 90
     1024
 91
        0
280
     0
281
     0
  0
CLASS
  1
ACRFOBJATTMGR
  2
AcRfObjAttGroupMgr
  3
AcAttribServices
 90
     1024
 91
        0
280
     0
281
     0
  0
CLASS
  1
ACRFMCADAPIATTHOLDER
  2
AcRfMCADAPIAttHolder
  3
AcAttribServices
 90
     1024
 91
        0
280
     0
281
     0
  0
CLASS
  1
AMDTSYSATTR
  2
AmdtSystemAttribute
  3
AcAttribServices
 90
     1024
 91
        0
280
     0
281
     0
  0
CLASS
  1
ACMTAPERSTANDARDISO
  2
AcmTaperStdISO
  3
"Amdt_StdImp|Product Description: AutoCAD Mechanical|Company: Autodesk, Inc."
 90
     1024
 91
        0
280
     0
281
     0
  0
CLASS
  1
ACMTAPERSTANDARDDIN
  2
AcmTaperStdDIN
  3
"Amdt_StdImp|Product Description: AutoCAD Mechanical|Company: Autodesk, Inc."
 90
     1024
 91
        1
280
     0
281
     0
  0
CLASS
  1
ACAD_TABLE
  2
AcDbTable
  3
ObjectDBX Classes
 90
     1025
 91
        0
280
     0
281
     1
  0
CLASS
  1
CAMSSTRUCTBTNSTATE
  2
StructBtnState
  3
DesignerAssemblies
 90
     1024
 91
        0
280
     0
281
     0
  0
CLASS
  1
SCALE
  2
AcDbScale
  3
ObjectDBX Classes
 90
     1153
 91
       17
280
     0
281
     0
  0
CLASS
  1
MLEADERSTYLE
  2
AcDbMLeaderStyle
  3
ACDB_MLEADERSTYLE_CLASS
 90
     4095
 91
        1
280
     0
281
     0
  0
CLASS
  1
ACMANOOTATIONVIEWSTANDARDISO
  2
AmdtAnViewStdISO
  3
"Amdt_StdImp|Product Description: AutoCAD Mechanical|Company: Autodesk, Inc."
 90
     1024
 91
        0
280
     0
281
     0
  0
CLASS
  1
ACMANOOTATIONVIEWSTANDARDDIN
  2
AmdtAnViewStdDIN
  3
"Amdt_StdImp|Product Description: AutoCAD Mechanical|Company: Autodesk, Inc."
 90
     1024
 91
        1
280
     0
281
     0
  0
CLASS
  1
CELLSTYLEMAP
  2
AcDbCellStyleMap
  3
ObjectDBX Classes
 90
     1152
 91
        4
280
     0
281
     0
  0
CLASS
  1
RASTERVARIABLES
  2
AcDbRasterVariables
  3
ISM
 90
        0
 91
        1
280
     0
281
     0
  0
CLASS
  1
SORTENTSTABLE
  2
AcDbSortentsTable
  3
ObjectDBX Classes
 90
        0
 91
        3
280
     0
281
     0
  0
CLASS
  1
ACMDIMBREAKPERSREACTOR
  2
AcmDimBreakPersReactor
  3
AmgDim|Product Description: AutoCAD Mechanical|Company: Autodesk, Inc.
 90
     4095
 91
        0
280
     0
281
     0
  0
CLASS
  1
IMAGE
  2
AcDbRasterImage
  3
ISM
 90
     2175
 91
        1
280
     0
281
     1
  0
CLASS
  1
IMAGEDEF_REACTOR
  2
AcDbRasterImageDefReactor
  3
ISM
 90
        1
 91
        1
280
     0
281
     0
  0
CLASS
  1
IMAGEDEF
  2
AcDbRasterImageDef
  3
ISM
 90
        0
 91
        1
280
     0
281
     0
  0
CLASS
  1
AMDTEDGESTANDARDDIN13715
  2
AmdtEdgeStdDIN13715
  3
"Amdt_StdImp|Product Description: AutoCAD Mechanical|Company: Autodesk, Inc."
 90
     1024
 91
        1
280
     0
281
     0
  0
CLASS
  1
ACMSURFSTANDARDDIN2002
  2
AcmSurfTextStdDIN2002
  3
"Amdt_StdImp|Product Description: AutoCAD Mechanical|Company: Autodesk, Inc."
 90
     1024
 91
        1
280
     0
281
     0
  0
CLASS
  1
AMDTNOTETEMPLATEDB
  2
AmdtNoteTemplateDB
  3
AcmSymBB|Product Description: AutoCAD Mechanical|Company: Autodesk, Inc.
 90
     1024
 91
        6
280
     0
281
     0
  0
ENDSEC
  0
SECTION
  2
TABLES
  0
TABLE
  2
VPORT
  5
25
330
0
100
AcDbSymbolTable
 70
     1
  0
VPORT
  5
26
330
25
100
AcDbSymbolTableRecord
100
AcDbViewportTableRecord
  2
*Active
 70
     0
 10
0.0
 20
0.0
 11
1.0
 21
1.0
 12
300.6322183614405
 22
203.016182934262
 13
0.0
 23
0.0
 14
2.5
 24
2.5
 15
10.0
 25
10.0
 16
0.0
 26
0.0
 36
1.0
 17
0.0
 27
0.0
 37
0.0
 40
296.0639788823762
 41
1.723653395784543
 42
50.0
 43
0.0
 44
0.0
 50
0.0
 51
0.0
 71
    16
 72
   100
 73
     1
 74
     2
 75
     0
 76
     1
 77
     0
 78
     0
281
     0
 65
     0
110
0.0
120
0.0
130
0.0
111
1.0
121
0.0
131
0.0
112
0.0
122
1.0
132
0.0
 79
     0
146
0.0
  0
ENDTAB
  0
TABLE
  2
LTYPE
  5
20
330
0
100
AcDbSymbolTable
 70
    20
  0
LTYPE
  5
21
330
20
100
AcDbSymbolTableRecord
100
AcDbLinetypeTableRecord
  2
ByBlock
 70
     0
  3

 72
    65
 73
     0
 40
0.0
  0
LTYPE
  5
22
330
20
100
AcDbSymbolTableRecord
100
AcDbLinetypeTableRecord
  2
ByLayer
 70
     0
  3

 72
    65
 73
     0
 40
0.0
  0
LTYPE
  5
E
330
20
100
AcDbSymbolTableRecord
100
AcDbLinetypeTableRecord
  2
Continuous
 70
     0
  3
Solid line
 72
    65
 73
     0
 40
0.0
  0
LTYPE
  5
1AD
330
20
100
AcDbSymbolTableRecord
100
AcDbLinetypeTableRecord
  2
AM_ISO02W050
 70
     0
  3
__ __ __ __ __ __ __ __ __ __ __ __ __ __ __
 72
    65
 73
     2
 40
7.5
 49
6.0
 74
     0
 49
-1.5
 74
     0
  0
LTYPE
  5
63
330
20
100
AcDbSymbolTableRecord
100
AcDbLinetypeTableRecord
  2
Amconstr
 70
     0
  3
_______________________
 72
    65
 73
     2
 40
9999.0
 49
9999.0
 74
     0
 49
0.0
 74
     0
  0
LTYPE
  5
1AE
330
20
100
AcDbSymbolTableRecord
100
AcDbLinetypeTableRecord
  2
AM_ISO02W050x2
 70
     0
  3
 _ _ _ _ _ _ _ _ _ _ _ _
 72
    65
 73
     2
 40
3.75
 49
3.0
 74
     0
 49
-0.75
 74
     0
  0
LTYPE
  5
3A
330
20
100
AcDbSymbolTableRecord
100
AcDbLinetypeTableRecord
  2
AM_ISO08W050x2
 70
     0
  3
__ . __ . __ . __ . __ . __
 72
    65
 73
     4
 40
9.0
 49
6.0
 74
     0
 49
-0.75
 74
     0
 49
1.5
 74
     0
 49
-0.75
 74
     0
  0
LTYPE
  5
F7
330
20
100
AcDbSymbolTableRecord
100
AcDbLinetypeTableRecord
  2
Amzigzag
 70
     0
  3
/\/-/\/-/\/-/\/-/\/-/\/
 72
    65
 73
     2
 40
11.0001
 49
0.0001
 74
     4
 75
   135
340
F8
 46
0.04
 50
0.0
 44
0.0
 45
0.0
 49
-11.0
 74
     0
  0
LTYPE
  5
1C0
330
20
100
AcDbSymbolTableRecord
100
AcDbLinetypeTableRecord
  2
ACDINWELD
 70
     0
  3
_ _ _ _ _
 72
    65
 73
     2
 40
2.0
 49
2.0
 74
     0
 49
-1.0
 74
     0
  0
LTYPE
  5
1C3
330
20
100
AcDbSymbolTableRecord
100
AcDbLinetypeTableRecord
  2
ACDINTGB
 70
     0
  3
__ . . __ . .
 72
    65
 73
     6
 40
9.0
 49
4.0
 74
     0
 49
-1.0
 74
     0
 49
1.0
 74
     0
 49
-1.0
 74
     0
 49
1.0
 74
     0
 49
-1.0
 74
     0
  0
LTYPE
  5
1C4
330
20
100
AcDbSymbolTableRecord
100
AcDbLinetypeTableRecord
  2
ACDINTGL
 70
     0
  3
_ _ _ _ _
 72
    65
 73
     2
 40
3.0
 49
2.0
 74
     0
 49
-1.0
 74
     0
  0
LTYPE
  5
1AC
330
20
100
AcDbSymbolTableRecord
100
AcDbLinetypeTableRecord
  2
AM_DIN_F_W050
 70
     0
  3
__ __ __ __ __ __ __ __ __ __ __ __ __ __ __
 72
    65
 73
     2
 40
6.25
 49
4.75
 74
     0
 49
-1.5
 74
     0
  0
LTYPE
  5
1AA
330
20
100
AcDbSymbolTableRecord
100
AcDbLinetypeTableRecord
  2
AM_DIN_F_W050x2
 70
     0
  3
 _ _ _ _ _ _ _ _ _ _ _ _
 72
    65
 73
     2
 40
3.125
 49
2.25
 74
     0
 49
-0.875
 74
     0
  0
LTYPE
  5
39
330
20
100
AcDbSymbolTableRecord
100
AcDbLinetypeTableRecord
  2
AM_DIN_G_W050
 70
     0
  3
____ . ____ . ____ . ____ . ____ . ____ . ____
 72
    65
 73
     4
 40
13.75
 49
9.75
 74
     0
 49
-1.5
 74
     0
 49
1.0
 74
     0
 49
-1.5
 74
     0
  0
LTYPE
  5
1AB
330
20
100
AcDbSymbolTableRecord
100
AcDbLinetypeTableRecord
  2
AM_DIN_K_W050
 70
     0
  3
_____ . . _____ . . _____ . . ____ .. ____
 72
    65
 73
     6
 40
16.25
 49
9.75
 74
     0
 49
-1.5
 74
     0
 49
1.0
 74
     0
 49
-1.5
 74
     0
 49
1.0
 74
     0
 49
-1.5
 74
     0
  0
LTYPE
  5
206
330
20
100
AcDbSymbolTableRecord
100
AcDbLinetypeTableRecord
  2
HIDDEN
 70
     0
  3
Verdeckt
 72
    65
 73
     2
 40
9.525
 49
6.349999999999998
 74
     0
 49
-3.174999999999998
 74
     0
  0
LTYPE
  5
207
330
20
100
AcDbSymbolTableRecord
100
AcDbLinetypeTableRecord
  2
PHANTOM2
 70
     0
  3
Phantom (.5x) ___ _ _ ___ _ _ ___ _ _ ___ _ _
 72
    65
 73
     6
 40
31.75
 49
15.875
 74
     0
 49
-3.174999999999998
 74
     0
 49
3.174999999999998
 74
     0
 49
-3.174999999999998
 74
     0
 49
3.174999999999998
 74
     0
 49
-3.174999999999998
 74
     0
  0
LTYPE
  5
208
330
20
100
AcDbSymbolTableRecord
100
AcDbLinetypeTableRecord
  2
CENTER
 70
     0
  3
Mitte ____ _ ____ _ ____ _ ____ _ ____ _ ____
 72
    65
 73
     4
 40
50.8
 49
31.75
 74
     0
 49
-6.349999999999998
 74
     0
 49
6.349999999999998
 74
     0
 49
-6.349999999999998
 74
     0
  0
LTYPE
  5
2A3
330
20
100
AcDbSymbolTableRecord
100
AcDbLinetypeTableRecord
  2
AM_ISO08W050
 70
     0
  3
____ . ____ . ____ . ____ . ____ . ____ . ____
 72
    65
 73
     4
 40
18.0
 49
12.0
 74
     0
 49
-1.5
 74
     0
 49
3.0
 74
     0
 49
-1.5
 74
     0
  0
LTYPE
  5
2A4
330
20
100
AcDbSymbolTableRecord
100
AcDbLinetypeTableRecord
  2
AM_ISO09W050
 70
     0
  3
_____ . . _____ . . _____ . . ____ .. ____
 72
    65
 73
     6
 40
22.5
 49
12.0
 74
     0
 49
-1.5
 74
     0
 49
3.0
 74
     0
 49
-1.5
 74
     0
 49
3.0
 74
     0
 49
-1.5
 74
     0
  0
LTYPE
  5
2A5
330
20
100
AcDbSymbolTableRecord
100
AcDbLinetypeTableRecord
  2
AM_DIN_G_W050x2
 70
     0
  3
__ . __ . __ . __ . __ . __
 72
    65
 73
     4
 40
6.875
 49
4.75
 74
     0
 49
-0.875
 74
     0
 49
0.375
 74
     0
 49
-0.875
 74
     0
  0
ENDTAB
  0
TABLE
  2
LAYER
  5
1A
102
{ACAD_XDICTIONARY
360
1B
102
}
330
0
100
AcDbSymbolTable
 70
     9
  0
LAYER
  5
6
102
{ACAD_XDICTIONARY
360
7
102
}
330
1A
100
AcDbSymbolTableRecord
100
AcDbLayerTableRecord
  2
0
 70
     0
 62
     7
  6
Continuous
370
    -3
390
9
  0
LAYER
  5
19B
102
{ACAD_XDICTIONARY
360
19C
102
}
330
1A
100
AcDbSymbolTableRecord
100
AcDbLayerTableRecord
  2
AM_0
 70
     0
 62
     7
  6
Continuous
370
    50
390
9
  0
LAYER
  5
58
330
1A
100
AcDbSymbolTableRecord
100
AcDbLayerTableRecord
  2
AM_4
 70
     0
 62
     3
  6
Continuous
370
    25
390
9
  0
LAYER
  5
62
330
1A
100
AcDbSymbolTableRecord
100
AcDbLayerTableRecord
  2
AM_CL
 70
     0
 62
     1
  6
Amconstr
370
    25
390
9
1001
AcAecLayerStandard
1000

1000

  0
LAYER
  5
54
102
{ACAD_XDICTIONARY
360
55
102
}
330
1A
100
AcDbSymbolTableRecord
100
AcDbLayerTableRecord
  2
AM_6
 70
     0
 62
     2
  6
Continuous
370
    35
390
9
  0
LAYER
  5
37
102
{ACAD_XDICTIONARY
360
38
102
}
330
1A
100
AcDbSymbolTableRecord
100
AcDbLayerTableRecord
  2
AM_7
 70
     0
 62
     4
  6
AM_DIN_G_W050
370
    25
390
9
  0
LAYER
  5
5C
102
{ACAD_XDICTIONARY
360
5D
102
}
330
1A
100
AcDbSymbolTableRecord
100
AcDbLayerTableRecord
  2
AM_8
 70
     0
 62
     1
  6
Continuous
370
    25
390
9
  0
LAYER
  5
2C3
330
1A
100
AcDbSymbolTableRecord
100
AcDbLayerTableRecord
  2
grün94
 70
     0
 62
    94
  6
Continuous
370
    -3
390
9
1001
AcAecLayerStandard
1000

1000

  0
LAYER
  5
2C4
330
1A
100
AcDbSymbolTableRecord
100
AcDbLayerTableRecord
  2
Grau 251
 70
     0
 62
   251
  6
Continuous
370
    -3
390
9
1001
AcAecLayerStandard
1000

1000

  0
ENDTAB
  0
TABLE
  2
STYLE
  5
1D
330
0
100
AcDbSymbolTable
 70
     5
  0
STYLE
  5
1E
330
1D
100
AcDbSymbolTableRecord
100
AcDbTextStyleTableRecord
  2
Standard
 70
     0
 40
0.0
 41
0.8
 50
15.0
 71
     0
 42
2.5
  3
isocp.shx
  4

  0
STYLE
  5
F8
330
1D
100
AcDbSymbolTableRecord
100
AcDbTextStyleTableRecord
  2

 70
     1
 40
0.0
 41
1.0
 50
0.0
 71
     0
 42
2.5
  3
ltypeshp.shx
  4

  0
STYLE
  5
1BA
330
1D
100
AcDbSymbolTableRecord
100
AcDbTextStyleTableRecord
  2
ACDINTS
 70
     0
 40
1.0
 41
0.8
 50
15.0
 71
     0
 42
2.5
  3
isocp.shx
  4

  0
STYLE
  5
1BE
330
1D
100
AcDbSymbolTableRecord
100
AcDbTextStyleTableRecord
  2
ACDINGDT
 70
     0
 40
0.0
 41
1.0
 50
0.0
 71
     0
 42
2.5
  3
amgdt.shx
  4

  0
STYLE
  5
56
330
1D
100
AcDbSymbolTableRecord
100
AcDbTextStyleTableRecord
  2
NORM
 70
     0
 40
0.0
 41
0.8
 50
15.0
 71
     0
 42
3.5
  3
isocp.shx
  4

  0
ENDTAB
  0
TABLE
  2
VIEW
  5
23
330
0
100
AcDbSymbolTable
 70
     1
  0
VIEW
  5
12
330
23
100
AcDbSymbolTableRecord
100
AcDbViewTableRecord
  2
AM_VIEW1
 70
     0
 40
143.4999999999998
 10
115.9891151685391
 20
220.2500000000001
 41
231.9782303370783
 11
0.0
 21
0.0
 31
1.0
 12
0.0
 22
0.0
 32
0.0
 42
50.0
 43
0.0
 44
0.0
 50
0.0
 71
    16
281
     0
 72
     0
  0
ENDTAB
  0
TABLE
  2
UCS
  5
24
330
0
100
AcDbSymbolTable
 70
     0
  0
ENDTAB
  0
TABLE
  2
APPID
  5
27
330
0
100
AcDbSymbolTable
 70
    19
  0
APPID
  5
28
330
27
100
AcDbSymbolTableRecord
100
AcDbRegAppTableRecord
  2
ACAD
 70
     0
  0
APPID
  5
67
330
27
100
AcDbSymbolTableRecord
100
AcDbRegAppTableRecord
  2
GENIUS_GENODEF_13
 70
     0
  0
APPID
  5
66
330
27
100
AcDbSymbolTableRecord
100
AcDbRegAppTableRecord
  2
GENIUS_GENOBJ-N-FIL_13
 70
     0
  0
APPID
  5
15
330
27
100
AcDbSymbolTableRecord
100
AcDbRegAppTableRecord
  2
ACAD_PSEXT
 70
     0
  0
APPID
  5
64
330
27
100
AcDbSymbolTableRecord
100
AcDbRegAppTableRecord
  2
AcAecLayerStandard
 70
     0
  0
APPID
  5
1E5
330
27
100
AcDbSymbolTableRecord
100
AcDbRegAppTableRecord
  2
ACATTRIBSERVICES
 70
     0
  0
APPID
  5
23E
330
27
100
AcDbSymbolTableRecord
100
AcDbRegAppTableRecord
  2
MCAD_NO_VIS
 70
     0
  0
APPID
  5
23F
330
27
100
AcDbSymbolTableRecord
100
AcDbRegAppTableRecord
  2
ACAD_TEMP_GRAPHIC
 70
     0
  0
APPID
  5
268
330
27
100
AcDbSymbolTableRecord
100
AcDbRegAppTableRecord
  2
AD_DRAW
 70
     0
  0
APPID
  5
283
330
27
100
AcDbSymbolTableRecord
100
AcDbRegAppTableRecord
  2
DESIGNERASSEMBLIES
 70
     0
  0
APPID
  5
287
330
27
100
AcDbSymbolTableRecord
100
AcDbRegAppTableRecord
  2
ACADM_DIM_EDIT
 70
     0
  0
APPID
  5
288
330
27
100
AcDbSymbolTableRecord
100
AcDbRegAppTableRecord
  2
AMDT_DM_ADJ
 70
     0
  0
APPID
  5
29D
330
27
100
AcDbSymbolTableRecord
100
AcDbRegAppTableRecord
  2
ACAD_DSTYLE_DIMBREAK
 70
     0
  0
APPID
  5
29E
330
27
100
AcDbSymbolTableRecord
100
AcDbRegAppTableRecord
  2
ACAD_DSTYLE_DIMJAG
 70
     0
  0
APPID
  5
2AD
330
27
100
AcDbSymbolTableRecord
100
AcDbRegAppTableRecord
  2
ACAD_EXEMPT_FROM_CAD_STANDARDS
 70
     0
  0
APPID
  5
2C5
330
27
100
AcDbSymbolTableRecord
100
AcDbRegAppTableRecord
  2
GRADIENTCOLOR1ACI
 70
     0
  0
APPID
  5
2C6
330
27
100
AcDbSymbolTableRecord
100
AcDbRegAppTableRecord
  2
GRADIENTCOLOR2ACI
 70
     0
  0
APPID
  5
343
330
27
100
AcDbSymbolTableRecord
100
AcDbRegAppTableRecord
  2
ACAD_MLEADERVER
 70
     0
  0
APPID
  5
344
330
27
100
AcDbSymbolTableRecord
100
AcDbRegAppTableRecord
  2
ACAD_DSTYLE_DIMJOGGED_JOGANGLE_SYMBOL
 70
     0
  0
ENDTAB
  0
TABLE
  2
DIMSTYLE
  5
29
330
0
100
AcDbSymbolTable
 70
    14
100
AcDbDimStyleTable
 71
     4
340
2A
340
2B
340
2C
340
2D
  0
DIMSTYLE
105
2B
330
29
100
AcDbSymbolTableRecord
100
AcDbDimStyleTableRecord
  2
AM_ISO
 70
     0
  4
"
 41
3.5
 42
0.0
 43
10.0
 44
1.5
 47
0.1
 48
0.1
 73
     0
 74
     0
 77
     1
 78
     8
 79
     2
140
3.5
141
0.0
143
0.0393701
146
0.71
147
1.5
172
     1
176
   256
177
   256
178
     2
179
     3
271
     3
272
     3
283
     0
340
1E
371
    -1
372
    -1
  0
DIMSTYLE
105
2D
330
29
100
AcDbSymbolTableRecord
100
AcDbDimStyleTableRecord
  2
AM_ISO$3
 70
     0
  4
"
 41
3.5
 42
0.0
 43
10.0
 44
1.5
 47
0.1
 48
0.1
 73
     0
 77
     1
 78
     8
 79
     2
140
3.5
141
0.0
143
0.0393701
146
0.71
147
1.5
176
   256
177
   256
178
     2
271
     3
272
     3
283
     0
288
     1
340
1E
371
    -1
372
    -1
  0
DIMSTYLE
105
2C
330
29
100
AcDbSymbolTableRecord
100
AcDbDimStyleTableRecord
  2
AM_ISO$7
 70
     0
  4
"
 41
3.5
 42
0.0
 43
10.0
 44
1.5
 47
0.1
 48
0.1
 73
     0
 74
     0
 77
     1
 78
     8
 79
     2
140
3.5
141
0.0
143
0.0393701
146
0.71
147
1.5
172
     1
176
   256
177
   256
178
     2
271
     2
272
     2
283
     0
340
1E
371
    -1
372
    -1
  0
DIMSTYLE
105
1D3
330
29
100
AcDbSymbolTableRecord
100
AcDbDimStyleTableRecord
  2
AM_ISO$SF
 70
     0
  4
"
 41
2.5
 42
1.0
 43
10.0
 44
1.0
 47
0.1
 48
0.1
 73
     0
 74
     0
 75
     1
 76
     1
 77
     1
 78
     8
 79
     2
140
3.5
141
0.0
143
0.0393701
146
0.71
147
1.5
172
     1
176
   256
177
   256
178
     2
271
     2
272
     3
274
     4
283
     0
340
1E
371
    -1
372
    -1
  0
DIMSTYLE
105
1D4
330
29
100
AcDbSymbolTableRecord
100
AcDbDimStyleTableRecord
  2
AM_ISO$SH
 70
     0
  4
"
 41
2.5
 42
1.0
 43
10.0
 44
1.0
 47
0.1
 48
0.1
 73
     0
 74
     0
 75
     1
 76
     1
 77
     1
 78
     8
 79
     2
140
3.5
141
0.0
143
0.0393701
144
2.0
146
0.71
147
1.5
172
     1
173
     1
176
   256
177
   256
178
     2
271
     2
272
     3
274
     4
283
     0
340
1E
343
1D5
371
    -1
372
    -1
  0
DIMSTYLE
105
2A
102
{ACAD_REACTORS
330
28C
102
}
330
29
100
AcDbSymbolTableRecord
100
AcDbDimStyleTableRecord
  2
AM_DIN
 70
     0
  4
"
 41
3.5
 42
0.0
 43
10.0
 44
1.5
 47
0.1
 48
0.1
 73
     0
 74
     0
 77
     1
 78
     8
 79
     2
140
3.5
141
0.0
143
0.0393701
146
0.71
147
1.5
172
     1
176
   256
177
   256
178
     2
271
     3
272
     3
283
     0
340
1E
371
    -1
372
    -1
  0
DIMSTYLE
105
1D1
330
29
100
AcDbSymbolTableRecord
100
AcDbDimStyleTableRecord
  2
AM_DIN$6
 70
     0
  4
"
 41
3.5
 42
0.0
 43
10.0
 44
1.5
 47
0.1
 48
0.1
 73
     0
 74
     0
 78
     8
 79
     2
140
3.5
141
0.0
143
0.0393701
146
0.71
147
1.5
172
     1
176
   256
177
   256
178
     2
271
     3
272
     3
283
     0
340
1E
371
    -1
372
    -1
  0
DIMSTYLE
105
1D0
330
29
100
AcDbSymbolTableRecord
100
AcDbDimStyleTableRecord
  2
AM_DIN$4
 70
     0
  4
"
 41
3.5
 42
0.0
 43
10.0
 44
1.5
 47
0.1
 48
0.1
 73
     0
 74
     0
 77
     1
 78
     8
 79
     2
140
3.5
141
0.0
143
0.0393701
146
0.71
147
1.5
172
     1
176
   256
177
   256
178
     2
271
     3
272
     3
283
     0
340
1E
371
    -1
372
    -1
  0
DIMSTYLE
105
1CE
330
29
100
AcDbSymbolTableRecord
100
AcDbDimStyleTableRecord
  2
AM_DIN$2
 70
     0
  4
"
 41
3.5
 42
0.0
 43
10.0
 44
1.5
 47
0.1
 48
0.1
 73
     0
 74
     0
 77
     1
 78
     8
 79
     2
140
3.5
141
0.0
143
0.0393701
146
0.71
147
1.5
172
     1
176
   256
177
   256
178
     2
271
     3
272
     3
283
     0
340
1E
371
    -1
372
    -1
  0
DIMSTYLE
105
1CF
330
29
100
AcDbSymbolTableRecord
100
AcDbDimStyleTableRecord
  2
AM_DIN$3
 70
     0
  4
"
 41
3.5
 42
0.0
 43
10.0
 44
1.5
 47
0.1
 48
0.1
 73
     0
 74
     0
 77
     1
 78
     8
 79
     2
140
3.5
141
0.0
143
0.0393701
146
0.71
147
1.5
172
     1
176
   256
177
   256
178
     2
271
     3
272
     3
283
     0
340
1E
371
    -1
372
    -1
  0
DIMSTYLE
105
1D2
330
29
100
AcDbSymbolTableRecord
100
AcDbDimStyleTableRecord
  2
AM_DIN$7
 70
     0
  4
"
 41
3.5
 42
0.0
 43
10.0
 44
1.5
 47
0.1
 48
0.1
 73
     0
 74
     0
 77
     1
 78
     8
 79
     2
140
3.5
141
0.0
143
0.0393701
146
0.71
147
1.5
172
     1
176
   256
177
   256
178
     2
271
     3
272
     3
283
     0
340
1E
371
    -1
372
    -1
  0
DIMSTYLE
105
1CD
330
29
100
AcDbSymbolTableRecord
100
AcDbDimStyleTableRecord
  2
AM_DIN$0
 70
     0
  4
"
 41
3.5
 42
0.0
 43
10.0
 44
1.5
 47
0.1
 48
0.1
 73
     0
 74
     0
 77
     1
 78
     8
 79
     2
140
3.5
141
0.0
143
0.0393701
146
0.71
147
1.5
172
     1
176
   256
177
   256
178
     2
271
     3
272
     3
283
     0
340
1E
371
    -1
372
    -1
  0
DIMSTYLE
105
29F
330
29
100
AcDbSymbolTableRecord
100
AcDbDimStyleTableRecord
  2
AM_DIN$SF
 70
     0
  4
"
 41
3.5
 42
0.0
 43
10.0
 44
1.5
 47
0.1
 48
0.1
 73
     0
 74
     0
 75
     1
 76
     1
 77
     1
 78
     8
 79
     2
140
3.5
141
0.0
143
0.0393701
146
0.71
147
1.5
172
     1
176
   256
177
   256
178
     2
271
     3
272
     3
283
     0
340
1E
371
    -1
372
    -1
1001
ACAD_DSTYLE_DIMBREAK
1070
   391
1040
3.75
1001
ACAD_DSTYLE_DIMJAG
1070
   388
1040
1.5
1001
ACAD_DSTYLE_DIMJOGGED_JOGANGLE_SYMBOL
1070
   384
1040
1.570796326794896
  0
DIMSTYLE
105
2A0
330
29
100
AcDbSymbolTableRecord
100
AcDbDimStyleTableRecord
  2
AM_DIN$SH
 70
     0
  4
"
 41
3.5
 42
0.0
 43
10.0
 44
1.5
 47
0.1
 48
0.1
 73
     0
 74
     0
 75
     1
 76
     1
 77
     1
 78
     8
 79
     2
140
3.5
141
0.0
143
0.0393701
144
2.0
146
0.71
147
1.5
172
     1
173
     1
176
   256
177
   256
178
     2
271
     3
272
     3
283
     0
340
1E
343
1D5
371
    -1
372
    -1
1001
ACAD_DSTYLE_DIMBREAK
1070
   391
1040
3.75
1001
ACAD_DSTYLE_DIMJAG
1070
   388
1040
1.5
1001
ACAD_DSTYLE_DIMJOGGED_JOGANGLE_SYMBOL
1070
   384
1040
1.570796326794896
  0
ENDTAB
  0
TABLE
  2
BLOCK_RECORD
  5
1
330
0
100
AcDbSymbolTable
 70
     5
  0
BLOCK_RECORD
  5
2
102
{ACAD_XDICTIONARY
360
3
102
}
330
1
100
AcDbSymbolTableRecord
100
AcDbBlockTableRecord
  2
*Model_Space
340
10
  0
BLOCK_RECORD
  5
16
330
1
100
AcDbSymbolTableRecord
100
AcDbBlockTableRecord
  2
*Paper_Space
340
19
  0
BLOCK_RECORD
  5
1D5
330
1
100
AcDbSymbolTableRecord
100
AcDbBlockTableRecord
  2
GENAXEH
340
0
  0
BLOCK_RECORD
  5
1A0
330
1
100
AcDbSymbolTableRecord
100
AcDbBlockTableRecord
  2
BORDER
340
0
102
{BLKREFS
331
19F
102
}
  0
BLOCK_RECORD
  5
2B8
102
{ACAD_XDICTIONARY
360
2BC
102
}
330
1
100
AcDbSymbolTableRecord
100
AcDbBlockTableRecord
  2
Schutzvermerk
340
0
102
{BLKREFS
331
2C1
102
}
1001
ACAD
1000
DesignCenter Data
1002
{
1070
     1
1070
     4
1002
}
  0
BLOCK_RECORD
  5
2C7
102
{ACAD_XDICTIONARY
360
304
102
}
330
1
100
AcDbSymbolTableRecord
100
AcDbBlockTableRecord
  2
VITRIS_LOGO
340
0
102
{BLKREFS
331
309
102
}
1001
ACAD
1000
DesignCenter Data
1002
{
1070
     1
1070
     4
1002
}
  0
ENDTAB
  0
ENDSEC
  0
SECTION
  2
BLOCKS
  0
BLOCK
  5
5
330
2
100
AcDbEntity
  8
0
100
AcDbBlockBegin
  2
*Model_Space
 70
     0
 10
0.0
 20
0.0
 30
0.0
  3
*Model_Space
  1

  0
ENDBLK
  5
F
330
2
100
AcDbEntity
  8
0
100
AcDbBlockEnd
  0
BLOCK
  5
17
330
16
100
AcDbEntity
 67
     1
  8
0
100
AcDbBlockBegin
  2
*Paper_Space
 70
     0
 10
0.0
 20
0.0
 30
0.0
  3
*Paper_Space
  1

  0
ENDBLK
  5
18
330
16
100
AcDbEntity
 67
     1
  8
0
100
AcDbBlockEnd
  0
BLOCK
  5
1D6
330
1D5
100
AcDbEntity
  8
0
100
AcDbBlockBegin
  2
GENAXEH
 70
     0
 10
0.0
 20
0.0
 30
0.0
  3
GENAXEH
  1

  0
LINE
  5
1D7
330
1D5
100
AcDbEntity
  8
0
100
AcDbLine
 10
-1.0
 20
0.0
 30
0.0
 11
1.0
 21
0.0
 31
0.0
  0
ENDBLK
  5
1D8
330
1D5
100
AcDbEntity
  8
0
100
AcDbBlockEnd
  0
BLOCK
  5
1A1
330
1A0
100
AcDbEntity
  8
0
100
AcDbBlockBegin
  2
BORDER
 70
     0
 10
0.0
 20
0.0
 30
0.0
  3
BORDER
  1

  0
LINE
  5
1A2
330
1A0
100
AcDbEntity
  8
0
100
AcDbLine
 10
0.0
 20
0.0
 30
0.0
 11
1.00000000000004
 21
0.0
 31
0.0
  0
LINE
  5
1A3
330
1A0
100
AcDbEntity
  8
0
100
AcDbLine
 10
1.00000000000004
 20
0.0
 30
0.0
 11
1.00000000000004
 21
1.00000000000004
 31
0.0
  0
LINE
  5
1A4
330
1A0
100
AcDbEntity
  8
0
100
AcDbLine
 10
1.00000000000004
 20
1.00000000000004
 30
0.0
 11
0.0
 21
1.00000000000004
 31
0.0
  0
LINE
  5
1A5
330
1A0
100
AcDbEntity
  8
0
100
AcDbLine
 10
0.0
 20
1.00000000000004
 30
0.0
 11
0.0
 21
0.0
 31
0.0
  0
ENDBLK
  5
1A6
330
1A0
100
AcDbEntity
  8
0
100
AcDbBlockEnd
  0
BLOCK
  5
2BE
330
2B8
100
AcDbEntity
  8
0
100
AcDbBlockBegin
  2
Schutzvermerk
 70
     0
 10
0.0
 20
0.0
 30
0.0
  3
Schutzvermerk
  1

  0
LINE
  5
2B9
330
2B8
100
AcDbEntity
  8
AM_4
100
AcDbLine
 10
-2.976943536749942
 20
0.0
 30
0.0
 11
0.0
 21
0.0
 31
0.0
  0
LINE
  5
2BA
330
2B8
100
AcDbEntity
  8
AM_4
100
AcDbLine
 10
0.0
 20
-2.976943536749928
 30
0.0
 11
0.0
 21
0.0
 31
0.0
  0
MTEXT
  5
2BB
330
2B8
100
AcDbEntity
  8
AM_0
100
AcDbMText
 10
-5.246182480686456
 20
-74.65310299024605
 30
0.0
 40
3.5
 41
200.8405119662405
 71
     1
 72
     5
  1
{\fArial|b0|i0|c0|p34;Schutzvermerk nach DIN 34 beachten !}
 11
0.0000000000000001
 21
1.0
 31
0.0
 73
     1
 44
1.0
1001
ACAD
1000
ACAD_MTEXT_DEFINED_HEIGHT_BEGIN
1070
    46
1040
2.003983091316968
1000
ACAD_MTEXT_DEFINED_HEIGHT_END
  0
ENDBLK
  5
2BF
330
2B8
100
AcDbEntity
  8
0
100
AcDbBlockEnd
  0
BLOCK
  5
306
330
2C7
100
AcDbEntity
  8
0
100
AcDbBlockBegin
  2
VITRIS_LOGO
 70
     0
 10
0.0
 20
0.0
 30
0.0
  3
VITRIS_LOGO
  1

  0
HATCH
  5
2C8
330
2C7
100
AcDbEntity
  8
Grau 251
 48
0.5
100
AcDbHatch
 10
0.0
 20
0.0
 30
0.0
210
0.0
220
0.0
230
1.0
  2
SOLID
 70
     1
 71
     1
 91
        6
 92
        7
 72
     0
 73
     1
 93
        8
 10
5.178271948848987
 20
-7.681328463799275
 10
4.0
 20
-7.681328463799275
 10
5.997379769024746
 20
-13.1690842772706
 10
6.489480359866774
 20
-13.1690842772706
 10
6.981580950708803
 20
-13.1690842772706
 10
8.978960719733777
 20
-7.681328463799275
 10
7.800688770884562
 20
-7.681328463799275
 10
6.489480359866774
 20
-11.4893541939773
 97
        8
330
2E0
330
2DE
330
2DF
330
2D9
330
2D8
330
2DA
330
2D7
330
2DD
 92
        7
 72
     0
 73
     1
 93
        4
 10
11.022756539905
 20
-7.681328463799275
 10
9.897987517096453
 20
-7.681328463799275
 10
9.897987517096453
 20
-13.1690842772706
 10
11.022756539905
 20
-13.1690842772706
 97
        4
330
2D6
330
2D4
330
2D5
330
2D3
 92
        7
 72
     1
 73
     1
 93
       16
 10
12.86996426021443
 20
-11.70908427727056
 42
0.4142135623730942
 10
14.32996426021441
 20
-13.16908427727054
 42
0.0
 10
15.03459375844227
 20
-13.1690842772706
 42
0.0
 10
15.03459375844227
 20
-12.21079311596634
 42
0.0
 10
14.49473328302292
 20
-12.21079311596634
 42
-0.4142135623730951
 10
13.99473328302292
 20
-11.71079311596634
 42
0.0
 10
13.99473328302292
 20
-8.652724581986035
 42
0.0
 10
15.03555106328804
 20
-8.652724581986035
 42
0.0
 10
15.03555106328804
 20
-7.783670997242211
 42
0.0
 10
13.99473328302292
 20
-7.783670997242211
 42
0.0
 10
13.99473328302292
 20
-6.135427242784544
 42
0.0
 10
12.86996426021437
 20
-6.135427242784544
 42
0.0
 10
12.86996426021437
 20
-7.783670997242211
 42
0.0
 10
12.23478818233138
 20
-7.783670997242211
 42
0.0
 10
12.23478818233138
 20
-8.652724581986035
 42
0.0
 10
12.86996426021437
 20
-8.652724581985978
 42
0.0
 97
       16
330
2CE
330
2CB
330
2D0
330
2E2
330
2D1
330
2E4
330
2CF
330
2CC
330
2CD
330
2E3
330
2E8
330
2E7
330
2E9
330
2E5
330
2E6
330
2E1
 92
        7
 72
     1
 73
     1
 93
        8
 10
17.5457260657775
 20
-9.572331109272397
 42
-0.7516554556419115
 10
19.41175852881747
 20
-9.032356057132915
 42
0.0
 10
20.29674785947623
 20
-8.126171955262634
 42
0.3920878150899548
 10
17.54572606577744
 20
-8.163812741683159
 42
0.0
 10
17.54572606577744
 20
-7.681328463799275
 42
0.0
 10
16.42095704296889
 20
-7.681328463799275
 42
0.0
 10
16.42095704296889
 20
-13.1690842772706
 42
0.0
 10
17.54572606577744
 20
-13.1690842772706
 42
0.0
 97
        8
330
2EF
330
2F0
330
2F1
330
2EB
330
2EE
330
2EC
330
2ED
330
2EA
 92
        7
 72
     0
 73
     1
 93
        4
 10
21.1684623837748
 20
-13.1690842772706
 10
22.29323140658335
 20
-13.1690842772706
 10
22.29323140658335
 20
-7.681328463799275
 10
21.1684623837748
 20
-7.681328463799275
 97
        4
330
2F5
330
2F3
330
2F4
330
2F2
 92
        7
 72
     1
 73
     1
 93
       14
 10
26.50611098800579
 20
-12.15492868787692
 42
-0.2549618572635659
 10
24.18544512002223
 20
-11.73570253672107
 42
0.0
 10
23.45748782899812
 20
-12.46365982774529
 42
0.1481291569927468
 10
24.74874592088452
 20
-13.11954358668498
 42
0.0826123271520964
 10
26.7430687779995
 20
-13.09627234849574
 42
0.8666932717969565
 10
26.50611098800601
 20
-9.877433515631594
 42
0.0
 10
25.96696473198904
 20
-9.866318717972035
 42
0.0
 10
25.426894165254
 20
-9.850519883754429
 42
-0.8948872064970556
 10
25.28676835829208
 20
-8.591369854538186
 42
-0.2128275058896034
 10
27.10716648584128
 20
-8.932374186352376
 42
0.0
 10
27.81244860584911
 20
-8.227092066344539
 42
0.2622440545622968
 10
24.67454517146956
 20
-7.87633906151575
 42
0.7387593489505403
 10
25.01816572885628
 20
-10.80866828972784
 42
0.038120040235929
 10
26.3066787333587
 20
-10.93465641327338
 42
-0.8753264103941235
 97
       14
330
300
330
2FF
330
2FB
330
301
330
2CA
330
2F7
330
2F6
330
2FA
330
2F8
330
2F9
330
2C9
330
2FE
330
2FD
330
2FC
 75
     1
 76
     1
 47
0.0722860083631955
 98
        6
 10
5.808390587933217
 20
-11.06114262727237
 10
10.50939107216186
 20
-11.06114262727237
 10
13.25766882108451
 20
-11.35028641170811
 10
17.23543824448234
 20
-11.42257276246982
 10
21.71946969269606
 20
-11.35028641170811
 10
27.21602377936984
 20
-12.0731466821029
450
        0
451
        0
460
0.0
461
0.0
452
        0
462
1.0
453
        2
463
0.0
 63
     5
421
      255
463
1.0
 63
     2
421
 16776960
470
LINEAR
1001
GRADIENTCOLOR1ACI
1070
     5
1001
GRADIENTCOLOR2ACI
1070
     2
1001
ACAD
1010
0.0
1020
0.0
1030
0.0
  0
LINE
  5
2C9
102
{ACAD_REACTORS
330
2C8
102
}
330
2C7
100
AcDbEntity
  8
Grau 251
 48
0.5
100
AcDbLine
 10
23.45748782899818
 20
-12.46365982774523
 30
0.0
 11
24.18544512002223
 21
-11.73570253672107
 31
0.0
  0
LINE
  5
2CA
102
{ACAD_REACTORS
330
2C8
102
}
330
2C7
100
AcDbEntity
  8
Grau 251
 48
0.5
100
AcDbLine
 10
27.10716648584139
 20
-8.932374186352262
 30
0.0
 11
27.81244860584911
 21
-8.227092066344539
 31
0.0
  0
LINE
  5
2CB
102
{ACAD_REACTORS
330
2C8
102
}
330
2C7
100
AcDbEntity
  8
Grau 251
 48
0.5
100
AcDbLine
 10
15.03555106328804
 20
-8.652724581986035
 30
0.0
 11
15.03555106328804
 21
-7.783670997242211
 31
0.0
  0
LINE
  5
2CC
102
{ACAD_REACTORS
330
2C8
102
}
330
2C7
100
AcDbEntity
  8
Grau 251
 48
0.5
100
AcDbLine
 10
12.23478818233138
 20
-8.652724581986035
 30
0.0
 11
12.23478818233138
 21
-7.783670997242211
 31
0.0
  0
LINE
  5
2CD
102
{ACAD_REACTORS
330
2C8
102
}
330
2C7
100
AcDbEntity
  8
Grau 251
 48
0.5
100
AcDbLine
 10
12.23478818233138
 20
-8.652724581986035
 30
0.0
 11
12.86996426021437
 21
-8.652724581985978
 31
0.0
  0
LINE
  5
2CE
102
{ACAD_REACTORS
330
2C8
102
}
330
2C7
100
AcDbEntity
  8
Grau 251
 48
0.5
100
AcDbLine
 10
13.99473328302292
 20
-8.652724581986035
 30
0.0
 11
15.03555106328804
 21
-8.652724581986035
 31
0.0
  0
LINE
  5
2CF
102
{ACAD_REACTORS
330
2C8
102
}
330
2C7
100
AcDbEntity
  8
Grau 251
 48
0.5
100
AcDbLine
 10
12.23478818233138
 20
-7.783670997242211
 30
0.0
 11
12.86996426021437
 21
-7.783670997242211
 31
0.0
  0
LINE
  5
2D0
102
{ACAD_REACTORS
330
2C8
102
}
330
2C7
100
AcDbEntity
  8
Grau 251
 48
0.5
100
AcDbLine
 10
13.99473328302292
 20
-7.783670997242211
 30
0.0
 11
15.03555106328804
 21
-7.783670997242211
 31
0.0
  0
LINE
  5
2D1
102
{ACAD_REACTORS
330
2C8
102
}
330
2C7
100
AcDbEntity
  8
Grau 251
 48
0.5
100
AcDbLine
 10
12.86996426021437
 20
-6.135427242784544
 30
0.0
 11
13.99473328302292
 21
-6.135427242784544
 31
0.0
  0
LINE
  5
2D2
330
2C7
100
AcDbEntity
  8
Grau 251
 48
0.5
100
AcDbLine
 10
14.32996426021441
 20
-13.1690842772706
 30
0.0
 11
15.03459375844227
 21
-13.1690842772706
 31
0.0
  0
LINE
  5
2D3
102
{ACAD_REACTORS
330
2C8
102
}
330
2C7
100
AcDbEntity
  8
Grau 251
 48
0.5
100
AcDbLine
 10
11.022756539905
 20
-13.1690842772706
 30
0.0
 11
11.022756539905
 21
-7.681328463799275
 31
0.0
  0
LINE
  5
2D4
102
{ACAD_REACTORS
330
2C8
102
}
330
2C7
100
AcDbEntity
  8
Grau 251
 48
0.5
100
AcDbLine
 10
9.897987517096453
 20
-13.1690842772706
 30
0.0
 11
9.897987517096453
 21
-7.681328463799275
 31
0.0
  0
LINE
  5
2D5
102
{ACAD_REACTORS
330
2C8
102
}
330
2C7
100
AcDbEntity
  8
Grau 251
 48
0.5
100
AcDbLine
 10
9.897987517096453
 20
-13.1690842772706
 30
0.0
 11
11.022756539905
 21
-13.1690842772706
 31
0.0
  0
LINE
  5
2D6
102
{ACAD_REACTORS
330
2C8
102
}
330
2C7
100
AcDbEntity
  8
Grau 251
 48
0.5
100
AcDbLine
 10
9.897987517096453
 20
-7.681328463799275
 30
0.0
 11
11.022756539905
 21
-7.681328463799275
 31
0.0
  0
LINE
  5
2D7
102
{ACAD_REACTORS
330
2C8
102
}
330
2C7
100
AcDbEntity
  8
Grau 251
 48
0.5
100
AcDbLine
 10
7.800688770884562
 20
-7.681328463799275
 30
0.0
 11
6.489480359866774
 21
-11.4893541939773
 31
0.0
  0
LINE
  5
2D8
102
{ACAD_REACTORS
330
2C8
102
}
330
2C7
100
AcDbEntity
  8
Grau 251
 48
0.5
100
AcDbLine
 10
6.981580950708803
 20
-13.1690842772706
 30
0.0
 11
8.978960719733777
 21
-7.681328463799275
 31
0.0
  0
LINE
  5
2D9
102
{ACAD_REACTORS
330
2C8
102
}
330
2C7
100
AcDbEntity
  8
Grau 251
 48
0.5
100
AcDbLine
 10
6.981580950708803
 20
-13.1690842772706
 30
0.0
 11
6.489480359866774
 21
-13.1690842772706
 31
0.0
  0
LINE
  5
2DA
102
{ACAD_REACTORS
330
2C8
102
}
330
2C7
100
AcDbEntity
  8
Grau 251
 48
0.5
100
AcDbLine
 10
7.800688770884562
 20
-7.681328463799275
 30
0.0
 11
8.978960719733777
 21
-7.681328463799275
 31
0.0
  0
LINE
  5
2DB
330
2C7
100
AcDbEntity
  8
AM_4
100
AcDbLine
 10
1.792528683132786
 20
0.0
 30
0.0
 11
0.0
 21
0.0
 31
0.0
  0
LINE
  5
2DC
330
2C7
100
AcDbEntity
  8
AM_4
100
AcDbLine
 10
0.0
 20
0.0
 30
0.0
 11
0.0
 21
-1.792528683132672
 31
0.0
  0
LINE
  5
2DD
102
{ACAD_REACTORS
330
2C8
102
}
330
2C7
100
AcDbEntity
  8
Grau 251
 48
0.5
100
AcDbLine
 10
5.178271948848987
 20
-7.681328463799275
 30
0.0
 11
6.489480359866774
 21
-11.4893541939773
 31
0.0
  0
LINE
  5
2DE
102
{ACAD_REACTORS
330
2C8
102
}
330
2C7
100
AcDbEntity
  8
Grau 251
 48
0.5
100
AcDbLine
 10
5.997379769024746
 20
-13.1690842772706
 30
0.0
 11
4.0
 21
-7.681328463799275
 31
0.0
  0
LINE
  5
2DF
102
{ACAD_REACTORS
330
2C8
102
}
330
2C7
100
AcDbEntity
  8
Grau 251
 48
0.5
100
AcDbLine
 10
5.997379769024746
 20
-13.1690842772706
 30
0.0
 11
6.489480359866774
 21
-13.1690842772706
 31
0.0
  0
LINE
  5
2E0
102
{ACAD_REACTORS
330
2C8
102
}
330
2C7
100
AcDbEntity
  8
Grau 251
 48
0.5
100
AcDbLine
 10
5.178271948848987
 20
-7.681328463799275
 30
0.0
 11
4.0
 21
-7.681328463799275
 31
0.0
  0
LINE
  5
2E1
102
{ACAD_REACTORS
330
2C8
102
}
330
2C7
100
AcDbEntity
  8
Grau 251
 48
0.5
100
AcDbLine
 10
13.99473328302292
 20
-11.71079311596634
 30
0.0
 11
13.99473328302292
 21
-8.652724581986035
 31
0.0
  0
LINE
  5
2E2
102
{ACAD_REACTORS
330
2C8
102
}
330
2C7
100
AcDbEntity
  8
Grau 251
 48
0.5
100
AcDbLine
 10
13.99473328302292
 20
-7.783670997242211
 30
0.0
 11
13.99473328302292
 21
-6.135427242784544
 31
0.0
  0
LINE
  5
2E3
102
{ACAD_REACTORS
330
2C8
102
}
330
2C7
100
AcDbEntity
  8
Grau 251
 48
0.5
100
AcDbLine
 10
12.86996426021437
 20
-11.70908427727056
 30
0.0
 11
12.86996426021437
 21
-8.652724581986035
 31
0.0
  0
LINE
  5
2E4
102
{ACAD_REACTORS
330
2C8
102
}
330
2C7
100
AcDbEntity
  8
Grau 251
 48
0.5
100
AcDbLine
 10
12.86996426021437
 20
-7.783670997242211
 30
0.0
 11
12.86996426021437
 21
-6.135427242784544
 31
0.0
  0
LINE
  5
2E5
102
{ACAD_REACTORS
330
2C8
102
}
330
2C7
100
AcDbEntity
  8
Grau 251
 48
0.5
100
AcDbLine
 10
15.03459375844227
 20
-12.21079311596634
 30
0.0
 11
14.49473328302292
 21
-12.21079311596634
 31
0.0
  0
ARC
  5
2E6
102
{ACAD_REACTORS
330
2C8
102
}
330
2C7
100
AcDbEntity
  8
Grau 251
 48
0.5
100
AcDbCircle
 10
14.49473328302292
 20
-11.71079311596634
 30
0.0
 40
0.5
100
AcDbArc
 50
180.0
 51
270.0
1001
GENIUS_GENODEF_13
1002
{
1000
HIER
1070
     0
1002
}
1002
{
1000
MANEDIT
1070
     0
1002
}
1002
{
1000
NOSEL
1070
     0
1002
}
1002
{
1000
BEHIND
1070
     0
1002
}
1002
{
1000
OTHER
1070
     0
1002
}
1002
{
1000
REACTOR
1002
}
1001
GENIUS_GENOBJ-N-FIL_13
1002
{
1000
OWNER
1000
GEN
1002
}
  0
LINE
  5
2E7
102
{ACAD_REACTORS
330
2C8
102
}
330
2C7
100
AcDbEntity
  8
Grau 251
 48
0.5
100
AcDbLine
 10
15.03459375844227
 20
-13.1690842772706
 30
0.0
 11
14.32996426021441
 21
-13.1690842772706
 31
0.0
  0
ARC
  5
2E8
102
{ACAD_REACTORS
330
2C8
102
}
330
2C7
100
AcDbEntity
  8
Grau 251
 48
0.5
100
AcDbCircle
 10
14.32996426021441
 20
-11.70908427727056
 30
0.0
 40
1.459999999999999
100
AcDbArc
 50
180.0
 51
270.0
1001
GENIUS_GENOBJ-N-FIL_13
1002
{
1000
OWNER
1000
GEN
1002
}
1001
GENIUS_GENODEF_13
1002
{
1000
HIER
1070
     0
1002
}
1002
{
1000
MANEDIT
1070
     0
1002
}
1002
{
1000
NOSEL
1070
     0
1002
}
1002
{
1000
BEHIND
1070
     0
1002
}
1002
{
1000
OTHER
1070
     0
1002
}
1002
{
1000
REACTOR
1002
}
  0
LINE
  5
2E9
102
{ACAD_REACTORS
330
2C8
102
}
330
2C7
100
AcDbEntity
  8
Grau 251
 48
0.5
100
AcDbLine
 10
15.03459375844227
 20
-13.1690842772706
 30
0.0
 11
15.03459375844227
 21
-12.21079311596634
 31
0.0
  0
LINE
  5
2EA
102
{ACAD_REACTORS
330
2C8
102
}
330
2C7
100
AcDbEntity
  8
Grau 251
 48
0.5
100
AcDbLine
 10
17.54572606577744
 20
-13.1690842772706
 30
0.0
 11
17.54572606577744
 21
-9.572331109272397
 31
0.0
  0
LINE
  5
2EB
102
{ACAD_REACTORS
330
2C8
102
}
330
2C7
100
AcDbEntity
  8
Grau 251
 48
0.5
100
AcDbLine
 10
17.54572606577744
 20
-8.163812741683159
 30
0.0
 11
17.54572606577744
 21
-7.681328463799275
 31
0.0
  0
LINE
  5
2EC
102
{ACAD_REACTORS
330
2C8
102
}
330
2C7
100
AcDbEntity
  8
Grau 251
 48
0.5
100
AcDbLine
 10
16.42095704296889
 20
-13.1690842772706
 30
0.0
 11
16.42095704296889
 21
-7.681328463799275
 31
0.0
  0
LINE
  5
2ED
102
{ACAD_REACTORS
330
2C8
102
}
330
2C7
100
AcDbEntity
  8
Grau 251
 48
0.5
100
AcDbLine
 10
16.42095704296889
 20
-13.1690842772706
 30
0.0
 11
17.54572606577744
 21
-13.1690842772706
 31
0.0
  0
LINE
  5
2EE
102
{ACAD_REACTORS
330
2C8
102
}
330
2C7
100
AcDbEntity
  8
Grau 251
 48
0.5
100
AcDbLine
 10
16.42095704296889
 20
-7.681328463799275
 30
0.0
 11
17.54572606577744
 21
-7.681328463799275
 31
0.0
  0
ARC
  5
2EF
102
{ACAD_REACTORS
330
2C8
102
}
330
2C7
100
AcDbEntity
  8
Grau 251
 48
0.5
100
AcDbCircle
 10
18.55686876688151
 20
-9.572331109272397
 30
0.0
 40
1.011142701104009
100
AcDbArc
 50
32.27778471052481
 51
180.0
  0
LINE
  5
2F0
102
{ACAD_REACTORS
330
2C8
102
}
330
2C7
100
AcDbEntity
  8
Grau 251
 48
0.5
100
AcDbLine
 10
19.41175852881747
 20
-9.032356057132915
 30
0.0
 11
20.29674785947623
 21
-8.126171955262634
 31
0.0
  0
ARC
  5
2F1
102
{ACAD_REACTORS
330
2C8
102
}
330
2C7
100
AcDbEntity
  8
Grau 251
 48
0.5
100
AcDbCircle
 10
18.94154756629996
 20
-9.629417055321937
 30
0.0
 40
2.023935193003335
100
AcDbArc
 50
47.96481801567417
 51
133.6029802742195
  0
LINE
  5
2F2
102
{ACAD_REACTORS
330
2C8
102
}
330
2C7
100
AcDbEntity
  8
Grau 251
 48
0.5
100
AcDbLine
 10
22.29323140658335
 20
-13.1690842772706
 30
0.0
 11
22.29323140658335
 21
-7.681328463799275
 31
0.0
  0
LINE
  5
2F3
102
{ACAD_REACTORS
330
2C8
102
}
330
2C7
100
AcDbEntity
  8
Grau 251
 48
0.5
100
AcDbLine
 10
21.1684623837748
 20
-13.1690842772706
 30
0.0
 11
21.1684623837748
 21
-7.681328463799275
 31
0.0
  0
LINE
  5
2F4
102
{ACAD_REACTORS
330
2C8
102
}
330
2C7
100
AcDbEntity
  8
Grau 251
 48
0.5
100
AcDbLine
 10
21.1684623837748
 20
-13.1690842772706
 30
0.0
 11
22.29323140658335
 21
-13.1690842772706
 31
0.0
  0
LINE
  5
2F5
102
{ACAD_REACTORS
330
2C8
102
}
330
2C7
100
AcDbEntity
  8
Grau 251
 48
0.5
100
AcDbLine
 10
21.1684623837748
 20
-7.681328463799275
 30
0.0
 11
22.29323140658335
 21
-7.681328463799275
 31
0.0
  0
ARC
  5
2F6
102
{ACAD_REACTORS
330
2C8
102
}
330
2C7
100
AcDbEntity
  8
Grau 251
 48
0.5
100
AcDbCircle
 10
25.29709948044319
 20
-9.28968391942476
 30
0.0
 40
1.544382580515434
100
AcDbArc
 50
110.8436197466423
 51
259.5946012798667
  0
ARC
  5
2F7
102
{ACAD_REACTORS
330
2C8
102
}
330
2C7
100
AcDbEntity
  8
Grau 251
 48
0.5
100
AcDbCircle
 10
25.93211610319759
 20
-10.83738759709518
 30
0.0
 40
3.217031718585394
100
AcDbArc
 50
54.23281952936251
 51
113.0111546748605
  0
ARC
  5
2F8
102
{ACAD_REACTORS
330
2C8
102
}
330
2C7
100
AcDbEntity
  8
Grau 251
 48
0.5
100
AcDbCircle
 10
26.32490978858778
 20
-11.55810986670701
 30
0.0
 40
0.6237199531625519
100
AcDbArc
 50
286.8889057677923
 51
91.67496856974723
  0
ARC
  5
2F9
102
{ACAD_REACTORS
330
2C8
102
}
330
2C7
100
AcDbEntity
  8
Grau 251
 48
0.5
100
AcDbCircle
 10
25.73012390224653
 20
-9.817732948299408
 30
0.0
 40
2.462648956380975
100
AcDbArc
 50
231.1530083287526
 51
288.3670076909855
  0
ARC
  5
2FA
102
{ACAD_REACTORS
330
2C8
102
}
330
2C7
100
AcDbEntity
  8
Grau 251
 48
0.5
100
AcDbCircle
 10
26.48748068267333
 20
-2.433576963769496
 30
0.0
 40
8.503001890606237
100
AcDbArc
 50
260.0493687584126
 51
269.1769392379514
  0
ARC
  5
2FB
102
{ACAD_REACTORS
330
2C8
102
}
330
2C7
100
AcDbEntity
  8
Grau 251
 48
0.5
100
AcDbCircle
 10
25.426894165254
 20
-9.213147846821243
 30
0.0
 40
0.6373720369331715
100
AcDbArc
 50
102.7001828111662
 51
270.0
  0
ARC
  5
2FC
102
{ACAD_REACTORS
330
2C8
102
}
330
2C7
100
AcDbEntity
  8
Grau 251
 48
0.5
100
AcDbCircle
 10
26.3935436738484
 20
-11.50386161188589
 30
0.0
 40
1.630318911287659
100
AcDbArc
 50
276.1870898999634
 51
91.59717189001449
  0
ARC
  5
2FD
102
{ACAD_REACTORS
330
2C8
102
}
330
2C7
100
AcDbEntity
  8
Grau 251
 48
0.5
100
AcDbCircle
 10
25.67596495246949
 20
-7.113911437209537
 30
0.0
 40
6.076788020603169
100
AcDbArc
 50
261.2233122288885
 51
280.1137663856604
  0
ARC
  5
2FE
102
{ACAD_REACTORS
330
2C8
102
}
330
2C7
100
AcDbEntity
  8
Grau 251
 48
0.5
100
AcDbCircle
 10
25.18577374078359
 20
-10.6601425580892
 30
0.0
 40
2.497928488732944
100
AcDbArc
 50
226.2202796454877
 51
259.9238967429307
  0
LINE
  5
2FF
102
{ACAD_REACTORS
330
2C8
102
}
330
2C7
100
AcDbEntity
  8
Grau 251
 48
0.5
100
AcDbLine
 10
25.426894165254
 20
-9.850519883754429
 30
0.0
 11
25.96696473198904
 21
-9.866318717972035
 31
0.0
  0
LINE
  5
300
102
{ACAD_REACTORS
330
2C8
102
}
330
2C7
100
AcDbEntity
  8
Grau 251
 48
0.5
100
AcDbLine
 10
25.96696473198904
 20
-9.866318717972035
 30
0.0
 11
26.50611098800709
 21
-9.877433515631594
 31
0.0
  0
ARC
  5
301
102
{ACAD_REACTORS
330
2C8
102
}
330
2C7
100
AcDbEntity
  8
Grau 251
 48
0.5
100
AcDbCircle
 10
25.81454698183188
 20
-10.80336354530777
 30
0.0
 40
2.274085830277736
100
AcDbArc
 50
55.36038022902644
 51
103.9802124841875
  0
HATCH
  5
302
330
2C7
100
AcDbEntity
  8
grün94
 48
0.5
100
AcDbHatch
 10
0.0
 20
0.0
 30
0.0
210
0.0
220
0.0
230
1.0
  2
SOLID
 70
     1
 71
     1
 91
        1
 92
        7
 72
     1
 73
     1
 93
        2
 10
11.96037202850061
 20
-5.5
 42
1.0
 10
8.960372028500614
 20
-5.5
 42
1.0
 97
        1
330
303
 75
     1
 76
     1
 47
0.0435811085111346
 98
        1
 10
11.26781534012093
 20
-5.854385568905058
450
        0
451
        0
460
0.0
461
0.0
452
        0
462
1.0
453
        2
463
0.0
 63
     5
421
      255
463
1.0
 63
     2
421
 16776960
470
LINEAR
1001
GRADIENTCOLOR1ACI
1070
     5
1001
GRADIENTCOLOR2ACI
1070
     2
1001
ACAD
1010
0.0
1020
0.0
1030
0.0
  0
CIRCLE
  5
303
102
{ACAD_REACTORS
330
302
102
}
330
2C7
100
AcDbEntity
  8
grün94
 48
0.5
100
AcDbCircle
 10
10.46037202850061
 20
-5.5
 30
0.0
 40
1.5
  0
ENDBLK
  5
307
330
2C7
100
AcDbEntity
  8
0
100
AcDbBlockEnd
  0
ENDSEC
  0
SECTION
  2
ENTITIES
  0
LINE
  5
57
330
2
100
AcDbEntity
  8
AM_4
100
AcDbLine
 10
225.908583376935
 20
107.5000000000059
 30
0.0
 11
218.908583376935
 21
107.5000000000059
 31
0.0
  0
LINE
  5
59
330
2
100
AcDbEntity
  8
AM_4
100
AcDbLine
 10
225.908583376935
 20
107.5000000000059
 30
0.0
 11
225.908583376935
 21
189.5000000000059
 31
0.0
  0
LINE
  5
5A
330
2
100
AcDbEntity
  8
AM_4
100
AcDbLine
 10
218.908583376935
 20
189.5000000000059
 30
0.0
 11
225.908583376935
 21
189.5000000000059
 31
0.0
  0
LINE
  5
61
330
2
100
AcDbEntity
  8
AM_CL
100
AcDbLine
 10
326.7811250264267
 20
84.28754478122689
 30
0.0
 11
326.1631758339955
 21
84.28754478122689
 31
0.0
  0
ARC
  5
65
330
2
100
AcDbEntity
  8
AM_CL
100
AcDbCircle
 10
328.5131758339955
 20
85.2875447812269
 30
0.0
 40
1.0
100
AcDbArc
 50
142.414158679235
 51
270.0
1001
GENIUS_GENOBJ-N-FIL_13
1002
{
1000
OWNER
1000
GEN
1002
}
1001
GENIUS_GENODEF_13
1002
{
1000
HIER
1070
     0
1002
}
1002
{
1000
MANEDIT
1070
     0
1002
}
1002
{
1000
NOSEL
1070
     0
1002
}
1002
{
1000
BEHIND
1070
     0
1002
}
1002
{
1000
OTHER
1070
     0
1002
}
1002
{
1000
REACTOR
1002
}
  0
ARC
  5
68
330
2
100
AcDbEntity
  8
AM_CL
100
AcDbCircle
 10
328.5131758339955
 20
85.2875447812269
 30
0.0
 40
2.0
100
AcDbArc
 50
142.414158679235
 51
209.9999999999998
1001
GENIUS_GENOBJ-N-FIL_13
1002
{
1000
OWNER
1000
GEN
1002
}
1001
GENIUS_GENODEF_13
1002
{
1000
HIER
1070
     0
1002
}
1002
{
1000
MANEDIT
1070
     0
1002
}
1002
{
1000
NOSEL
1070
     0
1002
}
1002
{
1000
BEHIND
1070
     0
1002
}
1002
{
1000
OTHER
1070
     0
1002
}
1002
{
1000
REACTOR
1002
}
  0
LINE
  5
69
330
2
100
AcDbEntity
  8
AM_CL
100
AcDbLine
 10
330.6631758339955
 20
81.78754478122687
 30
0.0
 11
330.6631758339955
 21
82.28754478122686
 31
0.0
  0
ARC
  5
6A
330
2
100
AcDbEntity
  8
AM_CL
100
AcDbCircle
 10
331.1631758339955
 20
82.28754478122686
 30
0.0
 40
0.5
100
AcDbArc
 50
90.0
 51
180.0
1001
GENIUS_GENOBJ-N-FIL_13
1002
{
1000
OWNER
1000
GEN
1002
}
1001
GENIUS_GENODEF_13
1002
{
1000
HIER
1070
     0
1002
}
1002
{
1000
MANEDIT
1070
     0
1002
}
1002
{
1000
NOSEL
1070
     0
1002
}
1002
{
1000
BEHIND
1070
     0
1002
}
1002
{
1000
OTHER
1070
     0
1002
}
1002
{
1000
REACTOR
1002
}
  0
LINE
  5
6B
330
2
100
AcDbEntity
  8
AM_CL
100
AcDbLine
 10
330.1272774491333
 20
79.78754478122687
 30
0.0
 11
329.3631758339955
 21
79.78754478122687
 31
0.0
  0
LINE
  5
6C
330
2
100
AcDbEntity
  8
AM_CL
100
AcDbLine
 10
329.3631758339955
 20
79.78754478122687
 30
0.0
 11
329.3631758339955
 21
83.08754478122686
 31
0.0
  0
LINE
  5
6D
330
2
100
AcDbEntity
  8
AM_CL
100
AcDbLine
 10
330.6631758339955
 20
81.78754478122689
 30
0.0
 11
330.1272774491333
 21
79.78754478122687
 31
0.0
  0
ARC
  5
6E
330
2
100
AcDbEntity
  8
AM_CL
100
AcDbCircle
 10
337.6631758339955
 20
82.28754478122686
 30
0.0
 40
0.5
100
AcDbArc
 50
0.0
 51
90.0
1001
GENIUS_GENODEF_13
1002
{
1000
HIER
1070
     0
1002
}
1002
{
1000
MANEDIT
1070
     0
1002
}
1002
{
1000
NOSEL
1070
     0
1002
}
1002
{
1000
BEHIND
1070
     0
1002
}
1002
{
1000
OTHER
1070
     0
1002
}
1002
{
1000
REACTOR
1002
}
1001
GENIUS_GENOBJ-N-FIL_13
1002
{
1000
OWNER
1000
GEN
1002
}
  0
LINE
  5
6F
330
2
100
AcDbEntity
  8
AM_CL
100
AcDbLine
 10
338.1631758339955
 20
79.78754478122687
 30
0.0
 11
338.1631758339955
 21
82.28754478122686
 31
0.0
  0
LINE
  5
70
330
2
100
AcDbEntity
  8
AM_CL
100
AcDbLine
 10
339.1631758339955
 20
80.93754478122688
 30
0.0
 11
340.1631758339955
 21
80.66959558879577
 31
0.0
  0
LINE
  5
71
330
2
100
AcDbEntity
  8
AM_CL
100
AcDbLine
 10
339.1631758339955
 20
84.28754478122689
 30
0.0
 11
339.1631758339955
 21
80.93754478122688
 31
0.0
  0
ARC
  5
72
330
2
100
AcDbEntity
  8
AM_CL
100
AcDbCircle
 10
339.3652484282119
 20
80.2875447812269
 30
0.0
 40
0.5
100
AcDbArc
 50
270.0
 51
329.9999999999999
1001
GENIUS_GENOBJ-N-FIL_13
1002
{
1000
OWNER
1000
GEN
1002
}
1001
GENIUS_GENODEF_13
1002
{
1000
HIER
1070
     0
1002
}
1002
{
1000
MANEDIT
1070
     0
1002
}
1002
{
1000
NOSEL
1070
     0
1002
}
1002
{
1000
BEHIND
1070
     0
1002
}
1002
{
1000
OTHER
1070
     0
1002
}
1002
{
1000
REACTOR
1002
}
  0
LINE
  5
73
330
2
100
AcDbEntity
  8
AM_CL
100
AcDbLine
 10
340.1631758339955
 20
80.66959558879577
 30
0.0
 11
339.7982611301042
 21
80.03754478122687
 31
0.0
  0
LINE
  5
74
330
2
100
AcDbEntity
  8
AM_CL
100
AcDbLine
 10
339.3652484282119
 20
79.78754478122687
 30
0.0
 11
338.1631758339955
 21
79.78754478122687
 31
0.0
  0
ARC
  5
75
330
2
100
AcDbEntity
  8
AM_CL
100
AcDbCircle
 10
335.1631758339958
 20
90.28690813087541
 30
0.0
 40
0.5005287694059355
100
AcDbArc
 50
269.999999999987
 51
90.00000000000813
  0
LINE
  5
76
330
2
100
AcDbEntity
  8
AM_CL
100
AcDbLine
 10
337.6631758339955
 20
82.78754478122687
 30
0.0
 11
331.1631758339955
 21
82.78754478122687
 31
0.0
  0
ARC
  5
77
330
2
100
AcDbEntity
  8
AM_CL
100
AcDbCircle
 10
335.6451393937911
 20
79.79800055772813
 30
0.0
 40
10.0
100
AcDbArc
 50
92.76251799392758
 51
142.414158679235
  0
ARC
  5
78
330
2
100
AcDbEntity
  8
AM_CL
100
AcDbCircle
 10
335.6451393937911
 20
79.79800055772813
 30
0.0
 40
11.0
100
AcDbArc
 50
92.51121099507788
 51
142.414158679235
  0
LINE
  5
79
330
2
100
AcDbEntity
  8
AM_CL
100
AcDbLine
 10
339.1631758339955
 20
84.28754478122689
 30
0.0
 11
328.5131758339955
 21
84.28754478122689
 31
0.0
  0
ARC
  5
7A
330
2
100
AcDbEntity
  8
AM_CL
100
AcDbCircle
 10
328.8631758339955
 20
83.08754478122686
 30
0.0
 40
0.5
100
AcDbArc
 50
0.0
 51
90.0
1001
GENIUS_GENODEF_13
1002
{
1000
HIER
1070
     0
1002
}
1002
{
1000
MANEDIT
1070
     0
1002
}
1002
{
1000
NOSEL
1070
     0
1002
}
1002
{
1000
BEHIND
1070
     0
1002
}
1002
{
1000
OTHER
1070
     0
1002
}
1002
{
1000
REACTOR
1002
}
1001
GENIUS_GENOBJ-N-FIL_13
1002
{
1000
OWNER
1000
GEN
1002
}
  0
ARC
  5
7B
330
2
100
AcDbEntity
  8
AM_CL
100
AcDbCircle
 10
317.1631758339952
 20
90.28690813087541
 30
0.0
 40
0.5005287694059355
100
AcDbArc
 50
89.99999999999024
 51
270.0000000000114
  0
ARC
  5
7C
330
2
100
AcDbEntity
  8
AM_CL
100
AcDbCircle
 10
323.8131758339955
 20
85.2875447812269
 30
0.0
 40
2.0
100
AcDbArc
 50
330.0000000000002
 51
37.58584132076496
1001
GENIUS_GENOBJ-N-FIL_13
1002
{
1000
OWNER
1000
GEN
1002
}
1001
GENIUS_GENODEF_13
1002
{
1000
HIER
1070
     0
1002
}
1002
{
1000
MANEDIT
1070
     0
1002
}
1002
{
1000
NOSEL
1070
     0
1002
}
1002
{
1000
BEHIND
1070
     0
1002
}
1002
{
1000
OTHER
1070
     0
1002
}
1002
{
1000
REACTOR
1002
}
  0
LINE
  5
7D
330
2
100
AcDbEntity
  8
AM_CL
100
AcDbLine
 10
325.5452266415644
 20
84.28754478122689
 30
0.0
 11
326.1631758339955
 21
84.28754478122689
 31
0.0
  0
ARC
  5
7E
330
2
100
AcDbEntity
  8
AM_CL
100
AcDbCircle
 10
323.8131758339955
 20
85.2875447812269
 30
0.0
 40
1.0
100
AcDbArc
 50
270.0
 51
37.58584132076496
1001
GENIUS_GENOBJ-N-FIL_13
1002
{
1000
OWNER
1000
GEN
1002
}
1001
GENIUS_GENODEF_13
1002
{
1000
HIER
1070
     0
1002
}
1002
{
1000
MANEDIT
1070
     0
1002
}
1002
{
1000
NOSEL
1070
     0
1002
}
1002
{
1000
BEHIND
1070
     0
1002
}
1002
{
1000
OTHER
1070
     0
1002
}
1002
{
1000
REACTOR
1002
}
  0
ARC
  5
7F
330
2
100
AcDbEntity
  8
AM_CL
100
AcDbCircle
 10
316.6812122742
 20
79.79800055772813
 30
0.0
 40
11.0
100
AcDbArc
 50
37.58584132076496
 51
87.48878900492208
  0
ARC
  5
80
330
2
100
AcDbEntity
  8
AM_CL
100
AcDbCircle
 10
316.6812122742
 20
79.79800055772813
 30
0.0
 40
10.0
100
AcDbArc
 50
37.58584132076496
 51
87.23748200607245
  0
ARC
  5
81
330
2
100
AcDbEntity
  8
AM_CL
100
AcDbCircle
 10
321.1631758339955
 20
82.28754478122686
 30
0.0
 40
0.5
100
AcDbArc
 50
0.0
 51
90.0
1001
GENIUS_GENOBJ-N-FIL_13
1002
{
1000
OWNER
1000
GEN
1002
}
1001
GENIUS_GENODEF_13
1002
{
1000
HIER
1070
     0
1002
}
1002
{
1000
MANEDIT
1070
     0
1002
}
1002
{
1000
NOSEL
1070
     0
1002
}
1002
{
1000
BEHIND
1070
     0
1002
}
1002
{
1000
OTHER
1070
     0
1002
}
1002
{
1000
REACTOR
1002
}
  0
ARC
  5
82
330
2
100
AcDbEntity
  8
AM_CL
100
AcDbCircle
 10
323.4631758339955
 20
83.08754478122686
 30
0.0
 40
0.5
100
AcDbArc
 50
90.0
 51
180.0
1001
GENIUS_GENODEF_13
1002
{
1000
HIER
1070
     0
1002
}
1002
{
1000
MANEDIT
1070
     0
1002
}
1002
{
1000
NOSEL
1070
     0
1002
}
1002
{
1000
BEHIND
1070
     0
1002
}
1002
{
1000
OTHER
1070
     0
1002
}
1002
{
1000
REACTOR
1002
}
1001
GENIUS_GENOBJ-N-FIL_13
1002
{
1000
OWNER
1000
GEN
1002
}
  0
LINE
  5
83
330
2
100
AcDbEntity
  8
AM_CL
100
AcDbLine
 10
323.4631758339955
 20
83.58754478122689
 30
0.0
 11
328.8631758339955
 21
83.58754478122689
 31
0.0
  0
LINE
  5
84
330
2
100
AcDbEntity
  8
AM_CL
100
AcDbLine
 10
321.6631758339955
 20
81.78754478122689
 30
0.0
 11
322.1990742188577
 21
79.78754478122687
 31
0.0
  0
LINE
  5
85
330
2
100
AcDbEntity
  8
AM_CL
100
AcDbLine
 10
322.1990742188577
 20
79.78754478122687
 30
0.0
 11
322.9631758339956
 21
79.78754478122687
 31
0.0
  0
LINE
  5
86
330
2
100
AcDbEntity
  8
AM_CL
100
AcDbLine
 10
322.9631758339956
 20
79.78754478122687
 30
0.0
 11
322.9631758339956
 21
83.08754478122686
 31
0.0
  0
LINE
  5
87
330
2
100
AcDbEntity
  8
AM_CL
100
AcDbLine
 10
321.6631758339955
 20
81.78754478122687
 30
0.0
 11
321.6631758339955
 21
82.28754478122686
 31
0.0
  0
ARC
  5
88
330
2
100
AcDbEntity
  8
AM_CL
100
AcDbCircle
 10
312.9611032397792
 20
80.2875447812269
 30
0.0
 40
0.5
100
AcDbArc
 50
210.0
 51
269.9999999999984
1001
GENIUS_GENOBJ-N-FIL_13
1002
{
1000
OWNER
1000
GEN
1002
}
1001
GENIUS_GENODEF_13
1002
{
1000
HIER
1070
     0
1002
}
1002
{
1000
MANEDIT
1070
     0
1002
}
1002
{
1000
NOSEL
1070
     0
1002
}
1002
{
1000
BEHIND
1070
     0
1002
}
1002
{
1000
OTHER
1070
     0
1002
}
1002
{
1000
REACTOR
1002
}
  0
LINE
  5
89
330
2
100
AcDbEntity
  8
AM_CL
100
AcDbLine
 10
312.1631758339955
 20
80.66959558879577
 30
0.0
 11
312.5280905378869
 21
80.03754478122687
 31
0.0
  0
LINE
  5
8A
330
2
100
AcDbEntity
  8
AM_CL
100
AcDbLine
 10
313.1631758339955
 20
80.93754478122688
 30
0.0
 11
312.1631758339955
 21
80.66959558879577
 31
0.0
  0
ARC
  5
8B
330
2
100
AcDbEntity
  8
AM_CL
100
AcDbCircle
 10
314.6631758339955
 20
82.28754478122686
 30
0.0
 40
0.5
100
AcDbArc
 50
90.0
 51
180.0
1001
GENIUS_GENODEF_13
1002
{
1000
HIER
1070
     0
1002
}
1002
{
1000
MANEDIT
1070
     0
1002
}
1002
{
1000
NOSEL
1070
     0
1002
}
1002
{
1000
BEHIND
1070
     0
1002
}
1002
{
1000
OTHER
1070
     0
1002
}
1002
{
1000
REACTOR
1002
}
1001
GENIUS_GENOBJ-N-FIL_13
1002
{
1000
OWNER
1000
GEN
1002
}
  0
LINE
  5
8C
330
2
100
AcDbEntity
  8
AM_CL
100
AcDbLine
 10
314.6631758339955
 20
82.78754478122687
 30
0.0
 11
321.1631758339955
 21
82.78754478122687
 31
0.0
  0
LINE
  5
8D
330
2
100
AcDbEntity
  8
AM_CL
100
AcDbLine
 10
314.1631758339955
 20
79.78754478122687
 30
0.0
 11
314.1631758339955
 21
82.28754478122686
 31
0.0
  0
LINE
  5
8E
330
2
100
AcDbEntity
  8
AM_CL
100
AcDbLine
 10
313.1631758339955
 20
84.28754478122689
 30
0.0
 11
313.1631758339955
 21
80.93754478122688
 31
0.0
  0
LINE
  5
8F
330
2
100
AcDbEntity
  8
AM_CL
100
AcDbLine
 10
313.1631758339955
 20
84.28754478122689
 30
0.0
 11
323.8131758339955
 21
84.28754478122689
 31
0.0
  0
LINE
  5
90
330
2
100
AcDbEntity
  8
AM_CL
100
AcDbLine
 10
312.9611032397792
 20
79.78754478122687
 30
0.0
 11
314.1631758339955
 21
79.78754478122687
 31
0.0
  0
ARC
  5
91
330
2
100
AcDbEntity
  8
AM_CL
100
AcDbCircle
 10
339.3631758339955
 20
116.8736308719627
 30
0.0
 40
0.2
100
AcDbArc
 50
90.00000000000161
 51
180.0
  0
ARC
  5
92
330
2
100
AcDbEntity
  8
AM_CL
100
AcDbCircle
 10
339.7131758339956
 20
117.2736308719627
 30
0.0
 40
0.2
100
AcDbArc
 50
270.0
 51
0.0
  0
ARC
  5
93
330
2
100
AcDbEntity
  8
AM_CL
100
AcDbCircle
 10
339.7131758339956
 20
118.3736308719627
 30
0.0
 40
0.2
100
AcDbArc
 50
0.0
 51
90.0
  0
LINE
  5
94
330
2
100
AcDbEntity
  8
AM_CL
100
AcDbLine
 10
339.9131758339956
 20
117.2736308719627
 30
0.0
 11
339.9131758339956
 21
118.3736308719627
 31
0.0
  0
LINE
  5
95
330
2
100
AcDbEntity
  8
AM_CL
100
AcDbLine
 10
339.7131758339956
 20
117.0736308719627
 30
0.0
 11
339.3631758339955
 21
117.0736308719627
 31
0.0
  0
ARC
  5
96
330
2
100
AcDbEntity
  8
AM_CL
100
AcDbCircle
 10
337.4631758339955
 20
116.8736308719627
 30
0.0
 40
0.2
100
AcDbArc
 50
0.0
 51
90.0
  0
LINE
  5
97
330
2
100
AcDbEntity
  8
AM_CL
100
AcDbLine
 10
339.7131758339956
 20
118.5736308719627
 30
0.0
 11
337.6631758339955
 21
118.5736308719627
 31
0.0
  0
ARC
  5
98
330
2
100
AcDbEntity
  8
AM_CL
100
AcDbCircle
 10
337.6631758339955
 20
121.0736308719627
 30
0.0
 40
2.5
100
AcDbArc
 50
180.0
 51
270.0
  0
ARC
  5
99
330
2
100
AcDbEntity
  8
AM_CL
100
AcDbCircle
 10
337.8631758339955
 20
109.7736308719627
 30
0.0
 40
0.2
100
AcDbArc
 50
180.0
 51
270.0
  0
LINE
  5
9A
330
2
100
AcDbEntity
  8
AM_CL
100
AcDbLine
 10
338.9631758339955
 20
109.5736308719627
 30
0.0
 11
337.8631758339955
 21
109.5736308719627
 31
0.0
  0
ARC
  5
9B
330
2
100
AcDbEntity
  8
AM_CL
100
AcDbCircle
 10
338.9631758339955
 20
109.7736308719627
 30
0.0
 40
0.2
100
AcDbArc
 50
270.0
 51
0.0
  0
LINE
  5
9C
330
2
100
AcDbEntity
  8
AM_CL
100
AcDbLine
 10
337.6631758339955
 20
116.8736308719627
 30
0.0
 11
337.6631758339955
 21
109.7736308719627
 31
0.0
  0
LINE
  5
9D
330
2
100
AcDbEntity
  8
AM_CL
100
AcDbLine
 10
339.1631758339955
 20
116.8736308719627
 30
0.0
 11
339.1631758339955
 21
109.7736308719627
 31
0.0
  0
ARC
  5
9E
330
2
100
AcDbEntity
  8
AM_CL
100
AcDbCircle
 10
328.6631758339955
 20
121.0736308719627
 30
0.0
 40
2.5
100
AcDbArc
 50
270.0
 51
0.0
  0
LINE
  5
9F
330
2
100
AcDbEntity
  8
AM_CL
100
AcDbLine
 10
328.6631758339955
 20
118.5736308719627
 30
0.0
 11
326.1631758339955
 21
118.5736308719627
 31
0.0
  0
LINE
  5
A0
330
2
100
AcDbEntity
  8
AM_CL
100
AcDbLine
 10
337.4631758339955
 20
117.0736308719627
 30
0.0
 11
326.1631758339955
 21
117.0736308719627
 31
0.0
  0
ARC
  5
A1
330
2
100
AcDbEntity
  8
AM_CL
100
AcDbCircle
 10
333.1631758339955
 20
121.0736308719627
 30
0.0
 40
2.0
100
AcDbArc
 50
0.0
 51
180.0
  0
ARC
  5
A2
330
2
100
AcDbEntity
  8
AM_CL
100
AcDbCircle
 10
323.6631758339955
 20
121.0736308719627
 30
0.0
 40
2.5
100
AcDbArc
 50
180.0
 51
270.0
  0
ARC
  5
A3
330
2
100
AcDbEntity
  8
AM_CL
100
AcDbCircle
 10
312.9631758339955
 20
116.8736308719627
 30
0.0
 40
0.2
100
AcDbArc
 50
0.0
 51
90.0
  0
ARC
  5
A4
330
2
100
AcDbEntity
  8
AM_CL
100
AcDbCircle
 10
314.8631758339955
 20
116.8736308719627
 30
0.0
 40
0.2
100
AcDbArc
 50
90.0
 51
180.0
  0
ARC
  5
A5
330
2
100
AcDbEntity
  8
AM_CL
100
AcDbCircle
 10
312.6131758339955
 20
118.3736308719627
 30
0.0
 40
0.2
100
AcDbArc
 50
90.0
 51
180.0
  0
ARC
  5
A6
330
2
100
AcDbEntity
  8
AM_CL
100
AcDbCircle
 10
312.6131758339955
 20
117.2736308719627
 30
0.0
 40
0.2
100
AcDbArc
 50
180.0
 51
270.0000000000017
  0
LINE
  5
A7
330
2
100
AcDbEntity
  8
AM_CL
100
AcDbLine
 10
312.4131758339955
 20
117.2736308719627
 30
0.0
 11
312.4131758339955
 21
118.3736308719627
 31
0.0
  0
LINE
  5
A8
330
2
100
AcDbEntity
  8
AM_CL
100
AcDbLine
 10
312.6131758339955
 20
117.0736308719627
 30
0.0
 11
312.9631758339955
 21
117.0736308719627
 31
0.0
  0
LINE
  5
A9
330
2
100
AcDbEntity
  8
AM_CL
100
AcDbLine
 10
312.6131758339955
 20
118.5736308719627
 30
0.0
 11
314.6631758339955
 21
118.5736308719627
 31
0.0
  0
ARC
  5
AA
330
2
100
AcDbEntity
  8
AM_CL
100
AcDbCircle
 10
313.3631758339955
 20
109.7736308719627
 30
0.0
 40
0.2
100
AcDbArc
 50
180.0
 51
269.9999999999984
  0
ARC
  5
AB
330
2
100
AcDbEntity
  8
AM_CL
100
AcDbCircle
 10
314.4631758339955
 20
109.7736308719627
 30
0.0
 40
0.2
100
AcDbArc
 50
270.0
 51
0.0
  0
LINE
  5
AC
330
2
100
AcDbEntity
  8
AM_CL
100
AcDbLine
 10
313.3631758339955
 20
109.5736308719627
 30
0.0
 11
314.4631758339955
 21
109.5736308719627
 31
0.0
  0
LINE
  5
AD
330
2
100
AcDbEntity
  8
AM_CL
100
AcDbLine
 10
314.6631758339955
 20
116.8736308719627
 30
0.0
 11
314.6631758339955
 21
109.7736308719627
 31
0.0
  0
LINE
  5
AE
330
2
100
AcDbEntity
  8
AM_CL
100
AcDbLine
 10
313.1631758339955
 20
116.8736308719627
 30
0.0
 11
313.1631758339955
 21
109.7736308719627
 31
0.0
  0
ARC
  5
AF
330
2
100
AcDbEntity
  8
AM_CL
100
AcDbCircle
 10
314.6631758339955
 20
121.0736308719627
 30
0.0
 40
2.5
100
AcDbArc
 50
270.0
 51
0.0
  0
ARC
  5
B0
330
2
100
AcDbEntity
  8
AM_CL
100
AcDbCircle
 10
319.1631758339955
 20
121.0736308719627
 30
0.0
 40
2.0
100
AcDbArc
 50
0.0
 51
180.0
  0
LINE
  5
B1
330
2
100
AcDbEntity
  8
AM_CL
100
AcDbLine
 10
314.8631758339955
 20
117.0736308719627
 30
0.0
 11
326.1631758339955
 21
117.0736308719627
 31
0.0
  0
LINE
  5
B2
330
2
100
AcDbEntity
  8
AM_CL
100
AcDbLine
 10
323.6631758339955
 20
118.5736308719627
 30
0.0
 11
326.1631758339955
 21
118.5736308719627
 31
0.0
  0
ARC
  5
B3
330
2
100
AcDbEntity
  8
AM_CL
100
AcDbCircle
 10
340.3631758339955
 20
171.8828977990242
 30
0.0
 40
0.2
100
AcDbArc
 50
90.0
 51
180.0
  0
LINE
  5
B4
330
2
100
AcDbEntity
  8
AM_CL
100
AcDbLine
 10
340.9631758339955
 20
172.0828977990243
 30
0.0
 11
340.3631758339955
 21
172.0828977990243
 31
0.0
  0
ARC
  5
B5
330
2
100
AcDbEntity
  8
AM_CL
100
AcDbCircle
 10
340.9631758339955
 20
171.8828977990243
 30
0.0
 40
0.2
100
AcDbArc
 50
0.0
 51
90.0
  0
LINE
  5
B6
330
2
100
AcDbEntity
  8
AM_CL
100
AcDbLine
 10
340.1631758339955
 20
157.4828977990243
 30
0.0
 11
340.1631758339955
 21
158.3828977990243
 31
0.0
  0
ARC
  5
B7
330
2
100
AcDbEntity
  8
AM_CL
100
AcDbCircle
 10
339.9631758339956
 20
159.7272855981475
 30
0.0
 40
0.2
100
AcDbArc
 50
291.9983416915954
 51
0.0
  0
ARC
  5
B8
330
2
100
AcDbEntity
  8
AM_CL
100
AcDbCircle
 10
340.9631758339955
 20
156.2828977990243
 30
0.0
 40
0.2
100
AcDbArc
 50
270.0
 51
0.0
  0
LINE
  5
B9
330
2
100
AcDbEntity
  8
AM_CL
100
AcDbLine
 10
339.4136801245982
 20
158.5828977990243
 30
0.0
 11
339.9631758339956
 21
158.5828977990243
 31
0.0
  0
LINE
  5
BA
330
2
100
AcDbEntity
  8
AM_CL
100
AcDbLine
 10
339.4131758339955
 20
158.5828977990243
 30
0.0
 11
339.9631758339956
 21
158.5828977990243
 31
0.0
  0
ARC
  5
BB
330
2
100
AcDbEntity
  8
AM_CL
100
AcDbCircle
 10
339.9631758339956
 20
157.4828977990243
 30
0.0
 40
0.2
100
AcDbArc
 50
270.0
 51
0.0
  0
ARC
  5
BC
330
2
100
AcDbEntity
  8
AM_CL
100
AcDbCircle
 10
340.4126715433928
 20
158.6146519624724
 30
0.0
 40
1.0
100
AcDbArc
 50
111.998341691597
 51
181.8196854412537
  0
ARC
  5
BD
330
2
100
AcDbEntity
  8
AM_CL
100
AcDbCircle
 10
339.9631758339956
 20
158.3828977990243
 30
0.0
 40
0.2
100
AcDbArc
 50
0.0
 51
90.0
  0
LINE
  5
BE
330
2
100
AcDbEntity
  8
AM_CL
100
AcDbLine
 10
341.1631758339955
 20
156.2828977990243
 30
0.0
 11
341.1631758339955
 21
171.8828977990243
 31
0.0
  0
LINE
  5
BF
330
2
100
AcDbEntity
  8
AM_CL
100
AcDbLine
 10
340.1631758339955
 20
159.7272855981475
 30
0.0
 11
340.1631758339955
 21
171.8828977990242
 31
0.0
  0
ARC
  5
C0
330
2
100
AcDbEntity
  8
AM_CL
100
AcDbCircle
 10
311.9631758339955
 20
171.8828977990242
 30
0.0
 40
0.2
100
AcDbArc
 50
0.0
 51
89.99999999999836
  0
ARC
  5
C1
330
2
100
AcDbEntity
  8
AM_CL
100
AcDbCircle
 10
311.3631758339955
 20
171.8828977990243
 30
0.0
 40
0.2
100
AcDbArc
 50
89.99999999999836
 51
180.0
  0
LINE
  5
C2
330
2
100
AcDbEntity
  8
AM_CL
100
AcDbLine
 10
311.9631758339955
 20
172.0828977990243
 30
0.0
 11
311.3631758339955
 21
172.0828977990243
 31
0.0
  0
LINE
  5
C3
330
2
100
AcDbEntity
  8
AM_CL
100
AcDbLine
 10
312.1631758339955
 20
157.4828977990243
 30
0.0
 11
312.1631758339955
 21
158.3828977990243
 31
0.0
  0
ARC
  5
C4
330
2
100
AcDbEntity
  8
AM_CL
100
AcDbCircle
 10
312.3631758339955
 20
157.4828977990243
 30
0.0
 40
0.2
100
AcDbArc
 50
180.0
 51
270.0
  0
ARC
  5
C5
330
2
100
AcDbEntity
  8
AM_CL
100
AcDbCircle
 10
312.3631758339953
 20
158.3828977990243
 30
0.0
 40
0.2
100
AcDbArc
 50
90.0
 51
180.0
  0
ARC
  5
C6
330
2
100
AcDbEntity
  8
AM_CL
100
AcDbCircle
 10
312.3631758339953
 20
159.7272855981467
 30
0.0
 40
0.2
100
AcDbArc
 50
180.0
 51
248.0016583083907
  0
LINE
  5
C7
330
2
100
AcDbEntity
  8
AM_CL
100
AcDbLine
 10
312.1631758339955
 20
159.7272855981467
 30
0.0
 11
312.1631758339955
 21
159.5830278662372
 31
0.0
  0
LINE
  5
C8
330
2
100
AcDbEntity
  8
AM_CL
100
AcDbLine
 10
312.2882598824292
 20
159.5418466588674
 30
0.0
 11
312.1631758339955
 21
159.5830278662372
 31
0.0
  0
LINE
  5
C9
330
2
100
AcDbEntity
  8
AM_CL
100
AcDbLine
 10
312.9126715433929
 20
158.5828977990243
 30
0.0
 11
312.3631758339953
 21
158.5828977990243
 31
0.0
  0
ARC
  5
CA
330
2
100
AcDbEntity
  8
AM_CL
100
AcDbCircle
 10
311.9136801245982
 20
158.6146519624724
 30
0.0
 40
1.0
100
AcDbArc
 50
358.1803145587463
 51
68.0016583083907
  0
ARC
  5
CB
330
2
100
AcDbEntity
  8
AM_CL
100
AcDbCircle
 10
311.3631758339955
 20
156.2828977990243
 30
0.0
 40
0.2
100
AcDbArc
 50
180.0
 51
270.0
  0
LINE
  5
CC
330
2
100
AcDbEntity
  8
AM_CL
100
AcDbLine
 10
311.1631758339955
 20
156.2828977990243
 30
0.0
 11
311.1631758339955
 21
171.8828977990243
 31
0.0
  0
LINE
  5
CD
330
2
100
AcDbEntity
  8
AM_CL
100
AcDbLine
 10
312.1631758339955
 20
159.7272855981467
 30
0.0
 11
312.1631758339955
 21
171.8828977990242
 31
0.0
  0
LINE
  5
CE
330
2
100
AcDbEntity
  8
AM_CL
100
AcDbLine
 10
339.9631758339956
 20
157.2828977990243
 30
0.0
 11
312.3631758339955
 21
157.2828977990243
 31
0.0
  0
LINE
  5
CF
330
2
100
AcDbEntity
  8
AM_CL
100
AcDbLine
 10
340.9631758339955
 20
156.0828977990243
 30
0.0
 11
311.3631758339955
 21
156.0828977990243
 31
0.0
  0
ARC
  5
D0
330
2
100
AcDbEntity
  8
AM_CL
100
AcDbCircle
 10
339.3631758339955
 20
164.5828977990243
 30
0.0
 40
0.2
100
AcDbArc
 50
90.00000000000161
 51
180.0
  0
ARC
  5
D1
330
2
100
AcDbEntity
  8
AM_CL
100
AcDbCircle
 10
339.7131758339956
 20
164.9828977990243
 30
0.0
 40
0.2
100
AcDbArc
 50
270.0
 51
0.0
  0
ARC
  5
D2
330
2
100
AcDbEntity
  8
AM_CL
100
AcDbCircle
 10
339.7131758339956
 20
166.0828977990243
 30
0.0
 40
0.2
100
AcDbArc
 50
0.0
 51
90.0
  0
LINE
  5
D3
330
2
100
AcDbEntity
  8
AM_CL
100
AcDbLine
 10
339.9131758339956
 20
164.9828977990243
 30
0.0
 11
339.9131758339956
 21
166.0828977990243
 31
0.0
  0
LINE
  5
D4
330
2
100
AcDbEntity
  8
AM_CL
100
AcDbLine
 10
339.7131758339956
 20
164.7828977990243
 30
0.0
 11
339.3631758339955
 21
164.7828977990243
 31
0.0
  0
ARC
  5
D5
330
2
100
AcDbEntity
  8
AM_CL
100
AcDbCircle
 10
337.4631758339955
 20
164.5828977990243
 30
0.0
 40
0.2
100
AcDbArc
 50
0.0
 51
90.0
  0
LINE
  5
D6
330
2
100
AcDbEntity
  8
AM_CL
100
AcDbLine
 10
339.7131758339956
 20
166.2828977990243
 30
0.0
 11
337.6631758339955
 21
166.2828977990241
 31
0.0
  0
ARC
  5
D7
330
2
100
AcDbEntity
  8
AM_CL
100
AcDbCircle
 10
337.6631758339955
 20
168.7828977990243
 30
0.0
 40
2.5
100
AcDbArc
 50
180.0
 51
270.0
  0
ARC
  5
D8
330
2
100
AcDbEntity
  8
AM_CL
100
AcDbCircle
 10
337.8631758339955
 20
157.4828977990241
 30
0.0
 40
0.2
100
AcDbArc
 50
180.0
 51
270.0
  0
LINE
  5
D9
330
2
100
AcDbEntity
  8
AM_CL
100
AcDbLine
 10
338.9631758339955
 20
157.2828977990243
 30
0.0
 11
337.8631758339955
 21
157.2828977990243
 31
0.0
  0
ARC
  5
DA
330
2
100
AcDbEntity
  8
AM_CL
100
AcDbCircle
 10
338.9631758339955
 20
157.4828977990243
 30
0.0
 40
0.2
100
AcDbArc
 50
270.0
 51
0.0
  0
LINE
  5
DB
330
2
100
AcDbEntity
  8
AM_CL
100
AcDbLine
 10
337.6631758339955
 20
164.5828977990243
 30
0.0
 11
337.6631758339955
 21
157.4828977990241
 31
0.0
  0
LINE
  5
DC
330
2
100
AcDbEntity
  8
AM_CL
100
AcDbLine
 10
339.1631758339955
 20
164.5828977990243
 30
0.0
 11
339.1631758339955
 21
157.4828977990243
 31
0.0
  0
ARC
  5
DD
330
2
100
AcDbEntity
  8
AM_CL
100
AcDbCircle
 10
328.6631758339955
 20
168.7828977990243
 30
0.0
 40
2.5
100
AcDbArc
 50
270.0
 51
0.0
  0
LINE
  5
DE
330
2
100
AcDbEntity
  8
AM_CL
100
AcDbLine
 10
328.6631758339955
 20
166.2828977990241
 30
0.0
 11
326.1631758339955
 21
166.2828977990241
 31
0.0
  0
LINE
  5
DF
330
2
100
AcDbEntity
  8
AM_CL
100
AcDbLine
 10
337.4631758339955
 20
164.7828977990243
 30
0.0
 11
326.1631758339955
 21
164.7828977990243
 31
0.0
  0
ARC
  5
E0
330
2
100
AcDbEntity
  8
AM_CL
100
AcDbCircle
 10
333.1631758339955
 20
168.7828977990243
 30
0.0
 40
2.0
100
AcDbArc
 50
0.0
 51
180.0
  0
ARC
  5
E1
330
2
100
AcDbEntity
  8
AM_CL
100
AcDbCircle
 10
323.6631758339955
 20
168.7828977990243
 30
0.0
 40
2.5
100
AcDbArc
 50
180.0
 51
270.0
  0
ARC
  5
E2
330
2
100
AcDbEntity
  8
AM_CL
100
AcDbCircle
 10
312.9631758339955
 20
164.5828977990243
 30
0.0
 40
0.2
100
AcDbArc
 50
0.0
 51
90.0
  0
ARC
  5
E3
330
2
100
AcDbEntity
  8
AM_CL
100
AcDbCircle
 10
314.8631758339955
 20
164.5828977990243
 30
0.0
 40
0.2
100
AcDbArc
 50
90.0
 51
180.0
  0
ARC
  5
E4
330
2
100
AcDbEntity
  8
AM_CL
100
AcDbCircle
 10
312.6131758339955
 20
166.0828977990243
 30
0.0
 40
0.2
100
AcDbArc
 50
90.0
 51
180.0
  0
ARC
  5
E5
330
2
100
AcDbEntity
  8
AM_CL
100
AcDbCircle
 10
312.6131758339955
 20
164.9828977990243
 30
0.0
 40
0.2
100
AcDbArc
 50
180.0
 51
270.0000000000017
  0
LINE
  5
E6
330
2
100
AcDbEntity
  8
AM_CL
100
AcDbLine
 10
312.4131758339955
 20
164.9828977990243
 30
0.0
 11
312.4131758339955
 21
166.0828977990243
 31
0.0
  0
LINE
  5
E7
330
2
100
AcDbEntity
  8
AM_CL
100
AcDbLine
 10
312.6131758339955
 20
164.7828977990243
 30
0.0
 11
312.9631758339955
 21
164.7828977990243
 31
0.0
  0
LINE
  5
E8
330
2
100
AcDbEntity
  8
AM_CL
100
AcDbLine
 10
312.6131758339955
 20
166.2828977990241
 30
0.0
 11
314.6631758339955
 21
166.2828977990241
 31
0.0
  0
ARC
  5
E9
330
2
100
AcDbEntity
  8
AM_CL
100
AcDbCircle
 10
313.3631758339955
 20
157.4828977990241
 30
0.0
 40
0.2
100
AcDbArc
 50
180.0
 51
269.9999999999984
  0
ARC
  5
EA
330
2
100
AcDbEntity
  8
AM_CL
100
AcDbCircle
 10
314.4631758339955
 20
157.4828977990241
 30
0.0
 40
0.2
100
AcDbArc
 50
270.0
 51
0.0
  0
LINE
  5
EB
330
2
100
AcDbEntity
  8
AM_CL
100
AcDbLine
 10
313.3631758339955
 20
157.2828977990243
 30
0.0
 11
314.4631758339955
 21
157.2828977990243
 31
0.0
  0
LINE
  5
EC
330
2
100
AcDbEntity
  8
AM_CL
100
AcDbLine
 10
314.6631758339955
 20
164.5828977990243
 30
0.0
 11
314.6631758339955
 21
157.4828977990241
 31
0.0
  0
LINE
  5
ED
330
2
100
AcDbEntity
  8
AM_CL
100
AcDbLine
 10
313.1631758339955
 20
164.5828977990243
 30
0.0
 11
313.1631758339955
 21
157.4828977990241
 31
0.0
  0
ARC
  5
EE
330
2
100
AcDbEntity
  8
AM_CL
100
AcDbCircle
 10
314.6631758339955
 20
168.7828977990243
 30
0.0
 40
2.5
100
AcDbArc
 50
270.0
 51
0.0
  0
ARC
  5
EF
330
2
100
AcDbEntity
  8
AM_CL
100
AcDbCircle
 10
319.1631758339955
 20
168.7828977990243
 30
0.0
 40
2.0
100
AcDbArc
 50
0.0
 51
180.0
  0
LINE
  5
F0
330
2
100
AcDbEntity
  8
AM_CL
100
AcDbLine
 10
314.8631758339955
 20
164.7828977990243
 30
0.0
 11
326.1631758339955
 21
164.7828977990243
 31
0.0
  0
LINE
  5
F1
330
2
100
AcDbEntity
  8
AM_CL
100
AcDbLine
 10
323.6631758339955
 20
166.2828977990241
 30
0.0
 11
326.1631758339955
 21
166.2828977990241
 31
0.0
  0
LINE
  5
F2
330
2
100
AcDbEntity
  8
AM_CL
100
AcDbLine
 10
329.9813559939957
 20
228.294468873077
 30
0.0
 11
329.9813559939957
 21
238.2347022490611
 31
0.0
  0
LINE
  5
F3
330
2
100
AcDbEntity
  8
AM_CL
100
AcDbLine
 10
329.9813559939957
 20
188.0701856647569
 30
0.0
 11
329.9813559939957
 21
226.3041422724709
 31
0.0
  0
LINE
  5
F4
330
2
100
AcDbEntity
  8
AM_CL
100
AcDbLine
 10
335.9813559939957
 20
228.294468873077
 30
0.0
 11
335.9813559939957
 21
238.2347022490611
 31
0.0
  0
LINE
  5
F5
330
2
100
AcDbEntity
  8
AM_CL
100
AcDbLine
 10
335.9813559939957
 20
188.0701856647571
 30
0.0
 11
335.9813559939957
 21
226.3041422724709
 31
0.0
  0
LINE
  5
F6
330
2
100
AcDbEntity
  8
AM_4
  6
Amzigzag
 48
0.3
100
AcDbLine
 10
326.7842406219624
 20
226.3041422724709
 30
0.0
 11
339.6453134447556
 21
226.3041422724709
 31
0.0
  0
LINE
  5
F9
330
2
100
AcDbEntity
  8
AM_4
  6
Amzigzag
 48
0.3
100
AcDbLine
 10
326.7842406219624
 20
228.294468873077
 30
0.0
 11
339.6453134447556
 21
228.294468873077
 31
0.0
  0
LINE
  5
FA
330
2
100
AcDbEntity
  8
AM_CL
100
AcDbLine
 10
330.6592782789957
 20
169.980197317246
 30
0.0
 11
331.2704238817172
 21
169.980197317246
 31
0.0
  0
LINE
  5
FB
330
2
100
AcDbEntity
  8
AM_CL
100
AcDbLine
 10
330.6592782789957
 20
169.980197317246
 30
0.0
 11
331.2704238817172
 21
169.980197317246
 31
0.0
  0
LINE
  5
FC
330
2
100
AcDbEntity
  8
AM_CL
100
AcDbLine
 10
331.2704238817172
 20
170.5794798218818
 30
0.0
 11
331.2704238817172
 21
169.980197317246
 31
0.0
  0
LINE
  5
FD
330
2
100
AcDbEntity
  8
AM_CL
100
AcDbLine
 10
334.8481325562742
 20
169.980197317246
 30
0.0
 11
335.4592781589957
 21
169.980197317246
 31
0.0
  0
LINE
  5
FE
330
2
100
AcDbEntity
  8
AM_CL
100
AcDbLine
 10
334.8481325562742
 20
169.980197317246
 30
0.0
 11
335.4592781589957
 21
169.980197317246
 31
0.0
  0
ARC
  5
FF
330
2
100
AcDbEntity
  8
AM_CL
100
AcDbCircle
 10
333.0592782189957
 20
168.3801973572462
 30
0.0
 40
2.399999939999999
100
AcDbArc
 50
41.81031489577875
 51
138.1896851042205
  0
LINE
  5
100
330
2
100
AcDbEntity
  8
AM_CL
100
AcDbLine
 10
334.8481325562742
 20
170.5794798218818
 30
0.0
 11
334.8481325562742
 21
169.980197317246
 31
0.0
  0
ARC
  5
101
330
2
100
AcDbEntity
  8
AM_CL
100
AcDbCircle
 10
337.0488709911492
 20
168.4595161507502
 30
0.0
 40
0.999999975
100
AcDbArc
 50
184.133969721865
 51
269.9999999999919
  0
ARC
  5
102
330
2
100
AcDbEntity
  8
AM_CL
100
AcDbCircle
 10
329.0696854468424
 20
168.4595161507502
 30
0.0
 40
0.999999975
100
AcDbArc
 50
270.0
 51
355.8660302781348
  0
ARC
  5
103
330
2
100
AcDbEntity
  8
AM_CL
100
AcDbCircle
 10
338.2592780889958
 20
196.5701854522569
 30
0.0
 40
0.4999999875000001
100
AcDbArc
 50
0.0
 51
90.0
  0
LINE
  5
104
330
2
100
AcDbEntity
  8
AM_CL
100
AcDbLine
 10
338.2592780889958
 20
197.0701854397569
 30
0.0
 11
336.0592781439958
 21
197.0701854397569
 31
0.0
  0
LINE
  5
105
330
2
100
AcDbEntity
  8
AM_CL
100
AcDbLine
 10
330.0592782939956
 20
197.0701854397568
 30
0.0
 11
327.8592783489957
 21
197.070185439757
 31
0.0
  0
ARC
  5
106
330
2
100
AcDbEntity
  8
AM_CL
100
AcDbCircle
 10
327.8592783489957
 20
196.570185452257
 30
0.0
 40
0.4999999875000001
100
AcDbArc
 50
90.0
 51
180.0
  0
ARC
  5
107
330
2
100
AcDbEntity
  8
AM_CL
100
AcDbCircle
 10
333.0592782189957
 20
168.1711609663313
 30
0.0
 40
2.999999925
100
AcDbArc
 50
4.133969721863503
 51
47.2008360670443
  0
ARC
  5
108
330
2
100
AcDbEntity
  8
AM_CL
100
AcDbCircle
 10
333.0592782189957
 20
168.1711609663313
 30
0.0
 40
2.999999925
100
AcDbArc
 50
132.7991639329557
 51
175.8660302781365
  0
ARC
  5
109
330
2
100
AcDbEntity
  8
AM_CL
100
AcDbCircle
 10
333.0592782189957
 20
168.1711609663313
 30
0.0
 40
2.999999925
100
AcDbArc
 50
47.2008360670443
 51
132.7991639329557
  0
LINE
  5
10A
330
2
100
AcDbEntity
  8
AM_CL
100
AcDbLine
 10
337.048870991149
 20
167.4595161757501
 30
0.0
 11
337.2592781139958
 21
167.4595161757501
 31
0.0
  0
LINE
  5
10B
330
2
100
AcDbEntity
  8
AM_CL
100
AcDbLine
 10
328.8592783239958
 20
167.4595161757501
 30
0.0
 11
329.0696854468424
 21
167.4595161757501
 31
0.0
  0
ARC
  5
10C
330
2
100
AcDbEntity
  8
AM_CL
100
AcDbCircle
 10
328.8592783239958
 20
168.9595161382501
 30
0.0
 40
1.4999999625
100
AcDbArc
 50
180.0
 51
270.0
  0
ARC
  5
10D
330
2
100
AcDbEntity
  8
AM_CL
100
AcDbCircle
 10
337.2592781139958
 20
168.9595161382501
 30
0.0
 40
1.4999999625
100
AcDbArc
 50
270.0
 51
0.0
  0
LINE
  5
10E
330
2
100
AcDbEntity
  8
AM_CL
100
AcDbLine
 10
327.3592783614958
 20
168.9595161382501
 30
0.0
 11
327.3592783614958
 21
196.570185452257
 31
0.0
  0
LINE
  5
10F
330
2
100
AcDbEntity
  8
AM_CL
100
AcDbLine
 10
338.7592780764958
 20
168.9595161382501
 30
0.0
 11
338.7592780764958
 21
196.5701854522569
 31
0.0
  0
ARC
  5
110
330
2
100
AcDbEntity
  8
AM_CL
100
AcDbCircle
 10
323.1131759777455
 20
196.8828977990243
 30
0.0
 40
0.2
100
AcDbArc
 50
90.0
 51
180.0
1001
GENIUS_GENOBJ-N-FIL_13
1002
{
1000
OWNER
1000
GEN
1002
}
1001
GENIUS_GENODEF_13
1002
{
1000
HIER
1070
     0
1002
}
1002
{
1000
MANEDIT
1070
     0
1002
}
1002
{
1000
NOSEL
1070
     0
1002
}
1002
{
1000
BEHIND
1070
     0
1002
}
1002
{
1000
OTHER
1070
     0
1002
}
1002
{
1000
REACTOR
1002
}
  0
ARC
  5
111
330
2
100
AcDbEntity
  8
AM_CL
100
AcDbCircle
 10
315.2131759777455
 20
196.8828977990242
 30
0.0
 40
0.2
100
AcDbArc
 50
0.0
 51
90.0
1001
GENIUS_GENODEF_13
1002
{
1000
HIER
1070
     0
1002
}
1002
{
1000
MANEDIT
1070
     0
1002
}
1002
{
1000
NOSEL
1070
     0
1002
}
1002
{
1000
BEHIND
1070
     0
1002
}
1002
{
1000
OTHER
1070
     0
1002
}
1002
{
1000
REACTOR
1002
}
1001
GENIUS_GENOBJ-N-FIL_13
1002
{
1000
OWNER
1000
GEN
1002
}
  0
LINE
  5
112
330
2
100
AcDbEntity
  8
AM_CL
100
AcDbLine
 10
322.9131759777455
 20
196.8828977990243
 30
0.0
 11
322.9131759777455
 21
187.0828977990243
 31
0.0
  0
LINE
  5
113
330
2
100
AcDbEntity
  8
AM_CL
100
AcDbLine
 10
315.4131759777456
 20
196.8828977990242
 30
0.0
 11
315.4131759777456
 21
187.0828977990243
 31
0.0
  0
LINE
  5
114
330
2
100
AcDbEntity
  8
AM_CL
100
AcDbLine
 10
323.1131759777455
 20
197.0828977990243
 30
0.0
 11
324.4131759777455
 21
197.0828977990243
 31
0.0
  0
LINE
  5
115
330
2
100
AcDbEntity
  8
AM_CL
100
AcDbLine
 10
313.9131759777455
 20
197.0828977990243
 30
0.0
 11
315.2131759777455
 21
197.0828977990243
 31
0.0
  0
ARC
  5
116
330
2
100
AcDbEntity
  8
AM_CL
100
AcDbCircle
 10
324.4131759777455
 20
196.5828977990243
 30
0.0
 40
0.5
100
AcDbArc
 50
0.0
 51
90.0
  0
LINE
  5
117
330
2
100
AcDbEntity
  8
AM_CL
100
AcDbLine
 10
315.4131759777456
 20
187.0828977990243
 30
0.0
 11
322.9131759777455
 21
187.0828977990243
 31
0.0
  0
ARC
  5
118
330
2
100
AcDbEntity
  8
AM_CL
100
AcDbCircle
 10
323.2631759777455
 20
185.0828977990243
 30
0.0
 40
0.2
100
AcDbArc
 50
0.0
 51
90.0
  0
ARC
  5
119
330
2
100
AcDbEntity
  8
AM_CL
100
AcDbCircle
 10
315.0631759777455
 20
185.0828977990243
 30
0.0
 40
0.2
100
AcDbArc
 50
90.0
 51
180.0
  0
LINE
  5
11A
330
2
100
AcDbEntity
  8
AM_CL
100
AcDbLine
 10
315.0631759777455
 20
185.2828977990243
 30
0.0
 11
323.2631759777455
 21
185.2828977990243
 31
0.0
  0
LINE
  5
11B
330
2
100
AcDbEntity
  8
AM_CL
100
AcDbLine
 10
322.5284048384466
 20
171.5067534955193
 30
0.0
 11
323.1570844334651
 21
171.1133555204263
 31
0.0
  0
ARC
  5
11C
330
2
100
AcDbEntity
  8
AM_CL
100
AcDbCircle
 10
323.2631759777455
 20
171.2828977990243
 30
0.0
 40
0.2
100
AcDbArc
 50
237.9636135638559
 51
0.0
  0
ARC
  5
11D
330
2
100
AcDbEntity
  8
AM_CL
100
AcDbCircle
 10
322.2631759777455
 20
171.0828977990243
 30
0.0
 40
0.5
100
AcDbArc
 50
57.96361356385594
 51
180.0
  0
LINE
  5
11E
330
2
100
AcDbEntity
  8
AM_CL
100
AcDbLine
 10
315.7979471170445
 20
171.5067534955193
 30
0.0
 11
315.1692675220258
 21
171.1133555204263
 31
0.0
  0
ARC
  5
11F
330
2
100
AcDbEntity
  8
AM_CL
100
AcDbCircle
 10
315.0631759777455
 20
171.2828977990243
 30
0.0
 40
0.2
100
AcDbArc
 50
180.0
 51
302.036386436144
  0
ARC
  5
120
330
2
100
AcDbEntity
  8
AM_CL
100
AcDbCircle
 10
316.0631759777455
 20
171.0828977990243
 30
0.0
 40
0.5
100
AcDbArc
 50
0.0
 51
122.0363864361458
  0
ARC
  5
121
330
2
100
AcDbEntity
  8
AM_CL
100
AcDbCircle
 10
323.2631759777455
 20
169.0415689508906
 30
0.0
 40
0.2
100
AcDbArc
 50
359.9999999999984
 51
57.96361356385594
  0
ARC
  5
122
330
2
100
AcDbEntity
  8
AM_CL
100
AcDbCircle
 10
321.9631759777455
 20
170.3269062093407
 30
0.0
 40
0.2
100
AcDbArc
 50
179.9999999999984
 51
237.9636135638559
  0
LINE
  5
123
330
2
100
AcDbEntity
  8
AM_CL
100
AcDbLine
 10
321.8570844334651
 20
170.1573639307427
 30
0.0
 11
323.3692675220259
 21
169.2111112294885
 31
0.0
  0
ARC
  5
124
330
2
100
AcDbEntity
  8
AM_CL
100
AcDbCircle
 10
323.6631759777456
 20
168.2828977990243
 30
0.0
 40
0.2
100
AcDbArc
 50
180.0
 51
281.0874892109699
  0
LINE
  5
125
330
2
100
AcDbEntity
  8
AM_CL
100
AcDbLine
 10
323.4631759777455
 20
169.0415689508906
 30
0.0
 11
323.4631759777455
 21
168.2828977990243
 31
0.0
  0
ARC
  5
126
330
2
100
AcDbEntity
  8
AM_CL
100
AcDbCircle
 10
316.3631759777455
 20
170.3269062093407
 30
0.0
 40
0.2
100
AcDbArc
 50
302.036386436144
 51
0.0
  0
ARC
  5
127
330
2
100
AcDbEntity
  8
AM_CL
100
AcDbCircle
 10
315.0631759777455
 20
169.0415689508906
 30
0.0
 40
0.2
100
AcDbArc
 50
122.0363864361458
 51
180.0
  0
LINE
  5
128
330
2
100
AcDbEntity
  8
AM_CL
100
AcDbLine
 10
316.4692675220259
 20
170.1573639307427
 30
0.0
 11
314.9570844334651
 21
169.2111112294886
 31
0.0
  0
ARC
  5
129
330
2
100
AcDbEntity
  8
AM_CL
100
AcDbCircle
 10
314.6631759777455
 20
168.2828977990243
 30
0.0
 40
0.2
100
AcDbArc
 50
258.9125107890285
 51
0.0
  0
LINE
  5
12A
330
2
100
AcDbEntity
  8
AM_CL
100
AcDbLine
 10
314.8631759777455
 20
169.0415689508906
 30
0.0
 11
314.8631759777455
 21
168.2828977990243
 31
0.0
  0
ARC
  5
12B
330
2
100
AcDbEntity
  8
AM_CL
100
AcDbCircle
 10
323.4131759777455
 20
169.5586328812415
 30
0.0
 40
1.5
100
AcDbArc
 50
281.0874892109699
 51
0.0
  0
LINE
  5
12C
330
2
100
AcDbEntity
  8
AM_CL
100
AcDbLine
 10
316.5631759777455
 20
171.0828977990243
 30
0.0
 11
316.5631759777455
 21
170.3269062093407
 31
0.0
  0
LINE
  5
12D
330
2
100
AcDbEntity
  8
AM_CL
100
AcDbLine
 10
321.7631759777455
 20
171.0828977990243
 30
0.0
 11
321.7631759777455
 21
170.3269062093407
 31
0.0
  0
LINE
  5
12E
330
2
100
AcDbEntity
  8
AM_CL
100
AcDbLine
 10
314.8631759777455
 20
185.0828977990243
 30
0.0
 11
314.8631759777455
 21
171.2828977990243
 31
0.0
  0
LINE
  5
12F
330
2
100
AcDbEntity
  8
AM_CL
100
AcDbLine
 10
324.9131759777455
 20
196.5828977990243
 30
0.0
 11
324.9131759777455
 21
169.5586328812415
 31
0.0
  0
LINE
  5
130
330
2
100
AcDbEntity
  8
AM_CL
100
AcDbLine
 10
323.4631759777455
 20
185.0828977990243
 30
0.0
 11
323.4631759777455
 21
171.2828977990243
 31
0.0
  0
LINE
  5
131
330
2
100
AcDbEntity
  8
AM_CL
100
AcDbLine
 10
313.4131759777456
 20
196.5828977990243
 30
0.0
 11
313.4131759777456
 21
169.5586328812415
 31
0.0
  0
ARC
  5
132
330
2
100
AcDbEntity
  8
AM_CL
100
AcDbCircle
 10
314.9131759777455
 20
169.5586328812415
 30
0.0
 40
1.5
100
AcDbArc
 50
180.0
 51
258.9125107890301
  0
ARC
  5
133
330
2
100
AcDbEntity
  8
AM_CL
100
AcDbCircle
 10
313.9131759777455
 20
196.5828977990243
 30
0.0
 40
0.5
100
AcDbArc
 50
90.0
 51
180.0
  0
LINE
  5
134
330
2
100
AcDbEntity
  8
AM_CL
100
AcDbLine
 10
315.2698425979953
 20
184.6955494125282
 30
0.0
 11
323.0565090699954
 21
184.6955494125282
 31
0.0
  0
LINE
  5
135
330
2
100
AcDbEntity
  8
AM_CL
100
AcDbLine
 10
315.9098425819954
 20
184.0555494285282
 30
0.0
 11
322.4165090859953
 21
184.0555494285282
 31
0.0
  0
LINE
  5
136
330
2
100
AcDbEntity
  8
AM_CL
100
AcDbLine
 10
321.5631757739954
 20
179.5162309090243
 30
0.0
 11
322.4165090859953
 21
179.5162309090243
 31
0.0
  0
LINE
  5
137
330
2
100
AcDbEntity
  8
AM_CL
100
AcDbLine
 10
321.5631757739954
 20
173.9162310490243
 30
0.0
 11
322.4165090859953
 21
173.9162310490243
 31
0.0
  0
LINE
  5
138
330
2
100
AcDbEntity
  8
AM_CL
100
AcDbLine
 10
322.4165090859953
 20
172.2176291053671
 30
0.0
 11
323.0565090699954
 21
172.2176291053671
 31
0.0
  0
LINE
  5
139
330
2
100
AcDbEntity
  8
AM_CL
100
AcDbLine
 10
315.9098425819955
 20
179.5162309090243
 30
0.0
 11
316.7631758939955
 21
179.5162309090243
 31
0.0
  0
LINE
  5
13A
330
2
100
AcDbEntity
  8
AM_CL
100
AcDbLine
 10
316.7631758939955
 20
183.6495641390243
 30
0.0
 11
317.374321496717
 21
183.6495641390243
 31
0.0
  0
LINE
  5
13B
330
2
100
AcDbEntity
  8
AM_CL
100
AcDbLine
 10
316.7631758939955
 20
183.6495641390243
 30
0.0
 11
317.374321496717
 21
183.6495641390243
 31
0.0
  0
ARC
  5
13C
330
2
100
AcDbEntity
  8
AM_CL
100
AcDbCircle
 10
319.1631758339955
 20
185.2495640990243
 30
0.0
 40
2.399999939999999
100
AcDbArc
 50
221.8103148957794
 51
318.1896851042212
  0
LINE
  5
13D
330
2
100
AcDbEntity
  8
AM_CL
100
AcDbLine
 10
315.9098425819955
 20
173.9162310490243
 30
0.0
 11
316.7631758939955
 21
173.9162310490243
 31
0.0
  0
LINE
  5
13E
330
2
100
AcDbEntity
  8
AM_CL
100
AcDbLine
 10
315.2698425979953
 20
172.217629105367
 30
0.0
 11
315.9098425819954
 21
172.217629105367
 31
0.0
  0
LINE
  5
13F
330
2
100
AcDbEntity
  8
AM_CL
100
AcDbLine
 10
320.952030171274
 20
183.6495641390243
 30
0.0
 11
321.5631757739954
 21
183.6495641390243
 31
0.0
  0
LINE
  5
140
330
2
100
AcDbEntity
  8
AM_CL
100
AcDbLine
 10
320.952030171274
 20
183.6495641390243
 30
0.0
 11
321.5631757739954
 21
183.6495641390243
 31
0.0
  0
LINE
  5
141
330
2
100
AcDbEntity
  8
AM_7
  6
AM_ISO08W050x2
100
AcDbLine
 10
314.7365092779954
 20
176.7162309790243
 30
0.0
 11
323.5898423899954
 21
176.7162309790243
 31
0.0
  0
LINE
  5
142
330
2
100
AcDbEntity
  8
AM_CL
100
AcDbLine
 10
323.0565090699954
 20
184.6955494125282
 30
0.0
 11
323.0565090699954
 21
172.2176291053671
 31
0.0
  0
LINE
  5
143
330
2
100
AcDbEntity
  8
AM_CL
100
AcDbLine
 10
322.4165090859953
 20
184.0555494285282
 30
0.0
 11
322.4165090859953
 21
172.2176291053671
 31
0.0
  0
LINE
  5
144
330
2
100
AcDbEntity
  8
AM_CL
100
AcDbLine
 10
315.2698425979953
 20
184.6955494125282
 30
0.0
 11
315.2698425979953
 21
172.217629105367
 31
0.0
  0
LINE
  5
145
330
2
100
AcDbEntity
  8
AM_CL
100
AcDbLine
 10
315.9098425819954
 20
184.0555494285282
 30
0.0
 11
315.9098425819954
 21
172.217629105367
 31
0.0
  0
LINE
  5
146
330
2
100
AcDbEntity
  8
AM_CL
100
AcDbLine
 10
316.7631758939955
 20
169.7828978190243
 30
0.0
 11
317.374321496717
 21
169.7828978190243
 31
0.0
  0
LINE
  5
147
330
2
100
AcDbEntity
  8
AM_CL
100
AcDbLine
 10
316.7631758939955
 20
170.9383111293631
 30
0.0
 11
317.374321496717
 21
170.9383111293631
 31
0.0
  0
ARC
  5
148
330
2
100
AcDbEntity
  8
AM_CL
100
AcDbCircle
 10
319.1631758339955
 20
168.1828978590243
 30
0.0
 40
2.399999939999999
100
AcDbArc
 50
41.81031489577875
 51
138.1896851042205
  0
LINE
  5
149
330
2
100
AcDbEntity
  8
AM_CL
100
AcDbLine
 10
320.952030171274
 20
169.7828978190243
 30
0.0
 11
321.5631757739954
 21
169.7828978190243
 31
0.0
  0
LINE
  5
14A
330
2
100
AcDbEntity
  8
AM_CL
100
AcDbLine
 10
320.952030171274
 20
170.9383111293631
 30
0.0
 11
321.5631757739954
 21
170.9383111293631
 31
0.0
  0
LINE
  5
14B
330
2
100
AcDbEntity
  8
AM_CL
100
AcDbLine
 10
321.5631757739954
 20
183.6495641390243
 30
0.0
 11
321.5631757739954
 21
169.7828978190243
 31
0.0
  0
LINE
  5
14C
330
2
100
AcDbEntity
  8
AM_CL
100
AcDbLine
 10
320.952030171274
 20
183.6495641390243
 30
0.0
 11
320.952030171274
 21
169.7828978190243
 31
0.0
  0
LINE
  5
14D
330
2
100
AcDbEntity
  8
AM_CL
100
AcDbLine
 10
316.7631758939955
 20
183.6495641390243
 30
0.0
 11
316.7631758939955
 21
169.7828978190243
 31
0.0
  0
LINE
  5
14E
330
2
100
AcDbEntity
  8
AM_CL
100
AcDbLine
 10
317.374321496717
 20
183.6495641390243
 30
0.0
 11
317.374321496717
 21
169.7828978190243
 31
0.0
  0
LINE
  5
14F
330
2
100
AcDbEntity
  8
AM_CL
100
AcDbLine
 10
323.4631757264955
 20
168.3828985165243
 30
0.0
 11
323.5131757252456
 21
168.3828985165243
 31
0.0
  0
ARC
  5
150
330
2
100
AcDbEntity
  8
AM_CL
100
AcDbCircle
 10
311.9631758339955
 20
232.4347022490611
 30
0.0
 40
0.2
100
AcDbArc
 50
270.0
 51
0.0
  0
LINE
  5
151
330
2
100
AcDbEntity
  8
AM_CL
100
AcDbLine
 10
311.3631758339956
 20
232.2347022490611
 30
0.0
 11
311.9631758339955
 21
232.2347022490611
 31
0.0
  0
ARC
  5
152
330
2
100
AcDbEntity
  8
AM_CL
100
AcDbCircle
 10
311.3631758339956
 20
232.4347022490611
 30
0.0
 40
0.2
100
AcDbArc
 50
180.0
 51
270.0
  0
LINE
  5
153
330
2
100
AcDbEntity
  8
AM_CL
100
AcDbLine
 10
312.1631758339955
 20
246.8347022490611
 30
0.0
 11
312.1631758339955
 21
245.9347022490611
 31
0.0
  0
ARC
  5
154
330
2
100
AcDbEntity
  8
AM_CL
100
AcDbCircle
 10
312.3631758339956
 20
244.5903144499379
 30
0.0
 40
0.2
100
AcDbArc
 50
111.9983416915953
 51
180.0
  0
ARC
  5
155
330
2
100
AcDbEntity
  8
AM_CL
100
AcDbCircle
 10
311.3631758339956
 20
248.0347022490611
 30
0.0
 40
0.2
100
AcDbArc
 50
90.0
 51
180.0
  0
LINE
  5
156
330
2
100
AcDbEntity
  8
AM_CL
100
AcDbLine
 10
312.9126715433929
 20
245.7347022490611
 30
0.0
 11
312.3631758339956
 21
245.7347022490611
 31
0.0
  0
LINE
  5
157
330
2
100
AcDbEntity
  8
AM_CL
100
AcDbLine
 10
312.9131758339955
 20
245.7347022490611
 30
0.0
 11
312.3631758339956
 21
245.7347022490611
 31
0.0
  0
LINE
  5
158
330
2
100
AcDbEntity
  8
AM_CL
100
AcDbLine
 10
312.3631758339956
 20
247.0347022490611
 30
0.0
 11
339.9631758339956
 21
247.0347022490612
 31
0.0
  0
ARC
  5
159
330
2
100
AcDbEntity
  8
AM_CL
100
AcDbCircle
 10
312.3631758339956
 20
246.8347022490611
 30
0.0
 40
0.2
100
AcDbArc
 50
90.0
 51
180.0
  0
ARC
  5
15A
330
2
100
AcDbEntity
  8
AM_CL
100
AcDbCircle
 10
311.9136801245982
 20
245.702948085613
 30
0.0
 40
1.0
100
AcDbArc
 50
291.998341691597
 51
1.819685441252934
  0
ARC
  5
15B
330
2
100
AcDbEntity
  8
AM_CL
100
AcDbCircle
 10
312.3631758339956
 20
245.9347022490611
 30
0.0
 40
0.2
100
AcDbArc
 50
180.0
 51
270.0
  0
LINE
  5
15C
330
2
100
AcDbEntity
  8
AM_CL
100
AcDbLine
 10
311.1631758339955
 20
248.0347022490611
 30
0.0
 11
311.1631758339955
 21
232.4347022490611
 31
0.0
  0
LINE
  5
15D
330
2
100
AcDbEntity
  8
AM_CL
100
AcDbLine
 10
312.1631758339955
 20
244.5903144499379
 30
0.0
 11
312.1631758339955
 21
232.4347022490611
 31
0.0
  0
ARC
  5
15E
330
2
100
AcDbEntity
  8
AM_CL
100
AcDbCircle
 10
340.3631758339956
 20
232.4347022490611
 30
0.0
 40
0.2
100
AcDbArc
 50
180.0
 51
269.9999999999984
  0
ARC
  5
15F
330
2
100
AcDbEntity
  8
AM_CL
100
AcDbCircle
 10
340.9631758339955
 20
232.4347022490611
 30
0.0
 40
0.2
100
AcDbArc
 50
269.9999999999984
 51
0.0
  0
LINE
  5
160
330
2
100
AcDbEntity
  8
AM_CL
100
AcDbLine
 10
340.3631758339955
 20
232.2347022490611
 30
0.0
 11
340.9631758339955
 21
232.2347022490611
 31
0.0
  0
LINE
  5
161
330
2
100
AcDbEntity
  8
AM_CL
100
AcDbLine
 10
340.1631758339955
 20
246.8347022490611
 30
0.0
 11
340.1631758339955
 21
245.9347022490611
 31
0.0
  0
ARC
  5
162
330
2
100
AcDbEntity
  8
AM_CL
100
AcDbCircle
 10
339.9631758339956
 20
246.8347022490611
 30
0.0
 40
0.2
100
AcDbArc
 50
0.0
 51
90.0
  0
ARC
  5
163
330
2
100
AcDbEntity
  8
AM_CL
100
AcDbCircle
 10
339.9631758339956
 20
245.9347022490611
 30
0.0
 40
0.2
100
AcDbArc
 50
270.0
 51
0.0
  0
ARC
  5
164
330
2
100
AcDbEntity
  8
AM_CL
100
AcDbCircle
 10
339.9631758339956
 20
244.5903144499387
 30
0.0
 40
0.2
100
AcDbArc
 50
0.0
 51
68.00165830839069
  0
LINE
  5
165
330
2
100
AcDbEntity
  8
AM_CL
100
AcDbLine
 10
340.1631758339955
 20
244.5903144499387
 30
0.0
 11
340.1631758339955
 21
244.7345721818482
 31
0.0
  0
LINE
  5
166
330
2
100
AcDbEntity
  8
AM_CL
100
AcDbLine
 10
340.0380917855618
 20
244.7757533892179
 30
0.0
 11
340.1631758339955
 21
244.7345721818482
 31
0.0
  0
LINE
  5
167
330
2
100
AcDbEntity
  8
AM_CL
100
AcDbLine
 10
339.4136801245981
 20
245.7347022490611
 30
0.0
 11
339.9631758339956
 21
245.7347022490611
 31
0.0
  0
ARC
  5
168
330
2
100
AcDbEntity
  8
AM_CL
100
AcDbCircle
 10
340.4126715433928
 20
245.702948085613
 30
0.0
 40
1.0
100
AcDbArc
 50
178.1803145587454
 51
248.0016583083907
  0
ARC
  5
169
330
2
100
AcDbEntity
  8
AM_CL
100
AcDbCircle
 10
340.9631758339955
 20
248.0347022490611
 30
0.0
 40
0.2
100
AcDbArc
 50
0.0
 51
90.0
  0
LINE
  5
16A
330
2
100
AcDbEntity
  8
AM_CL
100
AcDbLine
 10
341.1631758339955
 20
248.0347022490611
 30
0.0
 11
341.1631758339955
 21
232.4347022490611
 31
0.0
  0
LINE
  5
16B
330
2
100
AcDbEntity
  8
AM_CL
100
AcDbLine
 10
340.1631758339955
 20
244.5903144499387
 30
0.0
 11
340.1631758339955
 21
232.4347022490611
 31
0.0
  0
LINE
  5
16C
330
2
100
AcDbEntity
  8
AM_CL
100
AcDbLine
 10
311.3631758339956
 20
248.2347022490611
 30
0.0
 11
340.9631758339955
 21
248.2347022490611
 31
0.0
  0
LINE
  5
16D
330
2
100
AcDbEntity
  8
AM_CL
100
AcDbLine
 10
341.1631735539957
 20
174.4304622448379
 30
0.0
 11
341.1631735539957
 21
229.8871378032476
 31
0.0
  0
LINE
  5
16E
330
2
100
AcDbEntity
  8
AM_CL
100
AcDbLine
 10
340.1891476539957
 20
174.4304622448379
 30
0.0
 11
340.1891476539957
 21
229.8871378032476
 31
0.0
  0
LINE
  5
16F
330
2
100
AcDbEntity
  8
AM_CL
100
AcDbLine
 10
312.1372017339958
 20
174.4304622448379
 30
0.0
 11
312.1372017339958
 21
229.8871378032476
 31
0.0
  0
LINE
  5
170
330
2
100
AcDbEntity
  8
AM_CL
100
AcDbLine
 10
311.1631758339958
 20
174.4304622448379
 30
0.0
 11
311.1631758339958
 21
229.8871378032476
 31
0.0
  0
ARC
  5
171
330
2
100
AcDbEntity
  8
AM_CL
100
AcDbCircle
 10
338.6307062139957
 20
246.839897069061
 30
0.0
 40
0.19480518
100
AcDbArc
 50
0.0
 51
90.0
  0
ARC
  5
172
330
2
100
AcDbEntity
  8
AM_CL
100
AcDbCircle
 10
337.6566803139957
 20
245.8658711690611
 30
0.0
 40
0.19480518
100
AcDbArc
 50
0.0
 51
90.0
  0
ARC
  5
173
330
2
100
AcDbEntity
  8
AM_CL
100
AcDbCircle
 10
325.4813565639957
 20
245.865871169061
 30
0.0
 40
0.19480518
100
AcDbArc
 50
0.0
 51
90.0
  0
ARC
  5
174
330
2
100
AcDbEntity
  8
AM_CL
100
AcDbCircle
 10
326.8449928239956
 20
245.865871169061
 30
0.0
 40
0.19480518
100
AcDbArc
 50
90.0
 51
180.0
  0
LINE
  5
175
330
2
100
AcDbEntity
  8
AM_CL
100
AcDbLine
 10
326.8449928239956
 20
246.0606763490611
 30
0.0
 11
337.6566803139957
 21
246.0606763490611
 31
0.0
  0
ARC
  5
176
330
2
100
AcDbEntity
  8
AM_CL
100
AcDbCircle
 10
314.6696690739956
 20
245.8658711690611
 30
0.0
 40
0.19480518
100
AcDbArc
 50
90.0
 51
180.0
  0
ARC
  5
177
330
2
100
AcDbEntity
  8
AM_CL
100
AcDbCircle
 10
313.6956431739956
 20
246.8398970690611
 30
0.0
 40
0.19480518
100
AcDbArc
 50
90.0
 51
180.0
  0
LINE
  5
178
330
2
100
AcDbEntity
  8
AM_CL
100
AcDbLine
 10
314.6696690739956
 20
246.0606763490611
 30
0.0
 11
325.4813565639957
 21
246.0606763490611
 31
0.0
  0
LINE
  5
179
330
2
100
AcDbEntity
  8
AM_CL
100
AcDbLine
 10
313.6956431739956
 20
247.0347022490611
 30
0.0
 11
338.6307062139957
 21
247.0347022490611
 31
0.0
  0
ARC
  5
17A
330
2
100
AcDbEntity
  8
AM_CL
100
AcDbCircle
 10
338.6307062139957
 20
232.2295074290611
 30
0.0
 40
0.19480518
100
AcDbArc
 50
270.0
 51
0.0
  0
ARC
  5
17B
330
2
100
AcDbEntity
  8
AM_CL
100
AcDbCircle
 10
338.0462906739956
 20
232.2295074290611
 30
0.0
 40
0.19480518
100
AcDbArc
 50
180.0
 51
270.0
  0
LINE
  5
17C
330
2
100
AcDbEntity
  8
AM_CL
100
AcDbLine
 10
329.0852523939957
 20
236.7265726373891
 30
0.0
 11
329.0852523939957
 21
232.0347022490611
 31
0.0
  0
LINE
  5
17D
330
2
100
AcDbEntity
  8
AM_CL
100
AcDbLine
 10
328.1112264939959
 20
236.4830661623892
 30
0.0
 11
328.1112264939959
 21
232.2295074290611
 31
0.0
  0
ARC
  5
17E
330
2
100
AcDbEntity
  8
AM_CL
100
AcDbCircle
 10
327.9164213139957
 20
232.2295074290611
 30
0.0
 40
0.19480518
100
AcDbArc
 50
270.0
 51
0.0
  0
ARC
  5
17F
330
2
100
AcDbEntity
  8
AM_CL
100
AcDbCircle
 10
325.4813565639957
 20
236.3987130450547
 30
0.0
 40
0.19480518
100
AcDbArc
 50
239.9999999999983
 51
0.0
  0
LINE
  5
180
330
2
100
AcDbEntity
  8
AM_CL
100
AcDbLine
 10
327.8677200189958
 20
236.7265726373891
 30
0.0
 11
329.0852523939957
 21
236.7265726373891
 31
0.0
  0
LINE
  5
181
330
2
100
AcDbEntity
  8
AM_CL
100
AcDbLine
 10
326.9423954139957
 20
236.2300068103859
 30
0.0
 11
327.7459667814958
 21
236.6939489557251
 31
0.0
  0
ARC
  5
182
330
2
100
AcDbEntity
  8
AM_CL
100
AcDbCircle
 10
327.8677200189958
 20
236.4830661623892
 30
0.0
 40
0.243506475
100
AcDbArc
 50
0.0
 51
120.0000000000001
  0
ARC
  5
183
330
2
100
AcDbEntity
  8
AM_CL
100
AcDbCircle
 10
326.8449928239956
 20
236.3987130450547
 30
0.0
 40
0.19480518
100
AcDbArc
 50
180.0
 51
300.0
  0
LINE
  5
184
330
2
100
AcDbEntity
  8
AM_CL
100
AcDbLine
 10
329.9813559939957
 20
238.2347022490611
 30
0.0
 11
335.9813559939957
 21
238.2347022490611
 31
0.0
  0
LINE
  5
185
330
2
100
AcDbEntity
  8
AM_CL
100
AcDbLine
 10
323.2410969939958
 20
236.7265726373891
 30
0.0
 11
323.2410969939958
 21
232.0347022490611
 31
0.0
  0
LINE
  5
186
330
2
100
AcDbEntity
  8
AM_CL
100
AcDbLine
 10
324.2151228939958
 20
236.4830661623892
 30
0.0
 11
324.2151228939958
 21
232.2295074290611
 31
0.0
  0
ARC
  5
187
330
2
100
AcDbEntity
  8
AM_CL
100
AcDbCircle
 10
324.4099280739956
 20
232.2295074290611
 30
0.0
 40
0.19480518
100
AcDbArc
 50
180.0
 51
270.0
  0
ARC
  5
188
330
2
100
AcDbEntity
  8
AM_CL
100
AcDbCircle
 10
324.4586293689958
 20
236.4830661623892
 30
0.0
 40
0.243506475
100
AcDbArc
 50
59.99999999999825
 51
180.0
  0
LINE
  5
189
330
2
100
AcDbEntity
  8
AM_CL
100
AcDbLine
 10
324.4586293689958
 20
236.7265726373891
 30
0.0
 11
323.2410969939958
 21
236.7265726373891
 31
0.0
  0
LINE
  5
18A
330
2
100
AcDbEntity
  8
AM_CL
100
AcDbLine
 10
313.6956431739956
 20
232.0347022490611
 30
0.0
 11
315.4488897939958
 21
232.0347022490611
 31
0.0
  0
ARC
  5
18B
330
2
100
AcDbEntity
  8
AM_CL
100
AcDbCircle
 10
314.2800587139956
 20
232.2295074290611
 30
0.0
 40
0.19480518
100
AcDbArc
 50
270.0
 51
0.0
  0
ARC
  5
18C
330
2
100
AcDbEntity
  8
AM_CL
100
AcDbCircle
 10
313.6956431739956
 20
232.2295074290611
 30
0.0
 40
0.19480518
100
AcDbArc
 50
180.0
 51
270.0
  0
LINE
  5
18D
330
2
100
AcDbEntity
  8
AM_CL
100
AcDbLine
 10
325.3839539739956
 20
236.2300068103859
 30
0.0
 11
324.5803826064959
 21
236.6939489557251
 31
0.0
  0
LINE
  5
18E
330
2
100
AcDbEntity
  8
AM_CL
100
AcDbLine
 10
323.2410969939958
 20
232.0347022490611
 30
0.0
 11
329.0852523939957
 21
232.0347022490611
 31
0.0
  0
LINE
  5
18F
330
2
100
AcDbEntity
  8
AM_CL
100
AcDbLine
 10
336.8774595939957
 20
232.0347022490611
 30
0.0
 11
338.6307062139957
 21
232.0347022490611
 31
0.0
  0
LINE
  5
190
330
2
100
AcDbEntity
  8
AM_CL
100
AcDbLine
 10
335.9813559939957
 20
188.0701856647571
 30
0.0
 11
329.9813559939957
 21
188.0701856647569
 31
0.0
  0
LINE
  5
191
330
2
100
AcDbEntity
  8
AM_CL
100
AcDbLine
 10
336.8774595939957
 20
246.0606763490611
 30
0.0
 11
336.8774595939957
 21
232.0347022490611
 31
0.0
  0
LINE
  5
192
330
2
100
AcDbEntity
  8
AM_CL
100
AcDbLine
 10
313.5008379939959
 20
246.8398970690611
 30
0.0
 11
313.5008379939959
 21
232.2295074290611
 31
0.0
  0
LINE
  5
193
330
2
100
AcDbEntity
  8
AM_CL
100
AcDbLine
 10
315.4488897939958
 20
246.0606763490609
 30
0.0
 11
315.4488897939958
 21
232.0347022490611
 31
0.0
  0
LINE
  5
194
330
2
100
AcDbEntity
  8
AM_CL
100
AcDbLine
 10
314.4748638939958
 20
245.8658711690611
 30
0.0
 11
314.4748638939958
 21
232.2295074290611
 31
0.0
  0
LINE
  5
195
330
2
100
AcDbEntity
  8
AM_CL
100
AcDbLine
 10
337.8514854939958
 20
245.8658711690611
 30
0.0
 11
337.8514854939958
 21
232.2295074290611
 31
0.0
  0
LINE
  5
196
330
2
100
AcDbEntity
  8
AM_CL
100
AcDbLine
 10
326.6501876439958
 20
245.865871169061
 30
0.0
 11
326.6501876439958
 21
236.3987130450547
 31
0.0
  0
LINE
  5
197
330
2
100
AcDbEntity
  8
AM_CL
100
AcDbLine
 10
325.6761617439957
 20
245.865871169061
 30
0.0
 11
325.6761617439957
 21
236.3987130450547
 31
0.0
  0
LINE
  5
198
330
2
100
AcDbEntity
  8
AM_CL
100
AcDbLine
 10
338.8255113939958
 20
246.839897069061
 30
0.0
 11
338.8255113939958
 21
232.2295074290611
 31
0.0
  0
HATCH
  5
199
330
2
100
AcDbEntity
  8
AM_CL
100
AcDbHatch
 10
0.0
 20
0.0
 30
0.0
210
0.0
220
0.0
230
1.0
  2
SOLID
 70
     1
 71
     0
 91
        4
 92
        7
 72
     1
 73
     1
 93
        6
 10
314.4748638939958
 20
232.229507429061
 42
-0.4142135623730398
 10
314.2800587139956
 20
232.0347022490611
 42
0.0
 10
315.4488897939958
 20
232.0347022490611
 42
0.0
 10
315.4488897939958
 20
245.6710648490611
 42
0.0
 10
314.6696690739956
 20
245.6710648490611
 42
0.4142135623730406
 10
314.4748638939958
 20
245.4762596690611
 42
0.0
 97
        0
 92
        7
 72
     1
 73
     1
 93
        6
 10
323.2410969939958
 20
232.0347022490611
 42
0.0
 10
324.4099280739956
 20
232.0347022490611
 42
-0.4142135623730379
 10
324.2151228939958
 20
232.2295074290612
 42
0.0
 10
324.2151228939958
 20
236.4830661623891
 42
-0.4142135623731037
 10
324.4586293689958
 20
236.7265726373891
 42
0.0
 10
323.2410969939958
 20
236.7265726373893
 42
0.0
 97
        0
 92
        7
 72
     1
 73
     1
 93
        6
 10
328.1112264939959
 20
232.229507429061
 42
-0.4142135623730392
 10
327.9164213139957
 20
232.0347022490611
 42
0.0
 10
329.0852523939957
 20
232.0347022490611
 42
0.0
 10
329.0852523939957
 20
236.7265726373891
 42
0.0
 10
327.8677200189958
 20
236.7265726373891
 42
-0.4142135623731037
 10
328.1112264939959
 20
236.4830661623891
 42
0.0
 97
        0
 92
        7
 72
     1
 73
     1
 93
        6
 10
336.8774595939957
 20
232.0347022490611
 42
0.0
 10
338.0462906739956
 20
232.0347022490611
 42
-0.41421356237304
 10
337.8514854939958
 20
232.229507429061
 42
0.0
 10
337.8514854939958
 20
245.4762596690611
 42
0.4142135623730406
 10
337.6566803139957
 20
245.6710648490611
 42
0.0
 10
336.8774595939957
 20
245.6710648490611
 42
0.0
 97
        0
 75
     0
 76
     1
 47
0.0315567598989463
 98
        4
 10
314.8169077981247
 20
242.7277440673709
 10
323.5501058954012
 20
235.0229773047402
 10
328.388215566243
 20
234.8180632818447
 10
337.2034155629976
 20
236.8262206487324
450
        0
451
        0
460
0.0
461
0.0
452
        0
462
0.0
453
        0
470

  0
MTEXT
  5
19A
102
{ACAD_XDICTIONARY
360
315
102
}
330
2
100
AcDbEntity
  8
AM_0
100
AcDbMText
 10
311.736237990837
 20
12.20259903832584
 30
0.0
 40
5.0
 41
143.4216733775022
 71
     1
 72
     5
  1
{\fArial|b0|i0|c0|p34;Supra Rahmenbeschlag bis 8mm Glasst\U+00E4rke}
 73
     1
 44
1.0
  0
MTEXT
  5
19E
330
2
100
AcDbEntity
  8
AM_CL
100
AcDbMText
 10
223.9738054799634
 20
9.119388179637439
 30
0.0
 40
2.5
 41
29.85933839171366
 71
     1
 72
     5
  1
222379_22.09.09
 11
0.0000000000000001
 21
1.0
 31
0.0
 73
     1
 44
1.0
  0
INSERT
  5
19F
330
2
100
AcDbEntity
  8
AM_4
100
AcDbBlockReference
  2
BORDER
 10
218.908583376935
 20
0.0
 30
0.0
 41
210.0
 42
297.0
 43
210.0
  0
INSERT
  5
2C1
330
2
100
AcDbEntity
  8
AM_7
  6
AM_ISO08W050x2
100
AcDbBlockReference
  2
Schutzvermerk
 10
225.908583376935
 20
189.5000000000059
 30
0.0
  0
INSERT
  5
309
330
2
100
AcDbEntity
  8
AM_7
  6
AM_ISO08W050x2
100
AcDbBlockReference
  2
VITRIS_LOGO
 10
218.908583376935
 20
297.0000000000119
 30
0.0
  0
ENDSEC
  0
SECTION
  2
OBJECTS
  0
DICTIONARY
  5
B
330
0
100
AcDbDictionary
281
     1
  3
ACAD_COLOR
350
34
  3
ACAD_GROUP
350
2F
  3
ACAD_IMAGE_DICT
350
5F
  3
ACAD_IMAGE_VARS
350
23A
  3
ACAD_LAYOUT
350
11
  3
ACAD_MATERIAL
350
D
  3
ACAD_MLEADERSTYLE
350
235
  3
ACAD_MLINESTYLE
350
30
  3
ACAD_PLOTSETTINGS
350
31
  3
ACAD_PLOTSTYLENAME
350
A
  3
ACAD_SCALELIST
350
35
  3
ACAD_TABLESTYLE
350
36
  3
ACAD_VISUALSTYLE
350
14
  3
ACDB_RECOMPOSE_DATA
350
30C
  3
AcDbVariableDictionary
350
20C
  3
AcmDictionary
350
1B7
  3
AMG
350
1A9
  3
AMGSNAPSETTINGS
350
2B0
  0
DICTIONARY
  5
1B
330
1A
100
AcDbDictionary
280
     1
281
     1
  3
ACAD_LAYERSTATES
360
1C
  0
DICTIONARY
  5
7
330
6
100
AcDbDictionary
280
     1
281
     1
  3
ADSK_XREC_LAYER_RECONCILED
360
8
  0
DICTIONARY
  5
19C
330
19B
100
AcDbDictionary
280
     1
281
     1
  3
ADSK_XREC_LAYER_RECONCILED
360
19D
  0
DICTIONARY
  5
55
330
54
100
AcDbDictionary
280
     1
281
     1
  0
DICTIONARY
  5
38
330
37
100
AcDbDictionary
280
     1
281
     1
  0
DICTIONARY
  5
5D
330
5C
100
AcDbDictionary
280
     1
281
     1
  0
DICTIONARY
  5
3
330
2
100
AcDbDictionary
280
     1
281
     1
  3
ACAD_SORTENTS
360
1A7
  0
DICTIONARY
  5
2BC
330
2B8
100
AcDbDictionary
280
     1
281
     1
  3
ACAD_SORTENTS
360
2BD
  0
DICTIONARY
  5
304
330
2C7
100
AcDbDictionary
280
     1
281
     1
  3
ACAD_SORTENTS
360
305
  0
DICTIONARY
  5
315
330
19A
100
AcDbDictionary
280
     1
281
     1
  3
ACAD_MTEXT_2008_RT
360
316
  0
DICTIONARY
  5
34
102
{ACAD_REACTORS
330
B
102
}
330
B
100
AcDbDictionary
281
     1
  0
DICTIONARY
  5
2F
102
{ACAD_REACTORS
330
B
102
}
330
B
100
AcDbDictionary
281
     1
  0
DICTIONARY
  5
5F
102
{ACAD_REACTORS
330
B
102
}
330
B
100
AcDbDictionary
281
     1
  3
Vitris_Logo_rgb
350
5E
  0
RASTERVARIABLES
  5
23A
102
{ACAD_REACTORS
330
B
102
}
330
B
100
AcDbRasterVariables
 90
        0
 70
     1
 71
     1
 72
     1
  0
DICTIONARY
  5
11
102
{ACAD_REACTORS
330
B
102
}
330
B
100
AcDbDictionary
281
     1
  3
Layout1
350
19
  3
Model
350
10
  0
DICTIONARY
  5
D
102
{ACAD_REACTORS
330
B
102
}
330
B
100
AcDbDictionary
281
     1
  3
ByBlock
350
33
  3
ByLayer
350
32
  3
Global
350
C
  0
DICTIONARY
  5
235
102
{ACAD_REACTORS
330
B
102
}
330
B
100
AcDbDictionary
281
     1
  3
Standard
350
236
  0
DICTIONARY
  5
30
102
{ACAD_REACTORS
330
B
102
}
330
B
100
AcDbDictionary
281
     1
  3
Standard
350
3B
  0
DICTIONARY
  5
31
102
{ACAD_REACTORS
330
B
102
}
330
B
100
AcDbDictionary
281
     1
  0
ACDBDICTIONARYWDFLT
  5
A
102
{ACAD_REACTORS
330
B
102
}
330
B
100
AcDbDictionary
281
     1
  3
Normal
350
9
100
AcDbDictionaryWithDefault
340
9
  0
DICTIONARY
  5
35
102
{ACAD_REACTORS
330
B
102
}
330
B
100
AcDbDictionary
281
     1
  3
A0
350
42
  3
A1
350
43
  3
A2
350
44
  3
A3
350
45
  3
A4
350
46
  3
A5
350
47
  3
A6
350
48
  3
A7
350
49
  3
A8
350
4A
  3
A9
350
4B
  3
B0
350
4C
  3
B1
350
4D
  3
B2
350
4E
  3
B3
350
4F
  3
B4
350
50
  3
B5
350
51
  3
B6
350
52
  0
DICTIONARY
  5
36
102
{ACAD_REACTORS
330
B
102
}
330
B
100
AcDbDictionary
281
     1
  3
Standard
350
40
  3
Willach
350
3C
  0
DICTIONARY
  5
14
102
{ACAD_REACTORS
330
B
102
}
330
B
100
AcDbDictionary
281
     1
  3
2dWireframe
350
13
  3
3dWireframe
350
3F
  3
Basic
350
223
  3
Brighten
350
228
  3
ColorChange
350
22C
  3
Conceptual
350
226
  3
Dim
350
227
  3
EdgeColorOff
350
234
  3
Facepattern
350
22B
  3
Flat
350
21F
  3
FlatWithEdges
350
220
  3
Gouraud
350
221
  3
GouraudWithEdges
350
222
  3
Hidden
350
225
  3
JitterOff
350
232
  3
Linepattern
350
22A
  3
OverhangOff
350
233
  3
Realistic
350
3E
  3
Shaded
350
231
  3
Shaded with edges
350
230
  3
Shades of Gray
350
22D
  3
Sketchy
350
22E
  3
Thicken
350
229
  3
Wireframe
350
224
  3
X-Ray
350
22F
  0
XRECORD
  5
30C
102
{ACAD_REACTORS
330
B
102
}
330
B
100
AcDbXrecord
280
     1
 90
        1
330
3C
330
40
  0
DICTIONARY
  5
20C
102
{ACAD_REACTORS
330
B
102
}
330
B
100
AcDbDictionary
281
     1
  3
CANNOSCALE
350
20F
  3
CMLEADERSTYLE
350
20E
  3
CTABLESTYLE
350
20D
  0
DICTIONARY
  5
1B7
102
{ACAD_REACTORS
330
B
102
}
330
B
100
AcDbDictionary
281
     1
  3
AcmStdDictionary
350
1B8
  0
DICTIONARY
  5
1A9
102
{ACAD_REACTORS
330
B
102
}
330
B
100
AcDbDictionary
281
     1
  0
DICTIONARY
  5
2B0
102
{ACAD_REACTORS
330
B
102
}
330
B
100
AcDbDictionary
281
     1
  0
DICTIONARY
  5
1C
102
{ACAD_REACTORS
330
1B
102
}
330
1B
100
AcDbDictionary
281
     1
  0
XRECORD
  5
8
102
{ACAD_REACTORS
330
7
102
}
330
7
100
AcDbXrecord
280
     1
290
     1
  0
XRECORD
  5
19D
102
{ACAD_REACTORS
330
19C
102
}
330
19C
100
AcDbXrecord
280
     1
290
     1
  0
SORTENTSTABLE
  5
1A7
102
{ACAD_REACTORS
330
3
102
}
330
3
100
AcDbSortentsTable
330
2
331
15E
  5
9F
331
15A
  5
A3
331
156
  5
A7
331
195
  5
68
331
191
  5
6C
331
152
  5
AB
331
D7
  5
126
331
D3
  5
12A
331
6D
  5
190
331
CF
  5
12E
331
11E
  5
DF
331
69
  5
194
331
A4
  5
159
331
CB
  5
132
331
11A
  5
E3
331
A0
  5
15D
331
14E
  5
AF
331
18D
  5
70
331
14A
  5
B3
331
189
  5
74
331
146
  5
B7
331
185
  5
78
331
181
  5
7C
331
142
  5
BB
331
116
  5
E7
331
C7
  5
136
331
C3
  5
13A
331
112
  5
EB
331
9C
  5
161
331
98
  5
165
331
BF
  5
13E
331
10E
  5
EF
331
94
  5
169
331
BB
  5
142
331
10A
  5
F3
331
90
  5
16D
331
17D
  5
80
331
F3
  5
10A
331
13E
  5
BF
331
13A
  5
C3
331
179
  5
84
331
136
  5
C7
331
175
  5
88
331
198
  5
5B
331
132
  5
CB
331
171
  5
8C
331
106
  5
F9
331
B7
  5
146
331
B3
  5
14A
331
102
  5
FD
331
8C
  5
171
331
AF
  5
14E
331
EE
  5
10F
331
88
  5
175
331
84
  5
179
331
AB
  5
152
331
EA
  5
113
331
80
  5
17D
331
16D
  5
90
331
12E
  5
CF
331
12A
  5
D3
331
169
  5
94
331
126
  5
D7
331
165
  5
98
331
122
  5
DB
331
161
  5
9C
331
E6
  5
117
331
FF
  5
100
331
E2
  5
11B
331
7C
  5
181
331
FB
  5
104
331
DE
  5
11F
331
78
  5
185
331
74
  5
189
331
DA
  5
123
331
70
  5
18D
331
15D
  5
A0
331
159
  5
A4
331
155
  5
A8
331
194
  5
69
331
190
  5
6D
331
151
  5
AC
331
D6
  5
127
331
D2
  5
12B
331
6C
  5
191
331
A7
  5
156
331
CE
  5
12F
331
11D
  5
E0
331
68
  5
195
331
A3
  5
15A
331
CA
  5
133
331
119
  5
E4
331
14D
  5
B0
331
18C
  5
71
331
149
  5
B4
331
188
  5
75
331
145
  5
B8
331
184
  5
79
331
180
  5
7D
331
141
  5
BC
331
115
  5
E8
331
9F
  5
15E
331
C6
  5
137
331
C2
  5
13B
331
111
  5
EC
331
9B
  5
162
331
97
  5
166
331
BE
  5
13F
331
10D
  5
F0
331
93
  5
16A
331
BA
  5
143
331
109
  5
F4
331
57
  5
19E
331
F6
  5
107
331
13D
  5
C0
331
17C
  5
81
331
F2
  5
10B
331
139
  5
C4
331
178
  5
85
331
19F
  5
53
331
135
  5
C8
331
174
  5
89
331
170
  5
8D
331
131
  5
CC
331
105
  5
FA
331
8F
  5
16E
331
B6
  5
147
331
B2
  5
14B
331
101
  5
FE
331
8B
  5
172
331
87
  5
176
331
AE
  5
14F
331
ED
  5
110
331
83
  5
17A
331
AA
  5
153
331
E9
  5
114
331
16C
  5
91
331
12D
  5
D0
331
129
  5
D4
331
168
  5
95
331
125
  5
D8
331
164
  5
99
331
121
  5
DC
331
160
  5
9D
331
E5
  5
118
331
7F
  5
17E
331
FE
  5
101
331
FA
  5
105
331
E1
  5
11C
331
7B
  5
182
331
DD
  5
120
331
77
  5
186
331
73
  5
18A
331
D9
  5
124
331
15C
  5
A1
331
158
  5
A5
331
197
  5
61
331
154
  5
A9
331
193
  5
6A
331
150
  5
AD
331
D5
  5
128
331
6F
  5
18E
331
D1
  5
12C
331
6B
  5
192
331
A6
  5
157
331
CD
  5
130
331
11C
  5
E1
331
118
  5
E5
331
A2
  5
15B
331
C9
  5
134
331
18F
  5
6E
331
14C
  5
B1
331
18B
  5
72
331
5A
  5
199
331
148
  5
B5
331
187
  5
76
331
144
  5
B9
331
183
  5
7A
331
140
  5
BD
331
114
  5
E9
331
9E
  5
15F
331
C5
  5
138
331
C1
  5
13C
331
110
  5
ED
331
9A
  5
163
331
96
  5
167
331
BD
  5
140
331
10C
  5
F1
331
92
  5
16B
331
B9
  5
144
331
108
  5
F5
331
17F
  5
7E
331
F5
  5
108
331
13C
  5
C1
331
17B
  5
82
331
F1
  5
10C
331
138
  5
C5
331
177
  5
86
331
19E
  5
57
331
19A
  5
59
331
134
  5
C9
331
173
  5
8A
331
130
  5
CD
331
104
  5
FB
331
8E
  5
16F
331
B5
  5
148
331
B1
  5
14C
331
100
  5
FF
331
8A
  5
173
331
86
  5
177
331
AD
  5
150
331
EC
  5
111
331
82
  5
17B
331
A9
  5
154
331
E8
  5
115
331
16F
  5
8E
331
12C
  5
D1
331
16B
  5
92
331
128
  5
D5
331
167
  5
96
331
124
  5
D9
331
163
  5
9A
331
120
  5
DD
331
E4
  5
119
331
7E
  5
17F
331
FD
  5
102
331
F9
  5
106
331
E0
  5
11D
331
7A
  5
183
331
76
  5
187
331
DC
  5
121
331
72
  5
18B
331
D8
  5
125
331
15F
  5
9E
331
65
  5
196
331
15B
  5
A2
331
61
  5
197
331
157
  5
A6
331
196
  5
65
331
192
  5
6B
331
153
  5
AA
331
D4
  5
129
331
6E
  5
18F
331
D0
  5
12D
331
11F
  5
DE
331
6A
  5
193
331
A5
  5
158
331
CC
  5
131
331
11B
  5
E2
331
A1
  5
15C
331
C8
  5
135
331
18E
  5
6F
331
14F
  5
AE
331
14B
  5
B2
331
18A
  5
73
331
59
  5
19A
331
147
  5
B6
331
186
  5
77
331
143
  5
BA
331
182
  5
7B
331
117
  5
E6
331
C4
  5
139
331
113
  5
EA
331
9D
  5
160
331
C0
  5
13D
331
10F
  5
EE
331
99
  5
164
331
95
  5
168
331
BC
  5
141
331
10B
  5
F2
331
91
  5
16C
331
B8
  5
145
331
17E
  5
7F
331
F4
  5
109
331
13F
  5
BE
331
F0
  5
10D
331
13B
  5
C2
331
17A
  5
83
331
137
  5
C6
331
176
  5
87
331
199
  5
5A
331
133
  5
CA
331
172
  5
8B
331
107
  5
F6
331
103
  5
FC
331
8D
  5
170
331
B4
  5
149
331
B0
  5
14D
331
EF
  5
10E
331
89
  5
174
331
85
  5
178
331
AC
  5
151
331
EB
  5
112
331
81
  5
17C
331
A8
  5
155
331
16E
  5
8F
331
12F
  5
CE
331
12B
  5
D2
331
16A
  5
93
331
127
  5
D6
331
166
  5
97
331
123
  5
DA
331
162
  5
9B
331
E7
  5
116
331
E3
  5
11A
331
7D
  5
180
331
FC
  5
103
331
DF
  5
11E
331
79
  5
184
331
75
  5
188
331
DB
  5
122
331
71
  5
18C
  0
SORTENTSTABLE
  5
2BD
102
{ACAD_REACTORS
330
2BC
102
}
330
2BC
100
AcDbSortentsTable
330
2B8
  0
SORTENTSTABLE
  5
305
102
{ACAD_REACTORS
330
304
102
}
330
304
100
AcDbSortentsTable
330
2C7
  0
XRECORD
  5
316
102
{ACAD_REACTORS
330
315
102
}
330
315
100
AcDbXrecord
280
     1
 40
209224.0
  1
{\fArial|b0|i0|c0|p34;Supra Rahmenbeschlag bis 8mm Glasstärke}
  0
IMAGEDEF
  5
5E
102
{ACAD_REACTORS
330
5F
330
60
102
}
330
5F
100
AcDbRasterImageDef
 90
        0
  1
C:\Documents and Settings\Dm\Desktop\Vitris_Logo_rgb.JPG
 10
378.0
 20
146.0
 11
0.1693333333333333
 21
0.1693333333333333
280
     1
281
     5
  0
LAYOUT
  5
19
102
{ACAD_REACTORS
330
11
102
}
330
11
100
AcDbPlotSettings
  1

  2

  4

  6

 40
0.0
 41
0.0
 42
0.0
 43
0.0
 44
0.0
 45
0.0
 46
0.0
 47
0.0
 48
0.0
 49
0.0
140
0.0
141
0.0
142
1.0
143
1.0
 70
   688
 72
     0
 73
     0
 74
     5
  7
HP 4050_schwarz_duenner.ctb
 75
    16
147
1.0
 76
     0
 77
     2
 78
   300
148
0.0
149
0.0
100
AcDbLayout
  1
Layout1
 70
     1
 71
     1
 10
0.0
 20
0.0
 11
420.0
 21
297.0
 12
0.0
 22
0.0
 32
0.0
 14
1.000000000000000E+20
 24
1.000000000000000E+20
 34
1.000000000000000E+20
 15
-1.000000000000000E+20
 25
-1.000000000000000E+20
 35
-1.000000000000000E+20
146
0.0
 13
0.0
 23
0.0
 33
0.0
 16
1.0
 26
0.0
 36
0.0
 17
0.0
 27
1.0
 37
0.0
 76
     0
330
16
  0
LAYOUT
  5
10
102
{ACAD_REACTORS
330
11
102
}
330
11
100
AcDbPlotSettings
  1
DWF_Page
  2
DWF6 ePlot.pc3
  4
ISO_A3_(420.00_x_297.00_MM)
  6
AM_VIEW1
 40
5.793749809265136
 41
17.79375076293945
 42
5.79376220703125
 43
17.79376220703125
 44
420.0
 45
297.0
 46
0.0
 47
75.90656845827492
 48
1701.618145564118
 49
9.522985938868259
140
2702.390645564927
141
454.1229859406889
142
1.0
143
11.25293470015486
 70
 11956
 72
     1
 73
     0
 74
     1
  7
DWF_Mono.ctb
 75
     0
147
0.0888657071818109
 76
     1
 77
     2
 78
   300
148
1702.661462903077
149
-38.94237863787976
100
AcDbLayout
  1
Model
 70
     1
 71
     0
 10
0.0
 20
0.0
 11
12.0
 21
9.0
 12
0.0
 22
0.0
 32
0.0
 14
0.0
 24
0.0
 34
0.0
 15
0.0
 25
0.0
 35
0.0
146
0.0
 13
0.0
 23
0.0
 33
0.0
 16
1.0
 26
0.0
 36
0.0
 17
0.0
 27
1.0
 37
0.0
 76
     0
330
2
331
26
1001
ACAD_PSEXT
1000
DWF6 ePlot.pc3
1000
DWF6 ePlot
1000
Datei
1000

1070
     0
  0
MATERIAL
  5
33
102
{ACAD_XDICTIONARY
360
218
102
}
102
{ACAD_REACTORS
330
D
102
}
330
D
100
AcDbMaterial
  1
ByBlock
 73
     1
 78
     1
172
     1
176
     1
270
     1
274
     1
  0
MATERIAL
  5
32
102
{ACAD_XDICTIONARY
360
216
102
}
102
{ACAD_REACTORS
330
D
102
}
330
D
100
AcDbMaterial
  1
ByLayer
 73
     1
 78
     1
172
     1
176
     1
270
     1
274
     1
  0
MATERIAL
  5
C
102
{ACAD_XDICTIONARY
360
214
102
}
102
{ACAD_REACTORS
330
D
102
}
330
D
100
AcDbMaterial
  1
Global
 73
     1
 78
     1
172
     1
176
     1
270
     1
274
     1
  0
MLEADERSTYLE
  5
236
102
{ACAD_REACTORS
330
235
102
}
330
235
100
AcDbMLeaderStyle
170
     2
171
     1
172
     0
 90
        2
 40
0.0
 41
0.0
173
     1
 91
-1056964608
340
21
 92
       -2
290
     1
 42
2.0
291
     1
 43
0.36
  3
Standard
 44
4.0
300

342
1E
174
     1
178
     6
175
     1
176
     0
 93
-1056964608
 45
4.0
292
     0
297
     0
 46
4.0
 94
-1056964608
 47
1.0
 49
1.0
140
1.0
293
     1
141
0.0
294
     1
177
     0
142
1.0
295
     0
296
     0
143
0.125
1001
ACAD_MLEADERVER
1070
     2
  0
MLINESTYLE
  5
3B
102
{ACAD_REACTORS
330
30
102
}
330
30
100
AcDbMlineStyle
  2
STANDARD
 70
     0
  3

 62
   256
 51
90.0
 52
90.0
 71
     2
 49
0.5
 62
   256
  6
BYLAYER
 49
-0.5
 62
   256
  6
BYLAYER
  0
ACDBPLACEHOLDER
  5
9
102
{ACAD_REACTORS
330
A
102
}
330
A
  0
SCALE
  5
42
102
{ACAD_REACTORS
330
35
102
}
330
35
100
AcDbScale
 70
     0
300
1:1
140
1.0
141
1.0
290
     1
  0
SCALE
  5
43
102
{ACAD_REACTORS
330
35
102
}
330
35
100
AcDbScale
 70
     0
300
1:2
140
1.0
141
2.0
290
     0
  0
SCALE
  5
44
102
{ACAD_REACTORS
330
35
102
}
330
35
100
AcDbScale
 70
     0
300
1:4
140
1.0
141
4.0
290
     0
  0
SCALE
  5
45
102
{ACAD_REACTORS
330
35
102
}
330
35
100
AcDbScale
 70
     0
300
1:5
140
1.0
141
5.0
290
     0
  0
SCALE
  5
46
102
{ACAD_REACTORS
330
35
102
}
330
35
100
AcDbScale
 70
     0
300
1:8
140
1.0
141
8.0
290
     0
  0
SCALE
  5
47
102
{ACAD_REACTORS
330
35
102
}
330
35
100
AcDbScale
 70
     0
300
1:10
140
1.0
141
10.0
290
     0
  0
SCALE
  5
48
102
{ACAD_REACTORS
330
35
102
}
330
35
100
AcDbScale
 70
     0
300
1:16
140
1.0
141
16.0
290
     0
  0
SCALE
  5
49
102
{ACAD_REACTORS
330
35
102
}
330
35
100
AcDbScale
 70
     0
300
1:20
140
1.0
141
20.0
290
     0
  0
SCALE
  5
4A
102
{ACAD_REACTORS
330
35
102
}
330
35
100
AcDbScale
 70
     0
300
1:30
140
1.0
141
30.0
290
     0
  0
SCALE
  5
4B
102
{ACAD_REACTORS
330
35
102
}
330
35
100
AcDbScale
 70
     0
300
1:40
140
1.0
141
40.0
290
     0
  0
SCALE
  5
4C
102
{ACAD_REACTORS
330
35
102
}
330
35
100
AcDbScale
 70
     0
300
1:50
140
1.0
141
50.0
290
     0
  0
SCALE
  5
4D
102
{ACAD_REACTORS
330
35
102
}
330
35
100
AcDbScale
 70
     0
300
1:100
140
1.0
141
100.0
290
     0
  0
SCALE
  5
4E
102
{ACAD_REACTORS
330
35
102
}
330
35
100
AcDbScale
 70
     0
300
2:1
140
2.0
141
1.0
290
     0
  0
SCALE
  5
4F
102
{ACAD_REACTORS
330
35
102
}
330
35
100
AcDbScale
 70
     0
300
4:1
140
4.0
141
1.0
290
     0
  0
SCALE
  5
50
102
{ACAD_REACTORS
330
35
102
}
330
35
100
AcDbScale
 70
     0
300
8:1
140
8.0
141
1.0
290
     0
  0
SCALE
  5
51
102
{ACAD_REACTORS
330
35
102
}
330
35
100
AcDbScale
 70
     0
300
10:1
140
10.0
141
1.0
290
     0
  0
SCALE
  5
52
102
{ACAD_REACTORS
330
35
102
}
330
35
100
AcDbScale
 70
     0
300
100:1
140
100.0
141
1.0
290
     0
  0
TABLESTYLE
  5
40
102
{ACAD_XDICTIONARY
360
41
102
}
102
{ACAD_REACTORS
330
36
102
}
330
36
100
AcDbTableStyle
  3
Standard
 70
     0
 71
     0
 40
1.5
 41
1.5
280
     0
281
     0
  7
Standard
140
4.5
170
     2
 62
     0
 63
     7
283
     0
274
    -2
284
     1
 64
     0
275
    -2
285
     1
 65
     0
276
    -2
286
     1
 66
     0
277
    -2
287
     1
 67
     0
278
    -2
288
     1
 68
     0
279
    -2
289
     1
 69
     0
  7
Standard
140
6.0
170
     5
 62
     0
 63
     7
283
     0
274
    -2
284
     1
 64
     0
275
    -2
285
     1
 65
     0
276
    -2
286
     1
 66
     0
277
    -2
287
     1
 67
     0
278
    -2
288
     1
 68
     0
279
    -2
289
     1
 69
     0
  7
Standard
140
4.5
170
     5
 62
     0
 63
     7
283
     0
274
    -2
284
     1
 64
     0
275
    -2
285
     1
 65
     0
276
    -2
286
     1
 66
     0
277
    -2
287
     1
 67
     0
278
    -2
288
     1
 68
     0
279
    -2
289
     1
 69
     0
  0
TABLESTYLE
  5
3C
102
{ACAD_XDICTIONARY
360
3D
102
}
102
{ACAD_REACTORS
330
36
102
}
330
36
100
AcDbTableStyle
  3
Standard
 70
     0
 71
     0
 40
1.5
 41
1.5
280
     0
281
     0
  7
Standard
140
3.5
170
     5
 62
     2
 63
     7
283
     0
274
    -2
284
     1
 64
     0
275
    -2
285
     1
 65
     0
276
    -2
286
     1
 66
     0
277
    -2
287
     1
 67
     0
278
    -2
288
     1
 68
     0
279
    -2
289
     1
 69
     0
  7
Standard
140
5.0
170
     5
 62
     7
 63
     7
283
     0
274
    -2
284
     1
 64
     0
275
    -2
285
     1
 65
     0
276
    -2
286
     1
 66
     0
277
    -2
287
     1
 67
     0
278
    -2
288
     1
 68
     0
279
    -2
289
     1
 69
     0
  7
Standard
140
3.5
170
     5
 62
     2
 63
   254
283
     1
274
    -2
284
     1
 64
     0
275
    -2
285
     1
 65
     0
276
    -2
286
     1
 66
     0
277
    -2
287
     1
 67
     0
278
    -2
288
     1
 68
     0
279
    -2
289
     1
 69
     0
  0
VISUALSTYLE
  5
13
102
{ACAD_XDICTIONARY
360
30D
102
}
102
{ACAD_REACTORS
330
14
102
}
330
14
100
AcDbVisualStyle
  2

 70
     4
 71
     0
 72
     2
 73
     0
 90
        0
 40
-0.6
 41
-30.0
 62
     5
 63
     7
421
 16777215
 74
     1
 91
        4
 64
     7
 65
   257
 75
     1
175
     1
 42
1.0
 92
        0
 66
   257
 43
1.0
 76
     1
 77
     6
 78
     2
 67
     7
 79
     5
170
     0
171
     0
290
     0
174
     0
 93
        1
 44
0.0
173
     0
291
     0
 45
0.0
1001
ACAD
1000
AcDbSavedByObjectVersion
1070
     0
  0
VISUALSTYLE
  5
3F
102
{ACAD_XDICTIONARY
360
312
102
}
102
{ACAD_REACTORS
330
14
102
}
330
14
100
AcDbVisualStyle
  2

 70
     5
 71
     0
 72
     2
 73
     0
 90
        0
 40
-0.6
 41
-30.0
 62
     5
 63
     7
421
 16777215
 74
     1
 91
        4
 64
     7
 65
   257
 75
     1
175
     1
 42
1.0
 92
        0
 66
   257
 43
1.0
 76
     1
 77
     6
 78
     2
 67
     7
 79
     5
170
     0
171
     0
290
     0
174
     0
 93
        1
 44
0.0
173
     0
291
     0
 45
0.0
1001
ACAD
1000
AcDbSavedByObjectVersion
1070
     0
  0
VISUALSTYLE
  5
223
102
{ACAD_XDICTIONARY
360
31F
102
}
102
{ACAD_REACTORS
330
14
102
}
330
14
100
AcDbVisualStyle
  2
Basic
 70
     7
 71
     1
 72
     0
 73
     1
 90
        0
 40
-0.6
 41
-30.0
 62
     5
 63
     7
421
 16777215
 74
     0
 91
        4
 64
     7
 65
   257
 75
     1
175
     1
 42
1.0
 92
        8
 66
     7
 43
1.0
 76
     1
 77
     6
 78
     2
 67
     7
 79
     5
170
     0
171
     0
290
     0
174
     0
 93
        1
 44
0.0
173
     0
291
     1
 45
0.0
1001
ACAD
1000
AcDbSavedByObjectVersion
1070
     0
  0
VISUALSTYLE
  5
228
102
{ACAD_XDICTIONARY
360
329
102
}
102
{ACAD_REACTORS
330
14
102
}
330
14
100
AcDbVisualStyle
  2
Brighten
 70
    12
 71
     2
 72
     2
 73
     0
 90
        0
 40
-0.6
 41
-30.0
 62
     5
 63
     7
421
 16777215
 74
     1
 91
        4
 64
     7
 65
   257
 75
     1
175
     1
 42
1.0
 92
        8
 66
     7
 43
1.0
 76
     1
 77
     6
 78
     2
 67
     7
 79
     5
170
     0
171
     0
290
     0
174
     0
 93
        1
 44
50.0
173
     0
291
     1
 45
0.0
1001
ACAD
1000
AcDbSavedByObjectVersion
1070
     0
  0
VISUALSTYLE
  5
22C
102
{ACAD_XDICTIONARY
360
331
102
}
102
{ACAD_REACTORS
330
14
102
}
330
14
100
AcDbVisualStyle
  2
ColorChange
 70
    16
 71
     2
 72
     2
 73
     3
 90
        0
 40
-0.6
 41
-30.0
 62
     5
 63
     8
421
  8421504
 74
     1
 91
        4
 64
     7
 65
   257
 75
     1
175
     1
 42
1.0
 92
        8
 66
     8
424
  8421504
 43
1.0
 76
     1
 77
     6
 78
     2
 67
     7
 79
     5
170
     0
171
     0
290
     0
174
     0
 93
        1
 44
0.0
173
     0
291
     1
 45
0.0
1001
ACAD
1000
AcDbSavedByObjectVersion
1070
     0
  0
VISUALSTYLE
  5
226
102
{ACAD_XDICTIONARY
360
325
102
}
102
{ACAD_REACTORS
330
14
102
}
330
14
100
AcDbVisualStyle
  2
Conceptual
 70
     9
 71
     3
 72
     2
 73
     0
 90
        0
 40
-0.6
 41
-30.0
 62
     5
 63
     7
421
 16777215
 74
     2
 91
        2
 64
     7
 65
   257
 75
     1
175
     1
 42
179.0
 92
        8
 66
     7
 43
1.0
 76
     1
 77
     6
 78
     2
 67
     7
 79
     3
170
     0
171
     0
290
     0
174
     0
 93
        1
 44
0.0
173
     0
291
     0
 45
0.0
1001
ACAD
1000
AcDbSavedByObjectVersion
1070
     0
  0
VISUALSTYLE
  5
227
102
{ACAD_XDICTIONARY
360
327
102
}
102
{ACAD_REACTORS
330
14
102
}
330
14
100
AcDbVisualStyle
  2
Dim
 70
    11
 71
     2
 72
     2
 73
     0
 90
        0
 40
-0.6
 41
-30.0
 62
     5
 63
     7
421
 16777215
 74
     1
 91
        4
 64
     7
 65
   257
 75
     1
175
     1
 42
1.0
 92
        8
 66
     7
 43
1.0
 76
     1
 77
     6
 78
     2
 67
     7
 79
     5
170
     0
171
     0
290
     0
174
     0
 93
        1
 44
-50.0
173
     0
291
     1
 45
0.0
1001
ACAD
1000
AcDbSavedByObjectVersion
1070
     0
  0
VISUALSTYLE
  5
234
102
{ACAD_XDICTIONARY
360
341
102
}
102
{ACAD_REACTORS
330
14
102
}
330
14
100
AcDbVisualStyle
  2
EdgeColorOff
 70
    22
 71
     2
 72
     2
 73
     0
 90
        0
 40
-0.6
 41
-30.0
 62
     5
 63
     7
421
 16777215
 74
     1
 91
        4
 64
     7
 65
   257
 75
     1
175
     1
 42
1.0
 92
        8
 66
     7
 43
1.0
 76
     1
 77
     6
 78
     2
 67
     7
 79
     5
170
     0
171
     0
290
     0
174
     0
 93
        1
 44
0.0
173
     0
291
     1
 45
0.0
1001
ACAD
1000
AcDbSavedByObjectVersion
1070
     0
  0
VISUALSTYLE
  5
22B
102
{ACAD_XDICTIONARY
360
32F
102
}
102
{ACAD_REACTORS
330
14
102
}
330
14
100
AcDbVisualStyle
  2
Facepattern
 70
    15
 71
     2
 72
     2
 73
     0
 90
        0
 40
-0.6
 41
-30.0
 62
     5
 63
     7
421
 16777215
 74
     1
 91
        4
 64
     7
 65
   257
 75
     1
175
     1
 42
1.0
 92
        8
 66
     7
 43
1.0
 76
     1
 77
     6
 78
     2
 67
     7
 79
     5
170
     0
171
     0
290
     0
174
     0
 93
        1
 44
0.0
173
     0
291
     1
 45
0.0
1001
ACAD
1000
AcDbSavedByObjectVersion
1070
     0
  0
VISUALSTYLE
  5
21F
102
{ACAD_XDICTIONARY
360
317
102
}
102
{ACAD_REACTORS
330
14
102
}
330
14
100
AcDbVisualStyle
  2
Flat
 70
     0
 71
     2
 72
     1
 73
     1
 90
        2
 40
-0.6
 41
30.0
 62
     5
 63
     7
421
 16777215
 74
     0
 91
        0
 64
     7
 65
   257
 75
     1
175
     1
 42
1.0
 92
        8
 66
     7
 43
1.0
 76
     1
 77
     6
 78
     2
 67
     7
 79
     5
170
     0
171
     0
290
     0
174
     0
 93
       13
 44
0.0
173
     0
291
     1
 45
0.0
1001
ACAD
1000
AcDbSavedByObjectVersion
1070
     0
  0
VISUALSTYLE
  5
220
102
{ACAD_XDICTIONARY
360
319
102
}
102
{ACAD_REACTORS
330
14
102
}
330
14
100
AcDbVisualStyle
  2
FlatWithEdges
 70
     1
 71
     2
 72
     1
 73
     1
 90
        2
 40
-0.6
 41
30.0
 62
     5
 63
     7
421
 16777215
 74
     1
 91
        0
 64
     7
 65
   257
 75
     1
175
     1
 42
1.0
 92
        0
 66
   257
 43
1.0
 76
     1
 77
     6
 78
     2
 67
     7
 79
     5
170
     0
171
     0
290
     0
174
     0
 93
       13
 44
0.0
173
     0
291
     1
 45
0.0
1001
ACAD
1000
AcDbSavedByObjectVersion
1070
     0
  0
VISUALSTYLE
  5
221
102
{ACAD_XDICTIONARY
360
31B
102
}
102
{ACAD_REACTORS
330
14
102
}
330
14
100
AcDbVisualStyle
  2
Gouraud
 70
     2
 71
     2
 72
     2
 73
     1
 90
        2
 40
-0.6
 41
30.0
 62
     5
 63
     7
421
 16777215
 74
     0
 91
        0
 64
     7
 65
   257
 75
     1
175
     1
 42
1.0
 92
        0
 66
     7
 43
1.0
 76
     1
 77
     6
 78
     2
 67
     7
 79
     5
170
     0
171
     0
290
     0
174
     0
 93
       13
 44
0.0
173
     0
291
     1
 45
0.0
1001
ACAD
1000
AcDbSavedByObjectVersion
1070
     0
  0
VISUALSTYLE
  5
222
102
{ACAD_XDICTIONARY
360
31D
102
}
102
{ACAD_REACTORS
330
14
102
}
330
14
100
AcDbVisualStyle
  2
GouraudWithEdges
 70
     3
 71
     2
 72
     2
 73
     1
 90
        2
 40
-0.6
 41
30.0
 62
     5
 63
     7
421
 16777215
 74
     1
 91
        0
 64
     7
 65
   257
 75
     1
175
     1
 42
1.0
 92
        0
 66
   257
 43
1.0
 76
     1
 77
     6
 78
     2
 67
     7
 79
     5
170
     0
171
     0
290
     0
174
     0
 93
       13
 44
0.0
173
     0
291
     1
 45
0.0
1001
ACAD
1000
AcDbSavedByObjectVersion
1070
     0
  0
VISUALSTYLE
  5
225
102
{ACAD_XDICTIONARY
360
323
102
}
102
{ACAD_REACTORS
330
14
102
}
330
14
100
AcDbVisualStyle
  2
Hidden
 70
     6
 71
     1
 72
     2
 73
     2
 90
        0
 40
-0.6
 41
-30.0
 62
     5
 63
     7
421
 16777215
 74
     2
 91
        2
 64
     7
 65
   257
 75
     2
175
     1
 42
40.0
 92
        0
 66
   257
 43
1.0
 76
     1
 77
     6
 78
     2
 67
     7
 79
     3
170
     0
171
     0
290
     0
174
     0
 93
        1
 44
0.0
173
     0
291
     0
 45
0.0
1001
ACAD
1000
AcDbSavedByObjectVersion
1070
     0
  0
VISUALSTYLE
  5
232
102
{ACAD_XDICTIONARY
360
33D
102
}
102
{ACAD_REACTORS
330
14
102
}
330
14
100
AcDbVisualStyle
  2
JitterOff
 70
    20
 71
     2
 72
     2
 73
     0
 90
        0
 40
-0.6
 41
-30.0
 62
     5
 63
     7
421
 16777215
 74
     1
 91
        4
 64
     7
 65
   257
 75
     1
175
     1
 42
1.0
 92
       10
 66
     7
 43
1.0
 76
     1
 77
     6
 78
     2
 67
     7
 79
     5
170
     0
171
     0
290
     0
174
     0
 93
        1
 44
0.0
173
     0
291
     1
 45
0.0
1001
ACAD
1000
AcDbSavedByObjectVersion
1070
     0
  0
VISUALSTYLE
  5
22A
102
{ACAD_XDICTIONARY
360
32D
102
}
102
{ACAD_REACTORS
330
14
102
}
330
14
100
AcDbVisualStyle
  2
Linepattern
 70
    14
 71
     2
 72
     2
 73
     0
 90
        0
 40
-0.6
 41
-30.0
 62
     5
 63
     7
421
 16777215
 74
     1
 91
        4
 64
     7
 65
   257
 75
     7
175
     7
 42
1.0
 92
        8
 66
     7
 43
1.0
 76
     1
 77
     6
 78
     2
 67
     7
 79
     5
170
     0
171
     0
290
     0
174
     0
 93
        1
 44
0.0
173
     0
291
     1
 45
0.0
1001
ACAD
1000
AcDbSavedByObjectVersion
1070
     0
  0
VISUALSTYLE
  5
233
102
{ACAD_XDICTIONARY
360
33F
102
}
102
{ACAD_REACTORS
330
14
102
}
330
14
100
AcDbVisualStyle
  2
OverhangOff
 70
    21
 71
     2
 72
     2
 73
     0
 90
        0
 40
-0.6
 41
-30.0
 62
     5
 63
     7
421
 16777215
 74
     1
 91
        4
 64
     7
 65
   257
 75
     1
175
     1
 42
1.0
 92
        9
 66
     7
 43
1.0
 76
     1
 77
     6
 78
     2
 67
     7
 79
     5
170
     0
171
     0
290
     0
174
     0
 93
        1
 44
0.0
173
     0
291
     1
 45
0.0
1001
ACAD
1000
AcDbSavedByObjectVersion
1070
     0
  0
VISUALSTYLE
  5
3E
102
{ACAD_XDICTIONARY
360
310
102
}
102
{ACAD_REACTORS
330
14
102
}
330
14
100
AcDbVisualStyle
  2

 70
     8
 71
     2
 72
     2
 73
     0
 90
        0
 40
-0.6
 41
-30.0
 62
     5
 63
     7
421
 16777215
 74
     1
 91
        0
 64
     7
 65
   257
 75
     1
175
     1
 42
1.0
 92
        8
 66
     8
424
  7895160
 43
1.0
 76
     1
 77
     6
 78
     2
 67
     7
 79
     5
170
     0
171
     0
290
     0
174
     0
 93
       13
 44
0.0
173
     0
291
     0
 45
0.0
1001
ACAD
1000
AcDbSavedByObjectVersion
1070
     0
  0
VISUALSTYLE
  5
231
102
{ACAD_XDICTIONARY
360
33B
102
}
102
{ACAD_REACTORS
330
14
102
}
330
14
100
AcDbVisualStyle
  2
Shaded
 70
    27
 71
     2
 72
     2
 73
     1
 90
        2
 40
-0.6
 41
30.0
 62
     5
 63
     7
421
 16777215
 74
     0
 91
        4
 64
     7
 65
   257
 75
     1
175
     1
 42
1.0
 92
        8
 66
   257
 43
1.0
 76
     1
 77
     6
 78
     2
 67
     8
425
  7895160
 79
     3
170
     0
171
     0
290
     0
174
     0
 93
        5
 44
0.0
173
     0
291
     0
 45
0.0
1001
ACAD
1000
AcDbSavedByObjectVersion
1070
     0
  0
VISUALSTYLE
  5
230
102
{ACAD_XDICTIONARY
360
339
102
}
102
{ACAD_REACTORS
330
14
102
}
330
14
100
AcDbVisualStyle
  2
Shaded with edges
 70
    26
 71
     2
 72
     2
 73
     1
 90
        2
 40
-0.6
 41
30.0
 62
     5
 63
     7
421
 16777215
 74
     1
 91
       10
 64
     7
 65
   257
 75
     2
175
     1
 42
1.0
 92
        8
 66
   257
 43
1.0
 76
     1
 77
     6
 78
     2
 67
     7
 79
     3
170
     0
171
     0
290
     0
174
     0
 93
        5
 44
0.0
173
     0
291
     0
 45
0.0
1001
ACAD
1000
AcDbSavedByObjectVersion
1070
     0
  0
VISUALSTYLE
  5
22D
102
{ACAD_XDICTIONARY
360
333
102
}
102
{ACAD_REACTORS
330
14
102
}
330
14
100
AcDbVisualStyle
  2
Shades of Gray
 70
    23
 71
     2
 72
     2
 73
     3
 90
        0
 40
-0.6
 41
-30.0
 62
     5
 63
     7
421
 16777215
 74
     2
 91
        2
 64
     7
 65
     7
 75
     1
175
     1
 42
40.0
 92
        8
 66
     7
 43
1.0
 76
     1
 77
     6
 78
     2
 67
     7
 79
     3
170
     0
171
     0
290
     0
174
     0
 93
        1
 44
0.0
173
     0
291
     0
 45
0.0
1001
ACAD
1000
AcDbSavedByObjectVersion
1070
     0
  0
VISUALSTYLE
  5
22E
102
{ACAD_XDICTIONARY
360
335
102
}
102
{ACAD_REACTORS
330
14
102
}
330
14
100
AcDbVisualStyle
  2
Sketchy
 70
    24
 71
     1
 72
     2
 73
     2
 90
        0
 40
-0.6
 41
-30.0
 62
     5
 63
     7
421
 16777215
 74
     2
 91
        2
 64
     7
 65
     7
 75
     1
175
     1
 42
40.0
 92
       11
 66
     7
 43
1.0
 76
     1
 77
     6
 78
     2
 67
     7
 79
     6
170
     0
171
     0
290
     0
174
     0
 93
        1
 44
0.0
173
     0
291
     0
 45
0.0
1001
ACAD
1000
AcDbSavedByObjectVersion
1070
     0
  0
VISUALSTYLE
  5
229
102
{ACAD_XDICTIONARY
360
32B
102
}
102
{ACAD_REACTORS
330
14
102
}
330
14
100
AcDbVisualStyle
  2
Thicken
 70
    13
 71
     2
 72
     2
 73
     0
 90
        0
 40
-0.6
 41
-30.0
 62
     5
 63
     7
421
 16777215
 74
     1
 91
        4
 64
     7
 65
   257
 75
     1
175
     1
 42
1.0
 92
       12
 66
     7
 43
1.0
 76
     1
 77
     6
 78
     2
 67
     7
 79
     5
170
     0
171
     0
290
     0
174
     0
 93
        1
 44
0.0
173
     0
291
     1
 45
0.0
1001
ACAD
1000
AcDbSavedByObjectVersion
1070
     0
  0
VISUALSTYLE
  5
224
102
{ACAD_XDICTIONARY
360
321
102
}
102
{ACAD_REACTORS
330
14
102
}
330
14
100
AcDbVisualStyle
  2
Wireframe
 70
     5
 71
     0
 72
     2
 73
     0
 90
        0
 40
-0.6
 41
-30.0
 62
     5
 63
     7
421
 16777215
 74
     1
 91
        4
 64
     7
 65
   257
 75
     1
175
     1
 42
1.0
 92
        0
 66
   257
 43
1.0
 76
     1
 77
     6
 78
     2
 67
     7
 79
     3
170
     0
171
     0
290
     0
174
     0
 93
        1
 44
0.0
173
     0
291
     0
 45
0.0
1001
ACAD
1000
AcDbSavedByObjectVersion
1070
     0
  0
VISUALSTYLE
  5
22F
102
{ACAD_XDICTIONARY
360
337
102
}
102
{ACAD_REACTORS
330
14
102
}
330
14
100
AcDbVisualStyle
  2
X-Ray
 70
    25
 71
     2
 72
     2
 73
     1
 90
        1
 40
0.5
 41
-30.0
 62
     5
 63
     7
421
 16777215
 74
     1
 91
        0
 64
     7
 65
   257
 75
     1
175
     1
 42
1.0
 92
        8
 66
     7
 43
1.0
 76
     1
 77
     6
 78
     2
 67
     7
 79
     3
170
     0
171
     0
290
     0
174
     0
 93
       13
 44
0.0
173
     0
291
     0
 45
0.0
1001
ACAD
1000
AcDbSavedByObjectVersion
1070
     0
  0
DICTIONARYVAR
  5
20F
102
{ACAD_REACTORS
330
20C
102
}
330
20C
100
DictionaryVariables
280
     0
  1
1:1
  0
DICTIONARYVAR
  5
20E
102
{ACAD_REACTORS
330
20C
102
}
330
20C
100
DictionaryVariables
280
     0
  1
STANDARD
  0
DICTIONARYVAR
  5
20D
102
{ACAD_REACTORS
330
20C
102
}
330
20C
100
DictionaryVariables
280
     0
  1
Willach
  0
DICTIONARY
  5
1B8
102
{ACAD_REACTORS
330
1B7
102
}
330
1B7
100
AcDbDictionary
281
     1
  0
DICTIONARY
  5
218
330
33
100
AcDbDictionary
280
     1
281
     1
  3
ACAD_XREC_ROUNDTRIP
360
219
  0
DICTIONARY
  5
216
330
32
100
AcDbDictionary
280
     1
281
     1
  3
ACAD_XREC_ROUNDTRIP
360
217
  0
DICTIONARY
  5
214
330
C
100
AcDbDictionary
280
     1
281
     1
  3
ACAD_XREC_ROUNDTRIP
360
215
  0
DICTIONARY
  5
41
330
40
100
AcDbDictionary
280
     1
281
     1
  3
ACAD_ROUNDTRIP_2008_TABLESTYLE_CELLSTYLEMAP
360
30B
  3
ACAD_XREC_ROUNDTRIP
360
314
  0
DICTIONARY
  5
3D
330
3C
100
AcDbDictionary
280
     1
281
     1
  3
ACAD_ROUNDTRIP_2008_TABLESTYLE_CELLSTYLEMAP
360
30A
  3
ACAD_XREC_ROUNDTRIP
360
30F
  0
DICTIONARY
  5
30D
330
13
100
AcDbDictionary
280
     1
281
     1
  3
ACAD_XREC_ROUNDTRIP
360
30E
  0
DICTIONARY
  5
312
330
3F
100
AcDbDictionary
280
     1
281
     1
  3
ACAD_XREC_ROUNDTRIP
360
313
  0
DICTIONARY
  5
31F
330
223
100
AcDbDictionary
280
     1
281
     1
  3
ACAD_XREC_ROUNDTRIP
360
320
  0
DICTIONARY
  5
329
330
228
100
AcDbDictionary
280
     1
281
     1
  3
ACAD_XREC_ROUNDTRIP
360
32A
  0
DICTIONARY
  5
331
330
22C
100
AcDbDictionary
280
     1
281
     1
  3
ACAD_XREC_ROUNDTRIP
360
332
  0
DICTIONARY
  5
325
330
226
100
AcDbDictionary
280
     1
281
     1
  3
ACAD_XREC_ROUNDTRIP
360
326
  0
DICTIONARY
  5
327
330
227
100
AcDbDictionary
280
     1
281
     1
  3
ACAD_XREC_ROUNDTRIP
360
328
  0
DICTIONARY
  5
341
330
234
100
AcDbDictionary
280
     1
281
     1
  3
ACAD_XREC_ROUNDTRIP
360
342
  0
DICTIONARY
  5
32F
330
22B
100
AcDbDictionary
280
     1
281
     1
  3
ACAD_XREC_ROUNDTRIP
360
330
  0
DICTIONARY
  5
317
330
21F
100
AcDbDictionary
280
     1
281
     1
  3
ACAD_XREC_ROUNDTRIP
360
318
  0
DICTIONARY
  5
319
330
220
100
AcDbDictionary
280
     1
281
     1
  3
ACAD_XREC_ROUNDTRIP
360
31A
  0
DICTIONARY
  5
31B
330
221
100
AcDbDictionary
280
     1
281
     1
  3
ACAD_XREC_ROUNDTRIP
360
31C
  0
DICTIONARY
  5
31D
330
222
100
AcDbDictionary
280
     1
281
     1
  3
ACAD_XREC_ROUNDTRIP
360
31E
  0
DICTIONARY
  5
323
330
225
100
AcDbDictionary
280
     1
281
     1
  3
ACAD_XREC_ROUNDTRIP
360
324
  0
DICTIONARY
  5
33D
330
232
100
AcDbDictionary
280
     1
281
     1
  3
ACAD_XREC_ROUNDTRIP
360
33E
  0
DICTIONARY
  5
32D
330
22A
100
AcDbDictionary
280
     1
281
     1
  3
ACAD_XREC_ROUNDTRIP
360
32E
  0
DICTIONARY
  5
33F
330
233
100
AcDbDictionary
280
     1
281
     1
  3
ACAD_XREC_ROUNDTRIP
360
340
  0
DICTIONARY
  5
310
330
3E
100
AcDbDictionary
280
     1
281
     1
  3
ACAD_XREC_ROUNDTRIP
360
311
  0
DICTIONARY
  5
33B
330
231
100
AcDbDictionary
280
     1
281
     1
  3
ACAD_XREC_ROUNDTRIP
360
33C
  0
DICTIONARY
  5
339
330
230
100
AcDbDictionary
280
     1
281
     1
  3
ACAD_XREC_ROUNDTRIP
360
33A
  0
DICTIONARY
  5
333
330
22D
100
AcDbDictionary
280
     1
281
     1
  3
ACAD_XREC_ROUNDTRIP
360
334
  0
DICTIONARY
  5
335
330
22E
100
AcDbDictionary
280
     1
281
     1
  3
ACAD_XREC_ROUNDTRIP
360
336
  0
DICTIONARY
  5
32B
330
229
100
AcDbDictionary
280
     1
281
     1
  3
ACAD_XREC_ROUNDTRIP
360
32C
  0
DICTIONARY
  5
321
330
224
100
AcDbDictionary
280
     1
281
     1
  3
ACAD_XREC_ROUNDTRIP
360
322
  0
DICTIONARY
  5
337
330
22F
100
AcDbDictionary
280
     1
281
     1
  3
ACAD_XREC_ROUNDTRIP
360
338
  0
XRECORD
  5
219
102
{ACAD_REACTORS
330
218
102
}
330
218
100
AcDbXrecord
280
     1
102
MATERIAL
148
0.0
149
0.0
149
0.0
 93
        0
 94
      127
282
     0
 72
     1
 77
     1
171
     1
175
     1
179
     1
273
     0
  0
XRECORD
  5
217
102
{ACAD_REACTORS
330
216
102
}
330
216
100
AcDbXrecord
280
     1
102
MATERIAL
148
0.0
149
0.0
149
0.0
 93
        0
 94
      127
282
     0
 72
     1
 77
     1
171
     1
175
     1
179
     1
273
     0
  0
XRECORD
  5
215
102
{ACAD_REACTORS
330
214
102
}
330
214
100
AcDbXrecord
280
     1
102
MATERIAL
148
0.0
149
0.0
149
0.0
 93
        0
 94
      127
282
     0
 72
     1
 77
     1
171
     1
175
     1
179
     1
273
     0
  0
CELLSTYLEMAP
  5
30B
102
{ACAD_REACTORS
330
41
102
}
330
41
100
AcDbCellStyleMap
 90
        3
300
CELLSTYLE
  1
TABLEFORMAT_BEGIN
 90
        5
170
     1
 91
        0
 92
    32768
 62
   257
 93
        1
300
CONTENTFORMAT
  1
CONTENTFORMAT_BEGIN
 90
        0
 91
        0
 92
        4
 93
        0
300

 40
0.0
140
1.0
 94
        5
 62
     0
340
1E
144
6.0
309
CONTENTFORMAT_END
171
     1
301
MARGIN
  1
CELLMARGIN_BEGIN
 40
1.5
 40
1.5
 40
1.5
 40
1.5
 40
0.18
 40
0.18
309
CELLMARGIN_END
 94
        6
 95
        1
302
GRIDFORMAT
  1
GRIDFORMAT_BEGIN
 90
        0
 91
        1
 62
     0
 92
       -2
340
0
 93
        0
 40
0.045
309
GRIDFORMAT_END
 95
        2
302
GRIDFORMAT
  1
GRIDFORMAT_BEGIN
 90
        0
 91
        1
 62
     0
 92
       -2
340
0
 93
        0
 40
0.045
309
GRIDFORMAT_END
 95
        4
302
GRIDFORMAT
  1
GRIDFORMAT_BEGIN
 90
        0
 91
        1
 62
     0
 92
       -2
340
0
 93
        0
 40
0.045
309
GRIDFORMAT_END
 95
        8
302
GRIDFORMAT
  1
GRIDFORMAT_BEGIN
 90
        0
 91
        1
 62
     0
 92
       -2
340
0
 93
        0
 40
0.045
309
GRIDFORMAT_END
 95
       16
302
GRIDFORMAT
  1
GRIDFORMAT_BEGIN
 90
        0
 91
        1
 62
     0
 92
       -2
340
0
 93
        0
 40
0.045
309
GRIDFORMAT_END
 95
       32
302
GRIDFORMAT
  1
GRIDFORMAT_BEGIN
 90
        0
 91
        1
 62
     0
 92
       -2
340
0
 93
        0
 40
0.045
309
GRIDFORMAT_END
309
TABLEFORMAT_END
  1
CELLSTYLE_BEGIN
 90
        1
 91
        1
300
_TITLE
309
CELLSTYLE_END
300
CELLSTYLE
  1
TABLEFORMAT_BEGIN
 90
        5
170
     1
 91
        0
 92
        0
 62
   257
 93
        1
300
CONTENTFORMAT
  1
CONTENTFORMAT_BEGIN
 90
        0
 91
        0
 92
        4
 93
        0
300

 40
0.0
140
1.0
 94
        5
 62
     0
340
1E
144
4.5
309
CONTENTFORMAT_END
171
     1
301
MARGIN
  1
CELLMARGIN_BEGIN
 40
1.5
 40
1.5
 40
1.5
 40
1.5
 40
0.18
 40
0.18
309
CELLMARGIN_END
 94
        6
 95
        1
302
GRIDFORMAT
  1
GRIDFORMAT_BEGIN
 90
        0
 91
        1
 62
     0
 92
       -2
340
0
 93
        0
 40
0.045
309
GRIDFORMAT_END
 95
        2
302
GRIDFORMAT
  1
GRIDFORMAT_BEGIN
 90
        0
 91
        1
 62
     0
 92
       -2
340
0
 93
        0
 40
0.045
309
GRIDFORMAT_END
 95
        4
302
GRIDFORMAT
  1
GRIDFORMAT_BEGIN
 90
        0
 91
        1
 62
     0
 92
       -2
340
0
 93
        0
 40
0.045
309
GRIDFORMAT_END
 95
        8
302
GRIDFORMAT
  1
GRIDFORMAT_BEGIN
 90
        0
 91
        1
 62
     0
 92
       -2
340
0
 93
        0
 40
0.045
309
GRIDFORMAT_END
 95
       16
302
GRIDFORMAT
  1
GRIDFORMAT_BEGIN
 90
        0
 91
        1
 62
     0
 92
       -2
340
0
 93
        0
 40
0.045
309
GRIDFORMAT_END
 95
       32
302
GRIDFORMAT
  1
GRIDFORMAT_BEGIN
 90
        0
 91
        1
 62
     0
 92
       -2
340
0
 93
        0
 40
0.045
309
GRIDFORMAT_END
309
TABLEFORMAT_END
  1
CELLSTYLE_BEGIN
 90
        2
 91
        1
300
_HEADER
309
CELLSTYLE_END
300
CELLSTYLE
  1
TABLEFORMAT_BEGIN
 90
        5
170
     1
 91
        0
 92
        0
 62
   257
 93
        1
300
CONTENTFORMAT
  1
CONTENTFORMAT_BEGIN
 90
        0
 91
        0
 92
        4
 93
        0
300

 40
0.0
140
1.0
 94
        2
 62
     0
340
1E
144
4.5
309
CONTENTFORMAT_END
171
     1
301
MARGIN
  1
CELLMARGIN_BEGIN
 40
1.5
 40
1.5
 40
1.5
 40
1.5
 40
0.18
 40
0.18
309
CELLMARGIN_END
 94
        6
 95
        1
302
GRIDFORMAT
  1
GRIDFORMAT_BEGIN
 90
        0
 91
        1
 62
     0
 92
       -2
340
0
 93
        0
 40
0.045
309
GRIDFORMAT_END
 95
        2
302
GRIDFORMAT
  1
GRIDFORMAT_BEGIN
 90
        0
 91
        1
 62
     0
 92
       -2
340
0
 93
        0
 40
0.045
309
GRIDFORMAT_END
 95
        4
302
GRIDFORMAT
  1
GRIDFORMAT_BEGIN
 90
        0
 91
        1
 62
     0
 92
       -2
340
0
 93
        0
 40
0.045
309
GRIDFORMAT_END
 95
        8
302
GRIDFORMAT
  1
GRIDFORMAT_BEGIN
 90
        0
 91
        1
 62
     0
 92
       -2
340
0
 93
        0
 40
0.045
309
GRIDFORMAT_END
 95
       16
302
GRIDFORMAT
  1
GRIDFORMAT_BEGIN
 90
        0
 91
        1
 62
     0
 92
       -2
340
0
 93
        0
 40
0.045
309
GRIDFORMAT_END
 95
       32
302
GRIDFORMAT
  1
GRIDFORMAT_BEGIN
 90
        0
 91
        1
 62
     0
 92
       -2
340
0
 93
        0
 40
0.045
309
GRIDFORMAT_END
309
TABLEFORMAT_END
  1
CELLSTYLE_BEGIN
 90
        3
 91
        2
300
_DATA
309
CELLSTYLE_END
  0
XRECORD
  5
314
102
{ACAD_REACTORS
330
41
102
}
330
41
100
AcDbXrecord
280
     1
102
ACAD_ROUNDTRIP_PRE2007_TABLESTYLE
 90
        4
 91
        0
  1

 92
        4
 93
        0
  2

 94
        4
 95
        0
  3

  0
CELLSTYLEMAP
  5
30A
102
{ACAD_REACTORS
330
3D
102
}
330
3D
100
AcDbCellStyleMap
 90
        3
300
CELLSTYLE
  1
TABLEFORMAT_BEGIN
 90
        5
170
     1
 91
        0
 92
    32768
 62
   257
 93
        1
300
CONTENTFORMAT
  1
CONTENTFORMAT_BEGIN
 90
        0
 91
        0
 92
        4
 93
        0
300

 40
0.0
140
1.0
 94
        5
 62
     7
340
1E
144
5.0
309
CONTENTFORMAT_END
171
     1
301
MARGIN
  1
CELLMARGIN_BEGIN
 40
1.5
 40
1.5
 40
1.5
 40
1.5
 40
0.18
 40
0.18
309
CELLMARGIN_END
 94
        6
 95
        1
302
GRIDFORMAT
  1
GRIDFORMAT_BEGIN
 90
        0
 91
        1
 62
     0
 92
       -2
340
0
 93
        0
 40
0.045
309
GRIDFORMAT_END
 95
        2
302
GRIDFORMAT
  1
GRIDFORMAT_BEGIN
 90
        0
 91
        1
 62
     0
 92
       -2
340
0
 93
        0
 40
0.045
309
GRIDFORMAT_END
 95
        4
302
GRIDFORMAT
  1
GRIDFORMAT_BEGIN
 90
        0
 91
        1
 62
     0
 92
       -2
340
0
 93
        0
 40
0.045
309
GRIDFORMAT_END
 95
        8
302
GRIDFORMAT
  1
GRIDFORMAT_BEGIN
 90
        0
 91
        1
 62
     0
 92
       -2
340
0
 93
        0
 40
0.045
309
GRIDFORMAT_END
 95
       16
302
GRIDFORMAT
  1
GRIDFORMAT_BEGIN
 90
        0
 91
        1
 62
     0
 92
       -2
340
0
 93
        0
 40
0.045
309
GRIDFORMAT_END
 95
       32
302
GRIDFORMAT
  1
GRIDFORMAT_BEGIN
 90
        0
 91
        1
 62
     0
 92
       -2
340
0
 93
        0
 40
0.045
309
GRIDFORMAT_END
309
TABLEFORMAT_END
  1
CELLSTYLE_BEGIN
 90
        1
 91
        1
300
_TITLE
309
CELLSTYLE_END
300
CELLSTYLE
  1
TABLEFORMAT_BEGIN
 90
        5
170
     1
 91
        0
 92
        0
 62
   254
 93
        1
300
CONTENTFORMAT
  1
CONTENTFORMAT_BEGIN
 90
        0
 91
        0
 92
        4
 93
        0
300

 40
0.0
140
1.0
 94
        5
 62
     2
340
1E
144
3.5
309
CONTENTFORMAT_END
171
     1
301
MARGIN
  1
CELLMARGIN_BEGIN
 40
1.5
 40
1.5
 40
1.5
 40
1.5
 40
0.18
 40
0.18
309
CELLMARGIN_END
 94
        6
 95
        1
302
GRIDFORMAT
  1
GRIDFORMAT_BEGIN
 90
        0
 91
        1
 62
     0
 92
       -2
340
0
 93
        0
 40
0.045
309
GRIDFORMAT_END
 95
        2
302
GRIDFORMAT
  1
GRIDFORMAT_BEGIN
 90
        0
 91
        1
 62
     0
 92
       -2
340
0
 93
        0
 40
0.045
309
GRIDFORMAT_END
 95
        4
302
GRIDFORMAT
  1
GRIDFORMAT_BEGIN
 90
        0
 91
        1
 62
     0
 92
       -2
340
0
 93
        0
 40
0.045
309
GRIDFORMAT_END
 95
        8
302
GRIDFORMAT
  1
GRIDFORMAT_BEGIN
 90
        0
 91
        1
 62
     0
 92
       -2
340
0
 93
        0
 40
0.045
309
GRIDFORMAT_END
 95
       16
302
GRIDFORMAT
  1
GRIDFORMAT_BEGIN
 90
        0
 91
        1
 62
     0
 92
       -2
340
0
 93
        0
 40
0.045
309
GRIDFORMAT_END
 95
       32
302
GRIDFORMAT
  1
GRIDFORMAT_BEGIN
 90
        0
 91
        1
 62
     0
 92
       -2
340
0
 93
        0
 40
0.045
309
GRIDFORMAT_END
309
TABLEFORMAT_END
  1
CELLSTYLE_BEGIN
 90
        2
 91
        1
300
_HEADER
309
CELLSTYLE_END
300
CELLSTYLE
  1
TABLEFORMAT_BEGIN
 90
        5
170
     1
 91
        0
 92
        0
 62
   257
 93
        1
300
CONTENTFORMAT
  1
CONTENTFORMAT_BEGIN
 90
        0
 91
        0
 92
        4
 93
        0
300

 40
0.0
140
1.0
 94
        5
 62
     2
340
1E
144
3.5
309
CONTENTFORMAT_END
171
     1
301
MARGIN
  1
CELLMARGIN_BEGIN
 40
1.5
 40
1.5
 40
1.5
 40
1.5
 40
0.18
 40
0.18
309
CELLMARGIN_END
 94
        6
 95
        1
302
GRIDFORMAT
  1
GRIDFORMAT_BEGIN
 90
        0
 91
        1
 62
     0
 92
       -2
340
0
 93
        0
 40
0.045
309
GRIDFORMAT_END
 95
        2
302
GRIDFORMAT
  1
GRIDFORMAT_BEGIN
 90
        0
 91
        1
 62
     0
 92
       -2
340
0
 93
        0
 40
0.045
309
GRIDFORMAT_END
 95
        4
302
GRIDFORMAT
  1
GRIDFORMAT_BEGIN
 90
        0
 91
        1
 62
     0
 92
       -2
340
0
 93
        0
 40
0.045
309
GRIDFORMAT_END
 95
        8
302
GRIDFORMAT
  1
GRIDFORMAT_BEGIN
 90
        0
 91
        1
 62
     0
 92
       -2
340
0
 93
        0
 40
0.045
309
GRIDFORMAT_END
 95
       16
302
GRIDFORMAT
  1
GRIDFORMAT_BEGIN
 90
        0
 91
        1
 62
     0
 92
       -2
340
0
 93
        0
 40
0.045
309
GRIDFORMAT_END
 95
       32
302
GRIDFORMAT
  1
GRIDFORMAT_BEGIN
 90
        0
 91
        1
 62
     0
 92
       -2
340
0
 93
        0
 40
0.045
309
GRIDFORMAT_END
309
TABLEFORMAT_END
  1
CELLSTYLE_BEGIN
 90
        3
 91
        2
300
_DATA
309
CELLSTYLE_END
  0
XRECORD
  5
30F
102
{ACAD_REACTORS
330
3D
102
}
330
3D
100
AcDbXrecord
280
     1
102
ACAD_ROUNDTRIP_PRE2007_TABLESTYLE
 90
        4
 91
        0
  1

 92
        4
 93
        0
  2

 94
        4
 95
        0
  3

  0
XRECORD
  5
30E
102
{ACAD_REACTORS
330
30D
102
}
330
30D
100
AcDbXrecord
280
     1
102
RTVSPropertyOp0
 70
     1
102
RTVSPropertyOp1
 70
     1
102
RTVSPropertyOp2
 70
     1
102
RTVSPropertyOp3
 70
     1
102
RTVSPropertyOp4
 70
     1
102
RTVSPropertyOp5
 70
     1
102
RTVSPropertyOp6
 70
     1
102
RTVSPropertyOp7
 70
     1
102
RTVSPropertyOp8
 70
     1
102
RTVSPropertyOp9
 70
     1
102
RTVSPropertyOp10
 70
     1
102
RTVSPropertyOp11
 70
     1
102
RTVSPropertyOp12
 70
     1
102
RTVSPropertyOp13
 70
     1
102
RTVSPropertyOp14
 70
     1
102
RTVSPropertyOp15
 70
     1
102
RTVSPropertyOp16
 70
     1
102
RTVSPropertyOp17
 70
     1
102
RTVSPropertyOp18
 70
     1
102
RTVSPropertyOp19
 70
     1
102
RTVSPropertyOp20
 70
     1
102
RTVSPropertyOp21
 70
     1
102
RTVSPropertyOp22
 70
     1
102
RTVSPropertyOp23
 70
     1
102
RTVSPropertyOp24
 70
     1
102
RTVSPropertyOp25
 70
     1
102
RTVSPropertyOp26
 70
     1
102
RTVSPropertyOp27
 70
     1
102
RTVSPropertyOp28
 70
     1
102
RTVSPropertyOp29
 70
     1
102
RTVSPropertyOp30
 70
     1
102
RTVSPropertyOp31
 70
     1
102
RTVSPropertyOp32
 70
     1
  0
XRECORD
  5
313
102
{ACAD_REACTORS
330
312
102
}
330
312
100
AcDbXrecord
280
     1
102
RTVSPropertyOp0
 70
     1
102
RTVSPropertyOp1
 70
     1
102
RTVSPropertyOp2
 70
     1
102
RTVSPropertyOp3
 70
     1
102
RTVSPropertyOp4
 70
     1
102
RTVSPropertyOp5
 70
     1
102
RTVSPropertyOp6
 70
     1
102
RTVSPropertyOp7
 70
     1
102
RTVSPropertyOp8
 70
     1
102
RTVSPropertyOp9
 70
     1
102
RTVSPropertyOp10
 70
     1
102
RTVSPropertyOp11
 70
     1
102
RTVSPropertyOp12
 70
     1
102
RTVSPropertyOp13
 70
     1
102
RTVSPropertyOp14
 70
     1
102
RTVSPropertyOp15
 70
     1
102
RTVSPropertyOp16
 70
     1
102
RTVSPropertyOp17
 70
     1
102
RTVSPropertyOp18
 70
     1
102
RTVSPropertyOp19
 70
     1
102
RTVSPropertyOp20
 70
     1
102
RTVSPropertyOp21
 70
     1
102
RTVSPropertyOp22
 70
     1
102
RTVSPropertyOp23
 70
     1
102
RTVSPropertyOp24
 70
     1
102
RTVSPropertyOp25
 70
     1
102
RTVSPropertyOp26
 70
     1
102
RTVSPropertyOp27
 70
     1
102
RTVSPropertyOp28
 70
     1
102
RTVSPropertyOp29
 70
     1
102
RTVSPropertyOp30
 70
     1
102
RTVSPropertyOp31
 70
     1
102
RTVSPropertyOp32
 70
     1
  0
XRECORD
  5
320
102
{ACAD_REACTORS
330
31F
102
}
330
31F
100
AcDbXrecord
280
     1
102
RTVSPropertyOp0
 70
     1
102
RTVSPropertyOp1
 70
     1
102
RTVSPropertyOp2
 70
     1
102
RTVSPropertyOp3
 70
     1
102
RTVSPropertyOp4
 70
     1
102
RTVSPropertyOp5
 70
     1
102
RTVSPropertyOp6
 70
     1
102
RTVSPropertyOp7
 70
     1
102
RTVSPropertyOp8
 70
     1
102
RTVSPropertyOp9
 70
     1
102
RTVSPropertyOp10
 70
     1
102
RTVSPropertyOp11
 70
     1
102
RTVSPropertyOp12
 70
     1
102
RTVSPropertyOp13
 70
     1
102
RTVSPropertyOp14
 70
     1
102
RTVSPropertyOp15
 70
     1
102
RTVSPropertyOp16
 70
     1
102
RTVSPropertyOp17
 70
     1
102
RTVSPropertyOp18
 70
     1
102
RTVSPropertyOp19
 70
     1
102
RTVSPropertyOp20
 70
     1
102
RTVSPropertyOp21
 70
     1
102
RTVSPropertyOp22
 70
     1
102
RTVSPropertyOp23
 70
     1
102
RTVSPropertyOp24
 70
     1
102
RTVSPropertyOp25
 70
     1
102
RTVSPropertyOp26
 70
     1
102
RTVSPropertyOp27
 70
     1
102
RTVSPropertyOp28
 70
     1
102
RTVSPropertyOp29
 70
     1
102
RTVSPropertyOp30
 70
     1
102
RTVSPropertyOp31
 70
     1
102
RTVSPropertyOp32
 70
     1
  0
XRECORD
  5
32A
102
{ACAD_REACTORS
330
329
102
}
330
329
100
AcDbXrecord
280
     1
102
RTVSPropertyOp0
 70
     1
102
RTVSPropertyOp1
 70
     1
102
RTVSPropertyOp2
 70
     1
102
RTVSPropertyOp3
 70
     1
102
RTVSPropertyOp4
 70
     1
102
RTVSPropertyOp5
 70
     1
102
RTVSPropertyOp6
 70
     1
102
RTVSPropertyOp7
 70
     1
102
RTVSPropertyOp8
 70
     1
102
RTVSPropertyOp9
 70
     1
102
RTVSPropertyOp10
 70
     1
102
RTVSPropertyOp11
 70
     1
102
RTVSPropertyOp12
 70
     1
102
RTVSPropertyOp13
 70
     1
102
RTVSPropertyOp14
 70
     1
102
RTVSPropertyOp15
 70
     1
102
RTVSPropertyOp16
 70
     1
102
RTVSPropertyOp17
 70
     1
102
RTVSPropertyOp18
 70
     1
102
RTVSPropertyOp19
 70
     1
102
RTVSPropertyOp20
 70
     1
102
RTVSPropertyOp21
 70
     1
102
RTVSPropertyOp22
 70
     1
102
RTVSPropertyOp23
 70
     1
102
RTVSPropertyOp24
 70
     1
102
RTVSPropertyOp25
 70
     1
102
RTVSPropertyOp26
 70
     1
102
RTVSPropertyOp27
 70
     1
102
RTVSPropertyOp28
 70
     1
102
RTVSPropertyOp29
 70
     1
102
RTVSPropertyOp30
 70
     1
102
RTVSPropertyOp31
 70
     1
102
RTVSPropertyOp32
 70
     1
  0
XRECORD
  5
332
102
{ACAD_REACTORS
330
331
102
}
330
331
100
AcDbXrecord
280
     1
102
RTVSPropertyOp0
 70
     1
102
RTVSPropertyOp1
 70
     1
102
RTVSPropertyOp2
 70
     1
102
RTVSPropertyOp3
 70
     1
102
RTVSPropertyOp4
 70
     1
102
RTVSPropertyOp5
 70
     1
102
RTVSPropertyOp6
 70
     1
102
RTVSPropertyOp7
 70
     1
102
RTVSPropertyOp8
 70
     1
102
RTVSPropertyOp9
 70
     1
102
RTVSPropertyOp10
 70
     1
102
RTVSPropertyOp11
 70
     1
102
RTVSPropertyOp12
 70
     1
102
RTVSPropertyOp13
 70
     1
102
RTVSPropertyOp14
 70
     1
102
RTVSPropertyOp15
 70
     1
102
RTVSPropertyOp16
 70
     1
102
RTVSPropertyOp17
 70
     1
102
RTVSPropertyOp18
 70
     1
102
RTVSPropertyOp19
 70
     1
102
RTVSPropertyOp20
 70
     1
102
RTVSPropertyOp21
 70
     1
102
RTVSPropertyOp22
 70
     1
102
RTVSPropertyOp23
 70
     1
102
RTVSPropertyOp24
 70
     1
102
RTVSPropertyOp25
 70
     1
102
RTVSPropertyOp26
 70
     1
102
RTVSPropertyOp27
 70
     1
102
RTVSPropertyOp28
 70
     1
102
RTVSPropertyOp29
 70
     1
102
RTVSPropertyOp30
 70
     1
102
RTVSPropertyOp31
 70
     1
102
RTVSPropertyOp32
 70
     1
  0
XRECORD
  5
326
102
{ACAD_REACTORS
330
325
102
}
330
325
100
AcDbXrecord
280
     1
102
RTVSPropertyOp0
 70
     1
102
RTVSPropertyOp1
 70
     1
102
RTVSPropertyOp2
 70
     1
102
RTVSPropertyOp3
 70
     1
102
RTVSPropertyOp4
 70
     1
102
RTVSPropertyOp5
 70
     1
102
RTVSPropertyOp6
 70
     1
102
RTVSPropertyOp7
 70
     1
102
RTVSPropertyOp8
 70
     1
102
RTVSPropertyOp9
 70
     1
102
RTVSPropertyOp10
 70
     1
102
RTVSPropertyOp11
 70
     1
102
RTVSPropertyOp12
 70
     1
102
RTVSPropertyOp13
 70
     1
102
RTVSPropertyOp14
 70
     1
102
RTVSPropertyOp15
 70
     1
102
RTVSPropertyOp16
 70
     1
102
RTVSPropertyOp17
 70
     1
102
RTVSPropertyOp18
 70
     1
102
RTVSPropertyOp19
 70
     1
102
RTVSPropertyOp20
 70
     1
102
RTVSPropertyOp21
 70
     1
102
RTVSPropertyOp22
 70
     1
102
RTVSPropertyOp23
 70
     1
102
RTVSPropertyOp24
 70
     1
102
RTVSPropertyOp25
 70
     1
102
RTVSPropertyOp26
 70
     1
102
RTVSPropertyOp27
 70
     1
102
RTVSPropertyOp28
 70
     1
102
RTVSPropertyOp29
 70
     1
102
RTVSPropertyOp30
 70
     1
102
RTVSPropertyOp31
 70
     1
102
RTVSPropertyOp32
 70
     1
  0
XRECORD
  5
328
102
{ACAD_REACTORS
330
327
102
}
330
327
100
AcDbXrecord
280
     1
102
RTVSPropertyOp0
 70
     1
102
RTVSPropertyOp1
 70
     1
102
RTVSPropertyOp2
 70
     1
102
RTVSPropertyOp3
 70
     1
102
RTVSPropertyOp4
 70
     1
102
RTVSPropertyOp5
 70
     1
102
RTVSPropertyOp6
 70
     1
102
RTVSPropertyOp7
 70
     1
102
RTVSPropertyOp8
 70
     1
102
RTVSPropertyOp9
 70
     1
102
RTVSPropertyOp10
 70
     1
102
RTVSPropertyOp11
 70
     1
102
RTVSPropertyOp12
 70
     1
102
RTVSPropertyOp13
 70
     1
102
RTVSPropertyOp14
 70
     1
102
RTVSPropertyOp15
 70
     1
102
RTVSPropertyOp16
 70
     1
102
RTVSPropertyOp17
 70
     1
102
RTVSPropertyOp18
 70
     1
102
RTVSPropertyOp19
 70
     1
102
RTVSPropertyOp20
 70
     1
102
RTVSPropertyOp21
 70
     1
102
RTVSPropertyOp22
 70
     1
102
RTVSPropertyOp23
 70
     1
102
RTVSPropertyOp24
 70
     1
102
RTVSPropertyOp25
 70
     1
102
RTVSPropertyOp26
 70
     1
102
RTVSPropertyOp27
 70
     1
102
RTVSPropertyOp28
 70
     1
102
RTVSPropertyOp29
 70
     1
102
RTVSPropertyOp30
 70
     1
102
RTVSPropertyOp31
 70
     1
102
RTVSPropertyOp32
 70
     1
  0
XRECORD
  5
342
102
{ACAD_REACTORS
330
341
102
}
330
341
100
AcDbXrecord
280
     1
102
RTVSPropertyOp0
 70
     0
102
RTVSPropertyOp1
 70
     0
102
RTVSPropertyOp2
 70
     0
102
RTVSPropertyOp3
 70
     0
102
RTVSPropertyOp4
 70
     0
102
RTVSPropertyOp5
 70
     0
102
RTVSPropertyOp6
 70
     0
102
RTVSPropertyOp7
 70
     0
102
RTVSPropertyOp8
 70
     0
102
RTVSPropertyOp9
 70
     0
102
RTVSPropertyOp10
 70
     0
102
RTVSPropertyOp11
 70
     0
102
RTVSPropertyOp12
 70
     0
102
RTVSPropertyOp13
 70
     0
102
RTVSPropertyOp14
 70
     2
102
RTVSPropertyOp15
 70
     0
102
RTVSPropertyOp16
 70
     0
102
RTVSPropertyOp17
 70
     0
102
RTVSPropertyOp18
 70
     0
102
RTVSPropertyOp19
 70
     0
102
RTVSPropertyOp20
 70
     0
102
RTVSPropertyOp21
 70
     0
102
RTVSPropertyOp22
 70
     0
102
RTVSPropertyOp23
 70
     0
102
RTVSPropertyOp24
 70
     0
102
RTVSPropertyOp25
 70
     0
102
RTVSPropertyOp26
 70
     0
102
RTVSPropertyOp27
 70
     0
102
RTVSPropertyOp28
 70
     0
102
RTVSPropertyOp29
 70
     0
102
RTVSPropertyOp30
 70
     0
102
RTVSPropertyOp31
 70
     0
102
RTVSPropertyOp32
 70
     0
  0
XRECORD
  5
330
102
{ACAD_REACTORS
330
32F
102
}
330
32F
100
AcDbXrecord
280
     1
102
RTVSPropertyOp0
 70
     1
102
RTVSPropertyOp1
 70
     1
102
RTVSPropertyOp2
 70
     1
102
RTVSPropertyOp3
 70
     1
102
RTVSPropertyOp4
 70
     1
102
RTVSPropertyOp5
 70
     1
102
RTVSPropertyOp6
 70
     1
102
RTVSPropertyOp7
 70
     1
102
RTVSPropertyOp8
 70
     1
102
RTVSPropertyOp9
 70
     1
102
RTVSPropertyOp10
 70
     1
102
RTVSPropertyOp11
 70
     1
102
RTVSPropertyOp12
 70
     1
102
RTVSPropertyOp13
 70
     1
102
RTVSPropertyOp14
 70
     1
102
RTVSPropertyOp15
 70
     1
102
RTVSPropertyOp16
 70
     1
102
RTVSPropertyOp17
 70
     1
102
RTVSPropertyOp18
 70
     1
102
RTVSPropertyOp19
 70
     1
102
RTVSPropertyOp20
 70
     1
102
RTVSPropertyOp21
 70
     1
102
RTVSPropertyOp22
 70
     1
102
RTVSPropertyOp23
 70
     1
102
RTVSPropertyOp24
 70
     1
102
RTVSPropertyOp25
 70
     1
102
RTVSPropertyOp26
 70
     1
102
RTVSPropertyOp27
 70
     1
102
RTVSPropertyOp28
 70
     1
102
RTVSPropertyOp29
 70
     1
102
RTVSPropertyOp30
 70
     1
102
RTVSPropertyOp31
 70
     1
102
RTVSPropertyOp32
 70
     1
  0
XRECORD
  5
318
102
{ACAD_REACTORS
330
317
102
}
330
317
100
AcDbXrecord
280
     1
102
RTVSPropertyOp0
 70
     1
102
RTVSPropertyOp1
 70
     1
102
RTVSPropertyOp2
 70
     1
102
RTVSPropertyOp3
 70
     1
102
RTVSPropertyOp4
 70
     1
102
RTVSPropertyOp5
 70
     1
102
RTVSPropertyOp6
 70
     1
102
RTVSPropertyOp7
 70
     1
102
RTVSPropertyOp8
 70
     1
102
RTVSPropertyOp9
 70
     1
102
RTVSPropertyOp10
 70
     1
102
RTVSPropertyOp11
 70
     1
102
RTVSPropertyOp12
 70
     1
102
RTVSPropertyOp13
 70
     1
102
RTVSPropertyOp14
 70
     1
102
RTVSPropertyOp15
 70
     1
102
RTVSPropertyOp16
 70
     1
102
RTVSPropertyOp17
 70
     1
102
RTVSPropertyOp18
 70
     1
102
RTVSPropertyOp19
 70
     1
102
RTVSPropertyOp20
 70
     1
102
RTVSPropertyOp21
 70
     1
102
RTVSPropertyOp22
 70
     1
102
RTVSPropertyOp23
 70
     1
102
RTVSPropertyOp24
 70
     1
102
RTVSPropertyOp25
 70
     1
102
RTVSPropertyOp26
 70
     1
102
RTVSPropertyOp27
 70
     1
102
RTVSPropertyOp28
 70
     1
102
RTVSPropertyOp29
 70
     1
102
RTVSPropertyOp30
 70
     1
102
RTVSPropertyOp31
 70
     1
102
RTVSPropertyOp32
 70
     1
  0
XRECORD
  5
31A
102
{ACAD_REACTORS
330
319
102
}
330
319
100
AcDbXrecord
280
     1
102
RTVSPropertyOp0
 70
     1
102
RTVSPropertyOp1
 70
     1
102
RTVSPropertyOp2
 70
     1
102
RTVSPropertyOp3
 70
     1
102
RTVSPropertyOp4
 70
     1
102
RTVSPropertyOp5
 70
     1
102
RTVSPropertyOp6
 70
     1
102
RTVSPropertyOp7
 70
     1
102
RTVSPropertyOp8
 70
     1
102
RTVSPropertyOp9
 70
     1
102
RTVSPropertyOp10
 70
     1
102
RTVSPropertyOp11
 70
     1
102
RTVSPropertyOp12
 70
     1
102
RTVSPropertyOp13
 70
     1
102
RTVSPropertyOp14
 70
     1
102
RTVSPropertyOp15
 70
     1
102
RTVSPropertyOp16
 70
     1
102
RTVSPropertyOp17
 70
     1
102
RTVSPropertyOp18
 70
     1
102
RTVSPropertyOp19
 70
     1
102
RTVSPropertyOp20
 70
     1
102
RTVSPropertyOp21
 70
     1
102
RTVSPropertyOp22
 70
     1
102
RTVSPropertyOp23
 70
     1
102
RTVSPropertyOp24
 70
     1
102
RTVSPropertyOp25
 70
     1
102
RTVSPropertyOp26
 70
     1
102
RTVSPropertyOp27
 70
     1
102
RTVSPropertyOp28
 70
     1
102
RTVSPropertyOp29
 70
     1
102
RTVSPropertyOp30
 70
     1
102
RTVSPropertyOp31
 70
     1
102
RTVSPropertyOp32
 70
     1
  0
XRECORD
  5
31C
102
{ACAD_REACTORS
330
31B
102
}
330
31B
100
AcDbXrecord
280
     1
102
RTVSPropertyOp0
 70
     1
102
RTVSPropertyOp1
 70
     1
102
RTVSPropertyOp2
 70
     1
102
RTVSPropertyOp3
 70
     1
102
RTVSPropertyOp4
 70
     1
102
RTVSPropertyOp5
 70
     1
102
RTVSPropertyOp6
 70
     1
102
RTVSPropertyOp7
 70
     1
102
RTVSPropertyOp8
 70
     1
102
RTVSPropertyOp9
 70
     1
102
RTVSPropertyOp10
 70
     1
102
RTVSPropertyOp11
 70
     1
102
RTVSPropertyOp12
 70
     1
102
RTVSPropertyOp13
 70
     1
102
RTVSPropertyOp14
 70
     1
102
RTVSPropertyOp15
 70
     1
102
RTVSPropertyOp16
 70
     1
102
RTVSPropertyOp17
 70
     1
102
RTVSPropertyOp18
 70
     1
102
RTVSPropertyOp19
 70
     1
102
RTVSPropertyOp20
 70
     1
102
RTVSPropertyOp21
 70
     1
102
RTVSPropertyOp22
 70
     1
102
RTVSPropertyOp23
 70
     1
102
RTVSPropertyOp24
 70
     1
102
RTVSPropertyOp25
 70
     1
102
RTVSPropertyOp26
 70
     1
102
RTVSPropertyOp27
 70
     1
102
RTVSPropertyOp28
 70
     1
102
RTVSPropertyOp29
 70
     1
102
RTVSPropertyOp30
 70
     1
102
RTVSPropertyOp31
 70
     1
102
RTVSPropertyOp32
 70
     1
  0
XRECORD
  5
31E
102
{ACAD_REACTORS
330
31D
102
}
330
31D
100
AcDbXrecord
280
     1
102
RTVSPropertyOp0
 70
     1
102
RTVSPropertyOp1
 70
     1
102
RTVSPropertyOp2
 70
     1
102
RTVSPropertyOp3
 70
     1
102
RTVSPropertyOp4
 70
     1
102
RTVSPropertyOp5
 70
     1
102
RTVSPropertyOp6
 70
     1
102
RTVSPropertyOp7
 70
     1
102
RTVSPropertyOp8
 70
     1
102
RTVSPropertyOp9
 70
     1
102
RTVSPropertyOp10
 70
     1
102
RTVSPropertyOp11
 70
     1
102
RTVSPropertyOp12
 70
     1
102
RTVSPropertyOp13
 70
     1
102
RTVSPropertyOp14
 70
     1
102
RTVSPropertyOp15
 70
     1
102
RTVSPropertyOp16
 70
     1
102
RTVSPropertyOp17
 70
     1
102
RTVSPropertyOp18
 70
     1
102
RTVSPropertyOp19
 70
     1
102
RTVSPropertyOp20
 70
     1
102
RTVSPropertyOp21
 70
     1
102
RTVSPropertyOp22
 70
     1
102
RTVSPropertyOp23
 70
     1
102
RTVSPropertyOp24
 70
     1
102
RTVSPropertyOp25
 70
     1
102
RTVSPropertyOp26
 70
     1
102
RTVSPropertyOp27
 70
     1
102
RTVSPropertyOp28
 70
     1
102
RTVSPropertyOp29
 70
     1
102
RTVSPropertyOp30
 70
     1
102
RTVSPropertyOp31
 70
     1
102
RTVSPropertyOp32
 70
     1
  0
XRECORD
  5
324
102
{ACAD_REACTORS
330
323
102
}
330
323
100
AcDbXrecord
280
     1
102
RTVSPropertyOp0
 70
     1
102
RTVSPropertyOp1
 70
     1
102
RTVSPropertyOp2
 70
     1
102
RTVSPropertyOp3
 70
     1
102
RTVSPropertyOp4
 70
     1
102
RTVSPropertyOp5
 70
     1
102
RTVSPropertyOp6
 70
     1
102
RTVSPropertyOp7
 70
     1
102
RTVSPropertyOp8
 70
     1
102
RTVSPropertyOp9
 70
     1
102
RTVSPropertyOp10
 70
     1
102
RTVSPropertyOp11
 70
     1
102
RTVSPropertyOp12
 70
     1
102
RTVSPropertyOp13
 70
     1
102
RTVSPropertyOp14
 70
     1
102
RTVSPropertyOp15
 70
     1
102
RTVSPropertyOp16
 70
     1
102
RTVSPropertyOp17
 70
     1
102
RTVSPropertyOp18
 70
     1
102
RTVSPropertyOp19
 70
     1
102
RTVSPropertyOp20
 70
     1
102
RTVSPropertyOp21
 70
     1
102
RTVSPropertyOp22
 70
     1
102
RTVSPropertyOp23
 70
     1
102
RTVSPropertyOp24
 70
     1
102
RTVSPropertyOp25
 70
     1
102
RTVSPropertyOp26
 70
     1
102
RTVSPropertyOp27
 70
     1
102
RTVSPropertyOp28
 70
     1
102
RTVSPropertyOp29
 70
     1
102
RTVSPropertyOp30
 70
     1
102
RTVSPropertyOp31
 70
     1
102
RTVSPropertyOp32
 70
     1
  0
XRECORD
  5
33E
102
{ACAD_REACTORS
330
33D
102
}
330
33D
100
AcDbXrecord
280
     1
102
RTVSPropertyOp0
 70
     0
102
RTVSPropertyOp1
 70
     0
102
RTVSPropertyOp2
 70
     0
102
RTVSPropertyOp3
 70
     0
102
RTVSPropertyOp4
 70
     0
102
RTVSPropertyOp5
 70
     0
102
RTVSPropertyOp6
 70
     0
102
RTVSPropertyOp7
 70
     0
102
RTVSPropertyOp8
 70
     0
102
RTVSPropertyOp9
 70
     0
102
RTVSPropertyOp10
 70
     0
102
RTVSPropertyOp11
 70
     0
102
RTVSPropertyOp12
 70
     0
102
RTVSPropertyOp13
 70
     0
102
RTVSPropertyOp14
 70
     2
102
RTVSPropertyOp15
 70
     0
102
RTVSPropertyOp16
 70
     0
102
RTVSPropertyOp17
 70
     0
102
RTVSPropertyOp18
 70
     0
102
RTVSPropertyOp19
 70
     0
102
RTVSPropertyOp20
 70
     0
102
RTVSPropertyOp21
 70
     0
102
RTVSPropertyOp22
 70
     0
102
RTVSPropertyOp23
 70
     0
102
RTVSPropertyOp24
 70
     0
102
RTVSPropertyOp25
 70
     0
102
RTVSPropertyOp26
 70
     0
102
RTVSPropertyOp27
 70
     0
102
RTVSPropertyOp28
 70
     0
102
RTVSPropertyOp29
 70
     0
102
RTVSPropertyOp30
 70
     0
102
RTVSPropertyOp31
 70
     0
102
RTVSPropertyOp32
 70
     0
  0
XRECORD
  5
32E
102
{ACAD_REACTORS
330
32D
102
}
330
32D
100
AcDbXrecord
280
     1
102
RTVSPropertyOp0
 70
     1
102
RTVSPropertyOp1
 70
     1
102
RTVSPropertyOp2
 70
     1
102
RTVSPropertyOp3
 70
     1
102
RTVSPropertyOp4
 70
     1
102
RTVSPropertyOp5
 70
     1
102
RTVSPropertyOp6
 70
     1
102
RTVSPropertyOp7
 70
     1
102
RTVSPropertyOp8
 70
     1
102
RTVSPropertyOp9
 70
     1
102
RTVSPropertyOp10
 70
     1
102
RTVSPropertyOp11
 70
     1
102
RTVSPropertyOp12
 70
     1
102
RTVSPropertyOp13
 70
     1
102
RTVSPropertyOp14
 70
     1
102
RTVSPropertyOp15
 70
     1
102
RTVSPropertyOp16
 70
     1
102
RTVSPropertyOp17
 70
     1
102
RTVSPropertyOp18
 70
     1
102
RTVSPropertyOp19
 70
     1
102
RTVSPropertyOp20
 70
     1
102
RTVSPropertyOp21
 70
     1
102
RTVSPropertyOp22
 70
     1
102
RTVSPropertyOp23
 70
     1
102
RTVSPropertyOp24
 70
     1
102
RTVSPropertyOp25
 70
     1
102
RTVSPropertyOp26
 70
     1
102
RTVSPropertyOp27
 70
     1
102
RTVSPropertyOp28
 70
     1
102
RTVSPropertyOp29
 70
     1
102
RTVSPropertyOp30
 70
     1
102
RTVSPropertyOp31
 70
     1
102
RTVSPropertyOp32
 70
     1
  0
XRECORD
  5
340
102
{ACAD_REACTORS
330
33F
102
}
330
33F
100
AcDbXrecord
280
     1
102
RTVSPropertyOp0
 70
     0
102
RTVSPropertyOp1
 70
     0
102
RTVSPropertyOp2
 70
     0
102
RTVSPropertyOp3
 70
     0
102
RTVSPropertyOp4
 70
     0
102
RTVSPropertyOp5
 70
     0
102
RTVSPropertyOp6
 70
     0
102
RTVSPropertyOp7
 70
     0
102
RTVSPropertyOp8
 70
     0
102
RTVSPropertyOp9
 70
     0
102
RTVSPropertyOp10
 70
     0
102
RTVSPropertyOp11
 70
     0
102
RTVSPropertyOp12
 70
     0
102
RTVSPropertyOp13
 70
     0
102
RTVSPropertyOp14
 70
     2
102
RTVSPropertyOp15
 70
     0
102
RTVSPropertyOp16
 70
     0
102
RTVSPropertyOp17
 70
     0
102
RTVSPropertyOp18
 70
     0
102
RTVSPropertyOp19
 70
     0
102
RTVSPropertyOp20
 70
     0
102
RTVSPropertyOp21
 70
     0
102
RTVSPropertyOp22
 70
     0
102
RTVSPropertyOp23
 70
     0
102
RTVSPropertyOp24
 70
     0
102
RTVSPropertyOp25
 70
     0
102
RTVSPropertyOp26
 70
     0
102
RTVSPropertyOp27
 70
     0
102
RTVSPropertyOp28
 70
     0
102
RTVSPropertyOp29
 70
     0
102
RTVSPropertyOp30
 70
     0
102
RTVSPropertyOp31
 70
     0
102
RTVSPropertyOp32
 70
     0
  0
XRECORD
  5
311
102
{ACAD_REACTORS
330
310
102
}
330
310
100
AcDbXrecord
280
     1
102
RTVSPropertyOp0
 70
     1
102
RTVSPropertyOp1
 70
     1
102
RTVSPropertyOp2
 70
     1
102
RTVSPropertyOp3
 70
     1
102
RTVSPropertyOp4
 70
     1
102
RTVSPropertyOp5
 70
     1
102
RTVSPropertyOp6
 70
     1
102
RTVSPropertyOp7
 70
     1
102
RTVSPropertyOp8
 70
     1
102
RTVSPropertyOp9
 70
     1
102
RTVSPropertyOp10
 70
     1
102
RTVSPropertyOp11
 70
     1
102
RTVSPropertyOp12
 70
     1
102
RTVSPropertyOp13
 70
     1
102
RTVSPropertyOp14
 70
     1
102
RTVSPropertyOp15
 70
     1
102
RTVSPropertyOp16
 70
     1
102
RTVSPropertyOp17
 70
     1
102
RTVSPropertyOp18
 70
     1
102
RTVSPropertyOp19
 70
     1
102
RTVSPropertyOp20
 70
     1
102
RTVSPropertyOp21
 70
     1
102
RTVSPropertyOp22
 70
     1
102
RTVSPropertyOp23
 70
     1
102
RTVSPropertyOp24
 70
     1
102
RTVSPropertyOp25
 70
     1
102
RTVSPropertyOp26
 70
     1
102
RTVSPropertyOp27
 70
     1
102
RTVSPropertyOp28
 70
     1
102
RTVSPropertyOp29
 70
     1
102
RTVSPropertyOp30
 70
     1
102
RTVSPropertyOp31
 70
     1
102
RTVSPropertyOp32
 70
     1
  0
XRECORD
  5
33C
102
{ACAD_REACTORS
330
33B
102
}
330
33B
100
AcDbXrecord
280
     1
102
RTVSPropertyOp0
 70
     1
102
RTVSPropertyOp1
 70
     1
102
RTVSPropertyOp2
 70
     1
102
RTVSPropertyOp3
 70
     1
102
RTVSPropertyOp4
 70
     1
102
RTVSPropertyOp5
 70
     1
102
RTVSPropertyOp6
 70
     1
102
RTVSPropertyOp7
 70
     1
102
RTVSPropertyOp8
 70
     1
102
RTVSPropertyOp9
 70
     1
102
RTVSPropertyOp10
 70
     1
102
RTVSPropertyOp11
 70
     1
102
RTVSPropertyOp12
 70
     1
102
RTVSPropertyOp13
 70
     1
102
RTVSPropertyOp14
 70
     1
102
RTVSPropertyOp15
 70
     1
102
RTVSPropertyOp16
 70
     1
102
RTVSPropertyOp17
 70
     1
102
RTVSPropertyOp18
 70
     1
102
RTVSPropertyOp19
 70
     1
102
RTVSPropertyOp20
 70
     1
102
RTVSPropertyOp21
 70
     1
102
RTVSPropertyOp22
 70
     1
102
RTVSPropertyOp23
 70
     1
102
RTVSPropertyOp24
 70
     1
102
RTVSPropertyOp25
 70
     1
102
RTVSPropertyOp26
 70
     1
102
RTVSPropertyOp27
 70
     1
102
RTVSPropertyOp28
 70
     1
102
RTVSPropertyOp29
 70
     1
102
RTVSPropertyOp30
 70
     1
102
RTVSPropertyOp31
 70
     1
102
RTVSPropertyOp32
 70
     1
  0
XRECORD
  5
33A
102
{ACAD_REACTORS
330
339
102
}
330
339
100
AcDbXrecord
280
     1
102
RTVSPropertyOp0
 70
     1
102
RTVSPropertyOp1
 70
     1
102
RTVSPropertyOp2
 70
     1
102
RTVSPropertyOp3
 70
     1
102
RTVSPropertyOp4
 70
     1
102
RTVSPropertyOp5
 70
     1
102
RTVSPropertyOp6
 70
     1
102
RTVSPropertyOp7
 70
     1
102
RTVSPropertyOp8
 70
     1
102
RTVSPropertyOp9
 70
     1
102
RTVSPropertyOp10
 70
     1
102
RTVSPropertyOp11
 70
     1
102
RTVSPropertyOp12
 70
     1
102
RTVSPropertyOp13
 70
     1
102
RTVSPropertyOp14
 70
     1
102
RTVSPropertyOp15
 70
     1
102
RTVSPropertyOp16
 70
     1
102
RTVSPropertyOp17
 70
     1
102
RTVSPropertyOp18
 70
     1
102
RTVSPropertyOp19
 70
     1
102
RTVSPropertyOp20
 70
     1
102
RTVSPropertyOp21
 70
     1
102
RTVSPropertyOp22
 70
     1
102
RTVSPropertyOp23
 70
     1
102
RTVSPropertyOp24
 70
     1
102
RTVSPropertyOp25
 70
     1
102
RTVSPropertyOp26
 70
     1
102
RTVSPropertyOp27
 70
     1
102
RTVSPropertyOp28
 70
     1
102
RTVSPropertyOp29
 70
     1
102
RTVSPropertyOp30
 70
     1
102
RTVSPropertyOp31
 70
     1
102
RTVSPropertyOp32
 70
     1
  0
XRECORD
  5
334
102
{ACAD_REACTORS
330
333
102
}
330
333
100
AcDbXrecord
280
     1
102
RTVSPropertyOp0
 70
     1
102
RTVSPropertyOp1
 70
     1
102
RTVSPropertyOp2
 70
     1
102
RTVSPropertyOp3
 70
     1
102
RTVSPropertyOp4
 70
     1
102
RTVSPropertyOp5
 70
     1
102
RTVSPropertyOp6
 70
     1
102
RTVSPropertyOp7
 70
     1
102
RTVSPropertyOp8
 70
     1
102
RTVSPropertyOp9
 70
     1
102
RTVSPropertyOp10
 70
     1
102
RTVSPropertyOp11
 70
     1
102
RTVSPropertyOp12
 70
     1
102
RTVSPropertyOp13
 70
     1
102
RTVSPropertyOp14
 70
     1
102
RTVSPropertyOp15
 70
     1
102
RTVSPropertyOp16
 70
     1
102
RTVSPropertyOp17
 70
     1
102
RTVSPropertyOp18
 70
     1
102
RTVSPropertyOp19
 70
     1
102
RTVSPropertyOp20
 70
     1
102
RTVSPropertyOp21
 70
     1
102
RTVSPropertyOp22
 70
     1
102
RTVSPropertyOp23
 70
     1
102
RTVSPropertyOp24
 70
     1
102
RTVSPropertyOp25
 70
     1
102
RTVSPropertyOp26
 70
     1
102
RTVSPropertyOp27
 70
     1
102
RTVSPropertyOp28
 70
     1
102
RTVSPropertyOp29
 70
     1
102
RTVSPropertyOp30
 70
     1
102
RTVSPropertyOp31
 70
     1
102
RTVSPropertyOp32
 70
     1
  0
XRECORD
  5
336
102
{ACAD_REACTORS
330
335
102
}
330
335
100
AcDbXrecord
280
     1
102
RTVSPropertyOp0
 70
     1
102
RTVSPropertyOp1
 70
     1
102
RTVSPropertyOp2
 70
     1
102
RTVSPropertyOp3
 70
     1
102
RTVSPropertyOp4
 70
     1
102
RTVSPropertyOp5
 70
     1
102
RTVSPropertyOp6
 70
     1
102
RTVSPropertyOp7
 70
     1
102
RTVSPropertyOp8
 70
     1
102
RTVSPropertyOp9
 70
     1
102
RTVSPropertyOp10
 70
     1
102
RTVSPropertyOp11
 70
     1
102
RTVSPropertyOp12
 70
     1
102
RTVSPropertyOp13
 70
     1
102
RTVSPropertyOp14
 70
     1
102
RTVSPropertyOp15
 70
     1
102
RTVSPropertyOp16
 70
     1
102
RTVSPropertyOp17
 70
     1
102
RTVSPropertyOp18
 70
     1
102
RTVSPropertyOp19
 70
     1
102
RTVSPropertyOp20
 70
     1
102
RTVSPropertyOp21
 70
     1
102
RTVSPropertyOp22
 70
     1
102
RTVSPropertyOp23
 70
     1
102
RTVSPropertyOp24
 70
     1
102
RTVSPropertyOp25
 70
     1
102
RTVSPropertyOp26
 70
     1
102
RTVSPropertyOp27
 70
     1
102
RTVSPropertyOp28
 70
     1
102
RTVSPropertyOp29
 70
     1
102
RTVSPropertyOp30
 70
     1
102
RTVSPropertyOp31
 70
     1
102
RTVSPropertyOp32
 70
     1
  0
XRECORD
  5
32C
102
{ACAD_REACTORS
330
32B
102
}
330
32B
100
AcDbXrecord
280
     1
102
RTVSPropertyOp0
 70
     1
102
RTVSPropertyOp1
 70
     1
102
RTVSPropertyOp2
 70
     1
102
RTVSPropertyOp3
 70
     1
102
RTVSPropertyOp4
 70
     1
102
RTVSPropertyOp5
 70
     1
102
RTVSPropertyOp6
 70
     1
102
RTVSPropertyOp7
 70
     1
102
RTVSPropertyOp8
 70
     1
102
RTVSPropertyOp9
 70
     1
102
RTVSPropertyOp10
 70
     1
102
RTVSPropertyOp11
 70
     1
102
RTVSPropertyOp12
 70
     1
102
RTVSPropertyOp13
 70
     1
102
RTVSPropertyOp14
 70
     1
102
RTVSPropertyOp15
 70
     1
102
RTVSPropertyOp16
 70
     1
102
RTVSPropertyOp17
 70
     1
102
RTVSPropertyOp18
 70
     1
102
RTVSPropertyOp19
 70
     1
102
RTVSPropertyOp20
 70
     1
102
RTVSPropertyOp21
 70
     1
102
RTVSPropertyOp22
 70
     1
102
RTVSPropertyOp23
 70
     1
102
RTVSPropertyOp24
 70
     1
102
RTVSPropertyOp25
 70
     1
102
RTVSPropertyOp26
 70
     1
102
RTVSPropertyOp27
 70
     1
102
RTVSPropertyOp28
 70
     1
102
RTVSPropertyOp29
 70
     1
102
RTVSPropertyOp30
 70
     1
102
RTVSPropertyOp31
 70
     1
102
RTVSPropertyOp32
 70
     1
  0
XRECORD
  5
322
102
{ACAD_REACTORS
330
321
102
}
330
321
100
AcDbXrecord
280
     1
102
RTVSPropertyOp0
 70
     1
102
RTVSPropertyOp1
 70
     1
102
RTVSPropertyOp2
 70
     1
102
RTVSPropertyOp3
 70
     1
102
RTVSPropertyOp4
 70
     1
102
RTVSPropertyOp5
 70
     1
102
RTVSPropertyOp6
 70
     1
102
RTVSPropertyOp7
 70
     1
102
RTVSPropertyOp8
 70
     1
102
RTVSPropertyOp9
 70
     1
102
RTVSPropertyOp10
 70
     1
102
RTVSPropertyOp11
 70
     1
102
RTVSPropertyOp12
 70
     1
102
RTVSPropertyOp13
 70
     1
102
RTVSPropertyOp14
 70
     1
102
RTVSPropertyOp15
 70
     1
102
RTVSPropertyOp16
 70
     1
102
RTVSPropertyOp17
 70
     1
102
RTVSPropertyOp18
 70
     1
102
RTVSPropertyOp19
 70
     1
102
RTVSPropertyOp20
 70
     1
102
RTVSPropertyOp21
 70
     1
102
RTVSPropertyOp22
 70
     1
102
RTVSPropertyOp23
 70
     1
102
RTVSPropertyOp24
 70
     1
102
RTVSPropertyOp25
 70
     1
102
RTVSPropertyOp26
 70
     1
102
RTVSPropertyOp27
 70
     1
102
RTVSPropertyOp28
 70
     1
102
RTVSPropertyOp29
 70
     1
102
RTVSPropertyOp30
 70
     1
102
RTVSPropertyOp31
 70
     1
102
RTVSPropertyOp32
 70
     1
  0
XRECORD
  5
338
102
{ACAD_REACTORS
330
337
102
}
330
337
100
AcDbXrecord
280
     1
102
RTVSPropertyOp0
 70
     1
102
RTVSPropertyOp1
 70
     1
102
RTVSPropertyOp2
 70
     1
102
RTVSPropertyOp3
 70
     1
102
RTVSPropertyOp4
 70
     1
102
RTVSPropertyOp5
 70
     1
102
RTVSPropertyOp6
 70
     1
102
RTVSPropertyOp7
 70
     1
102
RTVSPropertyOp8
 70
     1
102
RTVSPropertyOp9
 70
     1
102
RTVSPropertyOp10
 70
     1
102
RTVSPropertyOp11
 70
     1
102
RTVSPropertyOp12
 70
     1
102
RTVSPropertyOp13
 70
     1
102
RTVSPropertyOp14
 70
     1
102
RTVSPropertyOp15
 70
     1
102
RTVSPropertyOp16
 70
     1
102
RTVSPropertyOp17
 70
     1
102
RTVSPropertyOp18
 70
     1
102
RTVSPropertyOp19
 70
     1
102
RTVSPropertyOp20
 70
     1
102
RTVSPropertyOp21
 70
     1
102
RTVSPropertyOp22
 70
     1
102
RTVSPropertyOp23
 70
     1
102
RTVSPropertyOp24
 70
     1
102
RTVSPropertyOp25
 70
     1
102
RTVSPropertyOp26
 70
     1
102
RTVSPropertyOp27
 70
     1
102
RTVSPropertyOp28
 70
     1
102
RTVSPropertyOp29
 70
     1
102
RTVSPropertyOp30
 70
     1
102
RTVSPropertyOp31
 70
     1
102
RTVSPropertyOp32
 70
     1
  0
ENDSEC
  0
EOF
